0
SECTION
2
HEADER
9
$ACADVER
1
AC1009
0
ENDSEC
0
SECTION
2
TABLES
0
TABLE
2
VPORT
70
1
0
VPORT
2
ACTIVE
70
0
10
0.0
20
0.0
11
0.0
21
0.0
12
0.0
22
0.0
13
0.0
23
0.0
14
0.0
24
0.0
15
0.0
25
0.0
16
0.0
26
0.0
36
0.0
17
0.0
27
0.0
37
0.0
40
0.0
41
0.0
42
0.0
43
0.0
44
0.0
50
0.0
51
0.0
71
0
72
1000
73
1
74
3
75
0
76
0
77
0
78
0
0
ENDTAB
0
ENDSEC
0
SECTION
2
ENTITIES
0
LINE
8
boundary
62
5
39
2
10
198.946938
20
321.587493
11
30.187499
21
321.587493
0
LINE
8
boundary
62
5
39
2
10
30.187499
20
321.587493
11
30.187499
21
309.699385
0
LINE
8
boundary
62
5
39
2
10
30.187499
20
309.699385
11
30.187499
21
271.587505
0
LINE
8
boundary
62
5
39
2
10
30.187499
20
271.587505
11
23.387500
21
275.153936
0
LINE
8
boundary
62
5
39
2
10
23.387500
20
275.153936
11
1.587501
21
286.587497
0
LINE
8
boundary
62
5
39
2
10
1.587501
20
286.587497
11
1.587500
21
269.944143
0
LINE
8
boundary
62
5
39
2
10
1.587500
20
269.944143
11
1.587500
21
216.587500
0
LINE
8
boundary
62
5
39
2
10
1.587500
20
216.587500
11
8.387500
21
220.153934
0
LINE
8
boundary
62
5
39
2
10
8.387500
20
220.153934
11
30.187499
21
231.587500
0
LINE
8
boundary
62
5
39
2
10
30.187499
20
231.587500
11
30.187499
21
219.699388
0
LINE
8
boundary
62
5
39
2
10
30.187499
20
219.699388
11
30.187499
21
181.587495
0
LINE
8
boundary
62
5
39
2
10
30.187499
20
181.587495
11
23.387500
21
185.153930
0
LINE
8
boundary
62
5
39
2
10
23.387500
20
185.153930
11
1.587501
21
196.587501
0
LINE
8
boundary
62
5
39
2
10
1.587501
20
196.587501
11
1.587500
21
179.944144
0
LINE
8
boundary
62
5
39
2
10
1.587500
20
179.944144
11
1.587501
21
126.587492
0
LINE
8
boundary
62
5
39
2
10
1.587501
20
126.587492
11
8.387499
21
130.153927
0
LINE
8
boundary
62
5
39
2
10
8.387499
20
130.153927
11
30.187499
21
141.587498
0
LINE
8
boundary
62
5
39
2
10
30.187499
20
141.587498
11
30.187499
21
129.699388
0
LINE
8
boundary
62
5
39
2
10
30.187499
20
129.699388
11
30.187499
21
91.587500
0
LINE
8
boundary
62
5
39
2
10
30.187499
20
91.587500
11
23.387500
21
95.153931
0
LINE
8
boundary
62
5
39
2
10
23.387500
20
95.153931
11
1.587501
21
106.587493
0
LINE
8
boundary
62
5
39
2
10
1.587501
20
106.587493
11
1.587500
21
89.944135
0
LINE
8
boundary
62
5
39
2
10
1.587500
20
89.944135
11
1.587501
21
36.587483
0
LINE
8
boundary
62
5
39
2
10
1.587501
20
36.587483
11
8.387500
21
40.153915
0
LINE
8
boundary
62
5
39
2
10
8.387500
20
40.153915
11
30.187499
21
51.587476
0
LINE
8
boundary
62
5
39
2
10
30.187499
20
51.587476
11
30.187499
21
39.699371
0
LINE
8
boundary
62
5
39
2
10
30.187499
20
39.699371
11
30.187499
21
1.587500
0
LINE
8
boundary
62
5
39
2
10
30.187499
20
1.587500
11
82.828054
21
1.587500
0
LINE
8
boundary
62
5
39
2
10
82.828054
20
1.587500
11
251.587493
21
1.587500
0
LINE
8
boundary
62
5
39
2
10
251.587493
20
1.587500
11
251.424530
21
2.951154
0
LINE
8
boundary
62
5
39
2
10
251.424530
20
2.951154
11
250.902091
21
7.322870
0
LINE
8
boundary
62
5
39
2
10
250.902091
20
7.322870
11
250.758459
21
8.651391
0
LINE
8
boundary
62
5
39
2
10
250.758459
20
8.651391
11
250.297994
21
12.910477
0
LINE
8
boundary
62
5
39
2
10
250.297994
20
12.910477
11
250.173655
21
14.203857
0
LINE
8
boundary
62
5
39
2
10
250.173655
20
14.203857
11
249.775037
21
18.350286
0
LINE
8
boundary
62
5
39
2
10
249.775037
20
18.350286
11
249.669887
21
19.608445
0
LINE
8
boundary
62
5
39
2
10
249.669887
20
19.608445
11
249.332786
21
23.641956
0
LINE
8
boundary
62
5
39
2
10
249.332786
20
23.641956
11
249.246689
21
24.864857
0
LINE
8
boundary
62
5
39
2
10
249.246689
20
24.864857
11
248.970672
21
28.785331
0
LINE
8
boundary
62
5
39
2
10
248.970672
20
28.785331
11
248.903465
21
29.972875
0
LINE
8
boundary
62
5
39
2
10
248.903465
20
29.972875
11
248.688012
21
33.780000
0
LINE
8
boundary
62
5
39
2
10
248.688012
20
33.780000
11
248.639502
21
34.932094
0
LINE
8
boundary
62
5
39
2
10
248.639502
20
34.932094
11
248.483986
21
38.625573
0
LINE
8
boundary
62
5
39
2
10
248.483986
20
38.625573
11
248.453940
21
39.742132
0
LINE
8
boundary
62
5
39
2
10
248.453940
20
39.742132
11
248.357615
21
43.321690
0
LINE
8
boundary
62
5
39
2
10
248.357615
20
43.321690
11
248.345770
21
44.402581
0
LINE
8
boundary
62
5
39
2
10
248.345770
20
44.402581
11
248.307797
21
47.867791
0
LINE
8
boundary
62
5
39
2
10
248.307797
20
47.867791
11
248.313880
21
48.912913
0
LINE
8
boundary
62
5
39
2
10
248.313880
20
48.912913
11
248.333380
21
52.263453
0
LINE
8
boundary
62
5
39
2
10
248.333380
20
52.263453
11
248.357070
21
53.272688
0
LINE
8
boundary
62
5
39
2
10
248.357070
20
53.272688
11
248.433016
21
56.508179
0
LINE
8
boundary
62
5
39
2
10
248.433016
20
56.508179
11
248.473985
21
57.481393
0
LINE
8
boundary
62
5
39
2
10
248.473985
20
57.481393
11
248.605326
21
60.601407
0
LINE
8
boundary
62
5
39
2
10
248.605326
20
60.601407
11
248.737653
21
62.439340
0
LINE
8
boundary
62
5
39
2
10
248.737653
20
62.439340
11
249.161878
21
68.331537
0
LINE
8
boundary
62
5
39
2
10
249.161878
20
68.331537
11
249.358787
21
70.024037
0
LINE
8
boundary
62
5
39
2
10
249.358787
20
70.024037
11
249.990053
21
75.449992
0
LINE
8
boundary
62
5
39
2
10
249.990053
20
75.449992
11
250.248178
21
76.996259
0
LINE
8
boundary
62
5
39
2
10
250.248178
20
76.996259
11
251.075700
21
81.953410
0
LINE
8
boundary
62
5
39
2
10
251.075700
20
81.953410
11
251.391460
21
83.352827
0
LINE
8
boundary
62
5
39
2
10
251.391460
20
83.352827
11
252.403750
21
87.839194
0
LINE
8
boundary
62
5
39
2
10
252.403750
20
87.839194
11
252.773389
21
89.091378
0
LINE
8
boundary
62
5
39
2
10
252.773389
20
89.091378
11
253.958409
21
93.105734
0
LINE
8
boundary
62
5
39
2
10
253.958409
20
93.105734
11
254.378058
21
94.210634
0
LINE
8
boundary
62
5
39
2
10
254.378058
20
94.210634
11
255.723403
21
97.752815
0
LINE
8
boundary
62
5
39
2
10
255.723403
20
97.752815
11
256.189121
21
98.710768
0
LINE
8
boundary
62
5
39
2
10
256.189121
20
98.710768
11
257.682158
21
101.781851
0
LINE
8
boundary
62
5
39
2
10
257.682158
20
101.781851
11
258.190023
21
102.593645
0
LINE
8
boundary
62
5
39
2
10
258.190023
20
102.593645
11
259.818180
21
105.196159
0
LINE
8
boundary
62
5
39
2
10
259.818180
20
105.196159
11
260.364300
21
105.863113
0
LINE
8
boundary
62
5
39
2
10
260.364300
20
105.863113
11
262.115097
21
108.001288
0
LINE
8
boundary
62
5
39
2
10
262.115097
20
108.001288
11
262.695656
21
108.525324
0
LINE
8
boundary
62
5
39
2
10
262.695656
20
108.525324
11
264.556860
21
110.205325
0
LINE
8
boundary
62
5
39
2
10
264.556860
20
110.205325
11
265.168232
21
110.589011
0
LINE
8
boundary
62
5
39
2
10
265.168232
20
110.589011
11
267.128221
21
111.819065
0
LINE
8
boundary
62
5
39
2
10
267.128221
20
111.819065
11
267.766931
21
112.065692
0
LINE
8
boundary
62
5
39
2
10
267.766931
20
112.065692
11
269.814563
21
112.856348
0
LINE
8
boundary
62
5
39
2
10
269.814563
20
112.856348
11
270.477410
21
112.969997
0
LINE
8
boundary
62
5
39
2
10
270.477410
20
112.969997
11
272.602420
21
113.334344
0
LINE
8
boundary
62
5
39
2
10
272.602420
20
113.334344
11
273.286509
21
113.319964
0
LINE
8
boundary
62
5
39
2
10
273.286509
20
113.319964
11
275.479618
21
113.273863
0
LINE
8
boundary
62
5
39
2
10
275.479618
20
113.273863
11
276.182411
21
113.137355
0
LINE
8
boundary
62
5
39
2
10
276.182411
20
113.137355
11
278.435482
21
112.699723
0
LINE
8
boundary
62
5
39
2
10
278.435482
20
112.699723
11
279.154868
21
112.448037
0
LINE
8
boundary
62
5
39
2
10
279.154868
20
112.448037
11
281.461133
21
111.641160
0
LINE
8
boundary
62
5
39
2
10
281.461133
20
111.641160
11
282.195506
21
111.282357
0
LINE
8
boundary
62
5
39
2
10
282.195506
20
111.282357
11
284.549820
21
110.132074
0
LINE
8
boundary
62
5
39
2
10
284.549820
20
110.132074
11
285.298026
21
109.675302
0
LINE
8
boundary
62
5
39
2
10
285.298026
20
109.675302
11
287.696690
21
108.210946
0
LINE
8
boundary
62
5
39
2
10
287.696690
20
108.210946
11
288.458044
21
107.666332
0
LINE
8
boundary
62
5
39
2
10
288.458044
20
107.666332
11
290.898856
21
105.920364
0
LINE
8
boundary
62
5
39
2
10
290.898856
20
105.920364
11
291.673049
21
105.298914
0
LINE
8
boundary
62
5
39
2
10
291.673049
20
105.298914
11
294.155023
21
103.306619
0
LINE
8
boundary
62
5
39
2
10
294.155023
20
103.306619
11
294.942073
21
102.620112
0
LINE
8
boundary
62
5
39
2
10
294.942073
20
102.620112
11
297.465262
21
100.419253
0
LINE
8
boundary
62
5
39
2
10
297.465262
20
100.419253
11
298.265507
21
99.680106
0
LINE
8
boundary
62
5
39
2
10
298.265507
20
99.680106
11
300.831002
21
97.310491
0
LINE
8
boundary
62
5
39
2
10
300.831002
20
97.310491
11
302.473414
21
95.726289
0
LINE
8
boundary
62
5
39
2
10
302.473414
20
95.726289
11
307.738792
21
90.647526
0
LINE
8
boundary
62
5
39
2
10
307.738792
20
90.647526
11
309.442059
21
89.011452
0
LINE
8
boundary
62
5
39
2
10
309.442059
20
89.011452
11
314.902533
21
83.766393
0
LINE
8
boundary
62
5
39
2
10
314.902533
20
83.766393
11
316.672757
21
82.186223
0
LINE
8
boundary
62
5
39
2
10
316.672757
20
82.186223
11
322.347887
21
77.120384
0
LINE
8
boundary
62
5
39
2
10
322.347887
20
77.120384
11
323.259640
21
76.384224
0
LINE
8
boundary
62
5
39
2
10
323.259640
20
76.384224
11
326.182610
21
74.024182
0
LINE
8
boundary
62
5
39
2
10
326.182610
20
74.024182
11
327.112576
21
73.340836
0
LINE
8
boundary
62
5
39
2
10
327.112576
20
73.340836
11
330.093938
21
71.150109
0
LINE
8
boundary
62
5
39
2
10
330.093938
20
71.150109
11
331.042153
21
70.531504
0
LINE
8
boundary
62
5
39
2
10
331.042153
20
70.531504
11
334.082019
21
68.548330
0
LINE
8
boundary
62
5
39
2
10
334.082019
20
68.548330
11
335.048140
21
68.005681
0
LINE
8
boundary
62
5
39
2
10
335.048140
20
68.005681
11
338.145409
21
66.266014
0
LINE
8
boundary
62
5
39
2
10
338.145409
20
66.266014
11
339.128658
21
65.809611
0
LINE
8
boundary
62
5
39
2
10
339.128658
20
65.809611
11
342.280840
21
64.346436
0
LINE
8
boundary
62
5
39
2
10
342.280840
20
64.346436
11
343.279954
21
63.985534
0
LINE
8
boundary
62
5
39
2
10
343.279954
20
63.985534
11
346.482994
21
62.828524
0
LINE
8
boundary
62
5
39
2
10
346.482994
20
62.828524
11
347.496146
21
62.571220
0
LINE
8
boundary
62
5
39
2
10
347.496146
20
62.571220
11
350.744192
21
61.746334
0
LINE
8
boundary
62
5
39
2
10
350.744192
20
61.746334
11
351.769013
21
61.599483
0
LINE
8
boundary
62
5
39
2
10
351.769013
20
61.599483
11
355.054466
21
61.128694
0
LINE
8
boundary
62
5
39
2
10
355.054466
20
61.128694
11
356.087970
21
61.097863
0
LINE
8
boundary
62
5
39
2
10
356.087970
20
61.097863
11
359.401258
21
60.999020
0
LINE
8
boundary
62
5
39
2
10
359.401258
20
60.999020
11
360.439876
21
61.088398
0
LINE
8
boundary
62
5
39
2
10
360.439876
20
61.088398
11
363.769559
21
61.374930
0
LINE
8
boundary
62
5
39
2
10
363.769559
20
61.374930
11
364.809104
21
61.587331
0
LINE
8
boundary
62
5
39
2
10
364.809104
20
61.587331
11
368.141762
21
62.268262
0
LINE
8
boundary
62
5
39
2
10
368.141762
20
62.268262
11
369.177594
21
62.605201
0
LINE
8
boundary
62
5
39
2
10
369.177594
20
62.605201
11
372.498351
21
63.685387
0
LINE
8
boundary
62
5
39
2
10
372.498351
20
63.685387
11
373.525354
21
64.147172
0
LINE
8
boundary
62
5
39
2
10
373.525354
20
64.147172
11
376.817806
21
65.627595
0
LINE
8
boundary
62
5
39
2
10
376.817806
20
65.627595
11
377.830567
21
66.213398
0
LINE
8
boundary
62
5
39
2
10
377.830567
20
66.213398
11
381.077358
21
68.091411
0
LINE
8
boundary
62
5
39
2
10
381.077358
20
68.091411
11
382.070197
21
68.799387
0
LINE
8
boundary
62
5
39
2
10
382.070197
20
68.799387
11
385.253120
21
71.069076
0
LINE
8
boundary
62
5
39
2
10
385.253120
20
71.069076
11
386.220179
21
71.896385
0
LINE
8
boundary
62
5
39
2
10
386.220179
20
71.896385
11
389.320459
21
74.548641
0
LINE
8
boundary
62
5
39
2
10
389.320459
20
74.548641
11
390.255729
21
75.491525
0
LINE
8
boundary
62
5
39
2
10
390.255729
20
75.491525
11
393.254098
21
78.514297
0
LINE
8
boundary
62
5
39
2
10
393.254098
20
78.514297
11
394.151558
21
79.568128
0
LINE
8
boundary
62
5
39
2
10
394.151558
20
79.568128
11
397.028710
21
82.946584
0
LINE
8
boundary
62
5
39
2
10
397.028710
20
82.946584
11
397.882306
21
84.105922
0
LINE
8
boundary
62
5
39
2
10
397.882306
20
84.105922
11
400.618837
21
87.822619
0
LINE
8
boundary
62
5
39
2
10
400.618837
20
87.822619
11
401.422600
21
89.081268
0
LINE
8
boundary
62
5
39
2
10
401.422600
20
89.081268
11
403.999372
21
93.116349
0
LINE
8
boundary
62
5
39
2
10
403.999372
20
93.116349
11
404.747488
21
94.467429
0
LINE
8
boundary
62
5
39
2
10
404.747488
20
94.467429
11
407.145861
21
98.798833
0
LINE
8
boundary
62
5
39
2
10
407.145861
20
98.798833
11
407.832729
21
100.234855
0
LINE
8
boundary
62
5
39
2
10
407.832729
20
100.234855
11
410.034747
21
104.838574
0
LINE
8
boundary
62
5
39
2
10
410.034747
20
104.838574
11
410.655053
21
106.351479
0
LINE
8
boundary
62
5
39
2
10
410.655053
20
106.351479
11
412.643684
21
111.201676
0
LINE
8
boundary
62
5
39
2
10
412.643684
20
111.201676
11
413.192496
21
112.782940
0
LINE
8
boundary
62
5
39
2
10
413.192496
20
112.782940
11
414.951925
21
117.852285
0
LINE
8
boundary
62
5
39
2
10
414.951925
20
117.852285
11
415.424719
21
119.492935
0
LINE
8
boundary
62
5
39
2
10
415.424719
20
119.492935
11
416.940443
21
124.752666
0
LINE
8
boundary
62
5
39
2
10
416.940443
20
124.752666
11
417.333222
21
126.443370
0
LINE
8
boundary
62
5
39
2
10
417.333222
20
126.443370
11
418.592425
21
131.863572
0
LINE
8
boundary
62
5
39
2
10
418.592425
20
131.863572
11
418.901733
21
133.594692
0
LINE
8
boundary
62
5
39
2
10
418.901733
20
133.594692
11
419.893338
21
139.144460
0
LINE
8
boundary
62
5
39
2
10
419.893338
20
139.144460
11
420.116394
21
140.906102
0
LINE
8
boundary
62
5
39
2
10
420.116394
20
140.906102
11
420.831484
21
146.553721
0
LINE
8
boundary
62
5
39
2
10
420.831484
20
146.553721
11
420.966190
21
148.335824
0
LINE
8
boundary
62
5
39
2
10
420.966190
20
148.335824
11
421.398043
21
154.049036
0
LINE
8
boundary
62
5
39
2
10
421.398043
20
154.049036
11
421.443087
21
155.841397
0
LINE
8
boundary
62
5
39
2
10
421.443087
20
155.841397
11
421.587494
21
161.587496
0
LINE
8
boundary
62
5
39
2
10
421.587494
20
161.587496
11
421.542450
21
163.379855
0
LINE
8
boundary
62
5
39
2
10
421.542450
20
163.379855
11
421.398043
21
169.125945
0
LINE
8
boundary
62
5
39
2
10
421.398043
20
169.125945
11
421.263337
21
170.908048
0
LINE
8
boundary
62
5
39
2
10
421.263337
20
170.908048
11
420.831484
21
176.621260
0
LINE
8
boundary
62
5
39
2
10
420.831484
20
176.621260
11
420.608429
21
178.382905
0
LINE
8
boundary
62
5
39
2
10
420.608429
20
178.382905
11
419.893339
21
184.030534
0
LINE
8
boundary
62
5
39
2
10
419.893339
20
184.030534
11
419.584030
21
185.761654
0
LINE
8
boundary
62
5
39
2
10
419.584030
20
185.761654
11
418.592425
21
191.311421
0
LINE
8
boundary
62
5
39
2
10
418.592425
20
191.311421
11
418.199646
21
193.002126
0
LINE
8
boundary
62
5
39
2
10
418.199646
20
193.002126
11
416.940443
21
198.422327
0
LINE
8
boundary
62
5
39
2
10
416.940443
20
198.422327
11
416.467648
21
200.062974
0
LINE
8
boundary
62
5
39
2
10
416.467648
20
200.062974
11
414.951925
21
205.322697
0
LINE
8
boundary
62
5
39
2
10
414.951925
20
205.322697
11
414.403112
21
206.903960
0
LINE
8
boundary
62
5
39
2
10
414.403112
20
206.903960
11
412.643684
21
211.973305
0
LINE
8
boundary
62
5
39
2
10
412.643684
20
211.973305
11
412.023378
21
213.486213
0
LINE
8
boundary
62
5
39
2
10
412.023378
20
213.486213
11
410.034747
21
218.336419
0
LINE
8
boundary
62
5
39
2
10
410.034747
20
218.336419
11
409.347879
21
219.772437
0
LINE
8
boundary
62
5
39
2
10
409.347879
20
219.772437
11
407.145861
21
224.376142
0
LINE
8
boundary
62
5
39
2
10
407.145861
20
224.376142
11
406.397744
21
225.727226
0
LINE
8
boundary
62
5
39
2
10
406.397744
20
225.727226
11
403.999372
21
230.058644
0
LINE
8
boundary
62
5
39
2
10
403.999372
20
230.058644
11
403.195608
21
231.317292
0
LINE
8
boundary
62
5
39
2
10
403.195608
20
231.317292
11
400.618837
21
235.352368
0
LINE
8
boundary
62
5
39
2
10
400.618837
20
235.352368
11
399.765240
21
236.511705
0
LINE
8
boundary
62
5
39
2
10
399.765240
20
236.511705
11
397.028709
21
240.228403
0
LINE
8
boundary
62
5
39
2
10
397.028709
20
240.228403
11
396.131249
21
241.282233
0
LINE
8
boundary
62
5
39
2
10
396.131249
20
241.282233
11
393.254098
21
244.660690
0
LINE
8
boundary
62
5
39
2
10
393.254098
20
244.660690
11
392.318826
21
245.603575
0
LINE
8
boundary
62
5
39
2
10
392.318826
20
245.603575
11
389.320459
21
248.626352
0
LINE
8
boundary
62
5
39
2
10
389.320459
20
248.626352
11
388.353400
21
249.453660
0
LINE
8
boundary
62
5
39
2
10
388.353400
20
249.453660
11
385.253120
21
252.105912
0
LINE
8
boundary
62
5
39
2
10
385.253120
20
252.105912
11
384.260281
21
252.813886
0
LINE
8
boundary
62
5
39
2
10
384.260281
20
252.813886
11
381.077358
21
255.083570
0
LINE
8
boundary
62
5
39
2
10
381.077358
20
255.083570
11
380.064597
21
255.669375
0
LINE
8
boundary
62
5
39
2
10
380.064597
20
255.669375
11
376.817807
21
257.547398
0
LINE
8
boundary
62
5
39
2
10
376.817807
20
257.547398
11
375.790803
21
258.009179
0
LINE
8
boundary
62
5
39
2
10
375.790803
20
258.009179
11
372.498351
21
259.489594
0
LINE
8
boundary
62
5
39
2
10
372.498351
20
259.489594
11
371.462519
21
259.826534
0
LINE
8
boundary
62
5
39
2
10
371.462519
20
259.826534
11
368.141762
21
260.906725
0
LINE
8
boundary
62
5
39
2
10
368.141762
20
260.906725
11
367.102217
21
261.119124
0
LINE
8
boundary
62
5
39
2
10
367.102217
20
261.119124
11
363.769560
21
261.800051
0
LINE
8
boundary
62
5
39
2
10
363.769560
20
261.800051
11
362.730943
21
261.889430
0
LINE
8
boundary
62
5
39
2
10
362.730943
20
261.889430
11
359.401258
21
262.175967
0
LINE
8
boundary
62
5
39
2
10
359.401258
20
262.175967
11
358.367756
21
262.145135
0
LINE
8
boundary
62
5
39
2
10
358.367756
20
262.145135
11
355.054467
21
262.046293
0
LINE
8
boundary
62
5
39
2
10
355.054467
20
262.046293
11
354.029646
21
261.899445
0
LINE
8
boundary
62
5
39
2
10
354.029646
20
261.899445
11
350.744192
21
261.428665
0
LINE
8
boundary
62
5
39
2
10
350.744192
20
261.428665
11
349.731040
21
261.171358
0
LINE
8
boundary
62
5
39
2
10
349.731040
20
261.171358
11
346.482994
21
260.346464
0
LINE
8
boundary
62
5
39
2
10
346.482994
20
260.346464
11
345.483880
21
259.985561
0
LINE
8
boundary
62
5
39
2
10
345.483880
20
259.985561
11
342.280840
21
258.828552
0
LINE
8
boundary
62
5
39
2
10
342.280840
20
258.828552
11
341.297591
21
258.372148
0
LINE
8
boundary
62
5
39
2
10
341.297591
20
258.372148
11
338.145410
21
256.908974
0
LINE
8
boundary
62
5
39
2
10
338.145410
20
256.908974
11
337.179288
21
256.366324
0
LINE
8
boundary
62
5
39
2
10
337.179288
20
256.366324
11
334.082019
21
254.626651
0
LINE
8
boundary
62
5
39
2
10
334.082019
20
254.626651
11
333.133804
21
254.008052
0
LINE
8
boundary
62
5
39
2
10
333.133804
20
254.008052
11
330.093938
21
252.024897
0
LINE
8
boundary
62
5
39
2
10
330.093938
20
252.024897
11
329.163972
21
251.341546
0
LINE
8
boundary
62
5
39
2
10
329.163972
20
251.341546
11
326.182610
21
249.150805
0
LINE
8
boundary
62
5
39
2
10
326.182610
20
249.150805
11
325.270858
21
248.414647
0
LINE
8
boundary
62
5
39
2
10
325.270858
20
248.414647
11
322.347888
21
246.054610
0
LINE
8
boundary
62
5
39
2
10
322.347888
20
246.054610
11
320.577663
21
244.474438
0
LINE
8
boundary
62
5
39
2
10
320.577663
20
244.474438
11
314.902533
21
239.408595
0
LINE
8
boundary
62
5
39
2
10
314.902533
20
239.408595
11
313.199267
21
237.772519
0
LINE
8
boundary
62
5
39
2
10
313.199267
20
237.772519
11
307.738793
21
232.527456
0
LINE
8
boundary
62
5
39
2
10
307.738793
20
232.527456
11
306.096381
21
230.943253
0
LINE
8
boundary
62
5
39
2
10
306.096381
20
230.943253
11
300.831002
21
225.864484
0
LINE
8
boundary
62
5
39
2
10
300.831002
20
225.864484
11
300.030756
21
225.125338
0
LINE
8
boundary
62
5
39
2
10
300.030756
20
225.125338
11
297.465262
21
222.755723
0
LINE
8
boundary
62
5
39
2
10
297.465262
20
222.755723
11
296.678212
21
222.069217
0
LINE
8
boundary
62
5
39
2
10
296.678212
20
222.069217
11
294.155023
21
219.868363
0
LINE
8
boundary
62
5
39
2
10
294.155023
20
219.868363
11
293.380830
21
219.246914
0
LINE
8
boundary
62
5
39
2
10
293.380830
20
219.246914
11
290.898856
21
217.254624
0
LINE
8
boundary
62
5
39
2
10
290.898856
20
217.254624
11
290.137502
21
216.710011
0
LINE
8
boundary
62
5
39
2
10
290.137502
20
216.710011
11
287.696690
21
214.964047
0
LINE
8
boundary
62
5
39
2
10
287.696690
20
214.964047
11
286.948483
21
214.507276
0
LINE
8
boundary
62
5
39
2
10
286.948483
20
214.507276
11
284.549819
21
213.042920
0
LINE
8
boundary
62
5
39
2
10
284.549819
20
213.042920
11
283.815446
21
212.684115
0
LINE
8
boundary
62
5
39
2
10
283.815446
20
212.684115
11
281.461133
21
211.533834
0
LINE
8
boundary
62
5
39
2
10
281.461133
20
211.533834
11
280.741747
21
211.282147
0
LINE
8
boundary
62
5
39
2
10
280.741747
20
211.282147
11
278.435482
21
210.475271
0
LINE
8
boundary
62
5
39
2
10
278.435482
20
210.475271
11
277.732689
21
210.338759
0
LINE
8
boundary
62
5
39
2
10
277.732689
20
210.338759
11
275.479619
21
209.901117
0
LINE
8
boundary
62
5
39
2
10
275.479619
20
209.901117
11
274.795529
21
209.886737
0
LINE
8
boundary
62
5
39
2
10
274.795529
20
209.886737
11
272.602420
21
209.840638
0
LINE
8
boundary
62
5
39
2
10
272.602420
20
209.840638
11
271.939573
21
209.954287
0
LINE
8
boundary
62
5
39
2
10
271.939573
20
209.954287
11
269.814563
21
210.318634
0
LINE
8
boundary
62
5
39
2
10
269.814563
20
210.318634
11
269.175852
21
210.565263
0
LINE
8
boundary
62
5
39
2
10
269.175852
20
210.565263
11
267.128221
21
211.355928
0
LINE
8
boundary
62
5
39
2
10
267.128221
20
211.355928
11
266.516848
21
211.739614
0
LINE
8
boundary
62
5
39
2
10
266.516848
20
211.739614
11
264.556860
21
212.969668
0
LINE
8
boundary
62
5
39
2
10
264.556860
20
212.969668
11
263.976300
21
213.493702
0
LINE
8
boundary
62
5
39
2
10
263.976300
20
213.493702
11
262.115097
21
215.173694
0
LINE
8
boundary
62
5
39
2
10
262.115097
20
215.173694
11
261.568977
21
215.840650
0
LINE
8
boundary
62
5
39
2
10
261.568977
20
215.840650
11
259.818180
21
217.978834
0
LINE
8
boundary
62
5
39
2
10
259.818180
20
217.978834
11
259.310315
21
218.790628
0
LINE
8
boundary
62
5
39
2
10
259.310315
20
218.790628
11
257.682158
21
221.393142
0
LINE
8
boundary
62
5
39
2
10
257.682158
20
221.393142
11
257.216440
21
222.351092
0
LINE
8
boundary
62
5
39
2
10
257.216440
20
222.351092
11
255.723402
21
225.422166
0
LINE
8
boundary
62
5
39
2
10
255.723402
20
225.422166
11
255.303754
21
226.527071
0
LINE
8
boundary
62
5
39
2
10
255.303754
20
226.527071
11
253.958409
21
230.069266
0
LINE
8
boundary
62
5
39
2
10
253.958409
20
230.069266
11
253.588770
21
231.321450
0
LINE
8
boundary
62
5
39
2
10
253.588770
20
231.321450
11
252.403749
21
235.335805
0
LINE
8
boundary
62
5
39
2
10
252.403749
20
235.335805
11
252.087989
21
236.735221
0
LINE
8
boundary
62
5
39
2
10
252.087989
20
236.735221
11
251.075700
21
241.221583
0
LINE
8
boundary
62
5
39
2
10
251.075700
20
241.221583
11
250.817574
21
242.767850
0
LINE
8
boundary
62
5
39
2
10
250.817574
20
242.767850
11
249.990052
21
247.725002
0
LINE
8
boundary
62
5
39
2
10
249.990052
20
247.725002
11
249.793144
21
249.417501
0
LINE
8
boundary
62
5
39
2
10
249.793144
20
249.417501
11
249.161878
21
254.843457
0
LINE
8
boundary
62
5
39
2
10
249.161878
20
254.843457
11
249.029551
21
256.681386
0
LINE
8
boundary
62
5
39
2
10
249.029551
20
256.681386
11
248.605326
21
262.573574
0
LINE
8
boundary
62
5
39
2
10
248.605326
20
262.573574
11
248.564358
21
263.546795
0
LINE
8
boundary
62
5
39
2
10
248.564358
20
263.546795
11
248.433017
21
266.666826
0
LINE
8
boundary
62
5
39
2
10
248.433017
20
266.666826
11
248.409327
21
267.676056
0
LINE
8
boundary
62
5
39
2
10
248.409327
20
267.676056
11
248.333380
21
270.911528
0
LINE
8
boundary
62
5
39
2
10
248.333380
20
270.911528
11
248.327297
21
271.956651
0
LINE
8
boundary
62
5
39
2
10
248.327297
20
271.956651
11
248.307797
21
275.307190
0
LINE
8
boundary
62
5
39
2
10
248.307797
20
275.307190
11
248.319642
21
276.388087
0
LINE
8
boundary
62
5
39
2
10
248.319642
20
276.388087
11
248.357615
21
279.853316
0
LINE
8
boundary
62
5
39
2
10
248.357615
20
279.853316
11
248.387661
21
280.969869
0
LINE
8
boundary
62
5
39
2
10
248.387661
20
280.969869
11
248.483985
21
284.549407
0
LINE
8
boundary
62
5
39
2
10
248.483985
20
284.549407
11
248.532495
21
285.701505
0
LINE
8
boundary
62
5
39
2
10
248.532495
20
285.701505
11
248.688013
21
289.394993
0
LINE
8
boundary
62
5
39
2
10
248.688013
20
289.394993
11
248.755218
21
290.582534
0
LINE
8
boundary
62
5
39
2
10
248.755218
20
290.582534
11
248.970671
21
294.389650
0
LINE
8
boundary
62
5
39
2
10
248.970671
20
294.389650
11
249.056769
21
295.612547
0
LINE
8
boundary
62
5
39
2
10
249.056769
20
295.612547
11
249.332786
21
299.533013
0
LINE
8
boundary
62
5
39
2
10
249.332786
20
299.533013
11
249.437937
21
300.791178
0
LINE
8
boundary
62
5
39
2
10
249.437937
20
300.791178
11
249.775037
21
304.824708
0
LINE
8
boundary
62
5
39
2
10
249.775037
20
304.824708
11
249.899377
21
306.118083
0
LINE
8
boundary
62
5
39
2
10
249.899377
20
306.118083
11
250.297995
21
310.264492
0
LINE
8
boundary
62
5
39
2
10
250.297995
20
310.264492
11
250.441626
21
311.593023
0
LINE
8
boundary
62
5
39
2
10
250.441626
20
311.593023
11
250.902091
21
315.852136
0
LINE
8
boundary
62
5
39
2
10
250.902091
20
315.852136
11
251.065054
21
317.215787
0
LINE
8
boundary
62
5
39
2
10
251.065054
20
317.215787
11
251.587494
21
321.587493
0
LINE
8
boundary
62
5
39
2
10
251.587494
20
321.587493
11
198.946938
21
321.587493
0
LINE
8
annotation
62
1
39
211
10
159.545944
20
70.858426
11
159.545944
21
252.316567
0
LINE
8
annotation
62
1
39
211
10
159.545944
20
252.316567
11
119.205476
21
211.964719
0
LINE
8
frame
62
5
39
2
10
0.000000
20
0.000000
11
500.000000
21
0.000000
0
LINE
8
frame
62
5
39
2
10
500.000000
20
0.000000
11
500.000000
21
400.000000
0
LINE
8
frame
62
5
39
2
10
500.000000
20
400.000000
11
0.000000
21
400.000000
0
LINE
8
frame
62
5
39
2
10
0.000000
20
400.000000
11
0.000000
21
0.000000
0
ENDSEC
0
EOF
