  0
SECTION
  2
HEADER
  9
$ACADVER
  1
AC1018
  9
$ACADMAINTVER
 70
     0
  9
$DWGCODEPAGE
  3
MAC-ROMAN
  9
$INSBASE
 10
0.0
 20
0.0
 30
0.0
  9
$EXTMIN
 10
2313.959234261087
 20
594.3004542067551
 30
0.0
  9
$EXTMAX
 10
3213.959234261089
 20
1194.300454206757
 30
0.0000000000000426
  9
$LIMMIN
 10
0.0
 20
0.0
  9
$LIMMAX
 10
12.0
 20
9.0
  9
$ORTHOMODE
 70
     0
  9
$REGENMODE
 70
     1
  9
$FILLMODE
 70
     1
  9
$QTEXTMODE
 70
     0
  9
$MIRRTEXT
 70
     1
  9
$LTSCALE
 40
1.0
  9
$ATTMODE
 70
     1
  9
$TEXTSIZE
 40
0.2
  9
$TRACEWID
 40
0.05
  9
$TEXTSTYLE
  7
Standard
  9
$CLAYER
  8
0
  9
$CELTYPE
  6
ByLayer
  9
$CECOLOR
 62
   256
  9
$CELTSCALE
 40
1.0
  9
$DISPSILH
 70
     0
  9
$DIMSCALE
 40
1.0
  9
$DIMASZ
 40
0.18
  9
$DIMEXO
 40
0.0625
  9
$DIMDLI
 40
0.38
  9
$DIMRND
 40
0.0
  9
$DIMDLE
 40
0.0
  9
$DIMEXE
 40
0.18
  9
$DIMTP
 40
0.0
  9
$DIMTM
 40
0.0
  9
$DIMTXT
 40
0.18
  9
$DIMCEN
 40
0.09
  9
$DIMTSZ
 40
0.0
  9
$DIMTOL
 70
     0
  9
$DIMLIM
 70
     0
  9
$DIMTIH
 70
     1
  9
$DIMTOH
 70
     1
  9
$DIMSE1
 70
     0
  9
$DIMSE2
 70
     0
  9
$DIMTAD
 70
     0
  9
$DIMZIN
 70
     0
  9
$DIMBLK
  1

  9
$DIMASO
 70
     1
  9
$DIMSHO
 70
     1
  9
$DIMPOST
  1

  9
$DIMAPOST
  1

  9
$DIMALT
 70
     0
  9
$DIMALTD
 70
     2
  9
$DIMALTF
 40
25.4
  9
$DIMLFAC
 40
1.0
  9
$DIMTOFL
 70
     0
  9
$DIMTVP
 40
0.0
  9
$DIMTIX
 70
     0
  9
$DIMSOXD
 70
     0
  9
$DIMSAH
 70
     0
  9
$DIMBLK1
  1

  9
$DIMBLK2
  1

  9
$DIMSTYLE
  2
Standard
  9
$DIMCLRD
 70
     0
  9
$DIMCLRE
 70
     0
  9
$DIMCLRT
 70
     0
  9
$DIMTFAC
 40
1.0
  9
$DIMGAP
 40
0.09
  9
$DIMJUST
 70
     0
  9
$DIMSD1
 70
     0
  9
$DIMSD2
 70
     0
  9
$DIMTOLJ
 70
     1
  9
$DIMTZIN
 70
     0
  9
$DIMALTZ
 70
     0
  9
$DIMALTTZ
 70
     0
  9
$DIMUPT
 70
     0
  9
$DIMDEC
 70
     4
  9
$DIMTDEC
 70
     4
  9
$DIMALTU
 70
     2
  9
$DIMALTTD
 70
     2
  9
$DIMTXSTY
  7
Standard
  9
$DIMAUNIT
 70
     0
  9
$DIMADEC
 70
     0
  9
$DIMALTRND
 40
0.0
  9
$DIMAZIN
 70
     0
  9
$DIMDSEP
 70
    46
  9
$DIMATFIT
 70
     3
  9
$DIMFRAC
 70
     0
  9
$DIMLDRBLK
  1

  9
$DIMLUNIT
 70
     2
  9
$DIMLWD
 70
    -2
  9
$DIMLWE
 70
    -2
  9
$DIMTMOVE
 70
     2
  9
$LUNITS
 70
     2
  9
$LUPREC
 70
     2
  9
$SKETCHINC
 40
0.1
  9
$FILLETRAD
 40
0.5
  9
$AUNITS
 70
     0
  9
$AUPREC
 70
     0
  9
$MENU
  1
.
  9
$ELEVATION
 40
0.0
  9
$PELEVATION
 40
0.0
  9
$THICKNESS
 40
0.0
  9
$LIMCHECK
 70
     0
  9
$CHAMFERA
 40
0.0
  9
$CHAMFERB
 40
0.0
  9
$CHAMFERC
 40
0.0
  9
$CHAMFERD
 40
0.0
  9
$SKPOLY
 70
     0
  9
$TDCREATE
 40
2457461.766249988
  9
$TDUCREATE
 40
2457461.39125
  9
$TDUPDATE
 40
2457461.766273148
  9
$TDUUPDATE
 40
2457461.391273148
  9
$TDINDWG
 40
0.0000000116
  9
$TDUSRTIMER
 40
0.0000000116
  9
$USRTIMER
 70
     1
  9
$ANGBASE
 50
0.0
  9
$ANGDIR
 70
     0
  9
$PDMODE
 70
     0
  9
$PDSIZE
 40
0.0
  9
$PLINEWID
 40
0.0
  9
$SPLFRAME
 70
     0
  9
$SPLINETYPE
 70
     6
  9
$SPLINESEGS
 70
     8
  9
$HANDSEED
  5
2F3
  9
$SURFTAB1
 70
     6
  9
$SURFTAB2
 70
     6
  9
$SURFTYPE
 70
     6
  9
$SURFU
 70
     6
  9
$SURFV
 70
     6
  9
$UCSBASE
  2

  9
$UCSNAME
  2

  9
$UCSORG
 10
0.0
 20
0.0
 30
0.0
  9
$UCSXDIR
 10
1.0
 20
0.0
 30
0.0
  9
$UCSYDIR
 10
0.0
 20
1.0
 30
0.0
  9
$UCSORTHOREF
  2

  9
$UCSORTHOVIEW
 70
     0
  9
$UCSORGTOP
 10
0.0
 20
0.0
 30
0.0
  9
$UCSORGBOTTOM
 10
0.0
 20
0.0
 30
0.0
  9
$UCSORGLEFT
 10
0.0
 20
0.0
 30
0.0
  9
$UCSORGRIGHT
 10
0.0
 20
0.0
 30
0.0
  9
$UCSORGFRONT
 10
0.0
 20
0.0
 30
0.0
  9
$UCSORGBACK
 10
0.0
 20
0.0
 30
0.0
  9
$PUCSBASE
  2

  9
$PUCSNAME
  2

  9
$PUCSORG
 10
0.0
 20
0.0
 30
0.0
  9
$PUCSXDIR
 10
1.0
 20
0.0
 30
0.0
  9
$PUCSYDIR
 10
0.0
 20
1.0
 30
0.0
  9
$PUCSORTHOREF
  2

  9
$PUCSORTHOVIEW
 70
     0
  9
$PUCSORGTOP
 10
0.0
 20
0.0
 30
0.0
  9
$PUCSORGBOTTOM
 10
0.0
 20
0.0
 30
0.0
  9
$PUCSORGLEFT
 10
0.0
 20
0.0
 30
0.0
  9
$PUCSORGRIGHT
 10
0.0
 20
0.0
 30
0.0
  9
$PUCSORGFRONT
 10
0.0
 20
0.0
 30
0.0
  9
$PUCSORGBACK
 10
0.0
 20
0.0
 30
0.0
  9
$USERI1
 70
     0
  9
$USERI2
 70
     0
  9
$USERI3
 70
     0
  9
$USERI4
 70
     0
  9
$USERI5
 70
     0
  9
$USERR1
 40
0.0
  9
$USERR2
 40
0.0
  9
$USERR3
 40
0.0
  9
$USERR4
 40
0.0
  9
$USERR5
 40
0.0
  9
$WORLDVIEW
 70
     1
  9
$SHADEDGE
 70
     3
  9
$SHADEDIF
 70
    70
  9
$TILEMODE
 70
     1
  9
$MAXACTVP
 70
    64
  9
$PINSBASE
 10
0.0
 20
0.0
 30
0.0
  9
$PLIMCHECK
 70
     0
  9
$PEXTMIN
 10
1.000000000000000E+20
 20
1.000000000000000E+20
 30
1.000000000000000E+20
  9
$PEXTMAX
 10
-1.000000000000000E+20
 20
-1.000000000000000E+20
 30
-1.000000000000000E+20
  9
$PLIMMIN
 10
0.0
 20
0.0
  9
$PLIMMAX
 10
12.0
 20
9.0
  9
$UNITMODE
 70
     0
  9
$VISRETAIN
 70
     1
  9
$PLINEGEN
 70
     0
  9
$PSLTSCALE
 70
     1
  9
$TREEDEPTH
 70
  3020
  9
$CMLSTYLE
  2
Standard
  9
$CMLJUST
 70
     0
  9
$CMLSCALE
 40
1.0
  9
$PROXYGRAPHICS
 70
     1
  9
$MEASUREMENT
 70
     0
  9
$CELWEIGHT
370
    -1
  9
$ENDCAPS
280
     0
  9
$JOINSTYLE
280
     0
  9
$LWDISPLAY
290
     0
  9
$INSUNITS
 70
     4
  9
$HYPERLINKBASE
  1

  9
$STYLESHEET
  1

  9
$XEDIT
290
     1
  9
$CEPSNTYPE
380
     0
  9
$PSTYLEMODE
290
     1
  9
$FINGERPRINTGUID
  2
{648EF2CA-29F0-8502-75B3-64CD14ABFB2C}
  9
$VERSIONGUID
  2
{FAEB1C32-E019-11D5-929B-00C0DF256EC4}
  9
$EXTNAMES
290
     1
  9
$PSVPSCALE
 40
0.0
  9
$OLESTARTUP
290
     0
  9
$SORTENTS
280
   127
  9
$INDEXCTL
280
     0
  9
$HIDETEXT
280
     1
  9
$XCLIPFRAME
290
     0
  9
$HALOGAP
280
     0
  9
$OBSCOLOR
 70
   257
  9
$OBSLTYPE
280
     0
  9
$INTERSECTIONDISPLAY
280
     0
  9
$INTERSECTIONCOLOR
 70
   257
  9
$DIMASSOC
280
     2
  9
$PROJECTNAME
  1

  0
ENDSEC
  0
SECTION
  2
CLASSES
  0
CLASS
  1
ACDBDICTIONARYWDFLT
  2
AcDbDictionaryWithDefault
  3
ObjectDBX Classes
 90
        0
 91
        4
280
     0
281
     0
  0
CLASS
  1
VISUALSTYLE
  2
AcDbVisualStyle
  3
ObjectDBX Classes
 90
     4095
 91
        4
280
     0
281
     0
  0
CLASS
  1
MATERIAL
  2
AcDbMaterial
  3
ObjectDBX Classes
 90
     1153
 91
        4
280
     0
281
     0
  0
CLASS
  1
SCALE
  2
AcDbScale
  3
ObjectDBX Classes
 90
     1153
 91
        4
280
     0
281
     0
  0
CLASS
  1
SUN
  2
AcDbSun
  3
SCENEOE
 90
     1153
 91
        4
280
     0
281
     0
  0
CLASS
  1
DICTIONARYVAR
  2
AcDbDictionaryVar
  3
ObjectDBX Classes
 90
        0
 91
        4
280
     0
281
     0
  0
ENDSEC
  0
SECTION
  2
TABLES
  0
TABLE
  2
VPORT
  5
8
102
{ACAD_XDICTIONARY
360
2B4
102
}
330
0
100
AcDbSymbolTable
 70
     1
  0
VPORT
  5
29
330
8
100
AcDbSymbolTableRecord
100
AcDbViewportTableRecord
  2
*Active
 70
     0
 10
0.0
 20
0.0
 11
1.0
 21
1.0
 12
2763.959234261088
 22
894.3004542067563
 13
0.0
 23
0.0
 14
0.5
 24
0.5
 15
0.5
 25
0.5
 16
0.0
 26
0.0
 36
1.0
 17
0.0
 27
0.0
 37
0.0
 40
612.0000000000023
 41
1.499999999999997
 42
50.0
 43
0.0
 44
0.0
 50
0.0
 51
0.0
 71
     0
 72
   100
 73
     1
 74
     3
 75
     0
 76
     0
 77
     0
 78
     0
281
     0
 65
     1
110
0.0
120
0.0
130
0.0
111
1.0
121
0.0
131
0.0
112
0.0
122
1.0
132
0.0
 79
     0
146
0.0
  0
ENDTAB
  0
TABLE
  2
LTYPE
  5
5
330
0
100
AcDbSymbolTable
 70
     1
  0
LTYPE
  5
14
330
5
100
AcDbSymbolTableRecord
100
AcDbLinetypeTableRecord
  2
ByBlock
 70
     0
  3

 72
    65
 73
     0
 40
0.0
  0
LTYPE
  5
15
330
5
100
AcDbSymbolTableRecord
100
AcDbLinetypeTableRecord
  2
ByLayer
 70
     0
  3

 72
    65
 73
     0
 40
0.0
  0
LTYPE
  5
16
330
5
100
AcDbSymbolTableRecord
100
AcDbLinetypeTableRecord
  2
Continuous
 70
     0
  3
Solid line
 72
    65
 73
     0
 40
0.0
  0
ENDTAB
  0
TABLE
  2
LAYER
  5
2
330
0
100
AcDbSymbolTable
 70
     3
  0
LAYER
  5
10
330
2
100
AcDbSymbolTableRecord
100
AcDbLayerTableRecord
  2
0
 70
     0
 62
     7
  6
Continuous
370
    -3
390
F
  0
LAYER
  5
6A
330
2
100
AcDbSymbolTableRecord
100
AcDbLayerTableRecord
  2
______
 70
     0
 62
   178
420
        0
  6
Continuous
370
    -3
390
F
  0
LAYER
  5
8F
330
2
100
AcDbSymbolTableRecord
100
AcDbLayerTableRecord
  2
Make2D$visible$lines
 70
     0
 62
   178
420
        0
  6
Continuous
370
    -3
390
F
  0
ENDTAB
  0
TABLE
  2
STYLE
  5
3
330
0
100
AcDbSymbolTable
 70
     1
  0
STYLE
  5
11
330
3
100
AcDbSymbolTableRecord
100
AcDbTextStyleTableRecord
  2
Standard
 70
     0
 40
0.0
 41
1.0
 50
0.0
 71
     0
 42
0.2
  3
txt
  4

  0
ENDTAB
  0
TABLE
  2
VIEW
  5
6
330
0
100
AcDbSymbolTable
 70
     0
  0
ENDTAB
  0
TABLE
  2
UCS
  5
7
330
0
100
AcDbSymbolTable
 70
     0
  0
ENDTAB
  0
TABLE
  2
APPID
  5
9
330
0
100
AcDbSymbolTable
 70
     1
  0
APPID
  5
12
330
9
100
AcDbSymbolTableRecord
100
AcDbRegAppTableRecord
  2
ACAD
 70
     0
  0
ENDTAB
  0
TABLE
  2
DIMSTYLE
  5
A
330
0
100
AcDbSymbolTable
 70
     1
100
AcDbDimStyleTable
  0
DIMSTYLE
105
27
330
A
100
AcDbSymbolTableRecord
100
AcDbDimStyleTableRecord
  2
Standard
 70
     0
178
     0
340
11
  0
ENDTAB
  0
TABLE
  2
BLOCK_RECORD
  5
1
330
0
100
AcDbSymbolTable
 70
     1
  0
BLOCK_RECORD
  5
1F
330
1
100
AcDbSymbolTableRecord
100
AcDbBlockTableRecord
  2
*Model_Space
340
22
  0
BLOCK_RECORD
  5
1B
330
1
100
AcDbSymbolTableRecord
100
AcDbBlockTableRecord
  2
*Paper_Space
340
1E
  0
BLOCK_RECORD
  5
23
330
1
100
AcDbSymbolTableRecord
100
AcDbBlockTableRecord
  2
*Paper_Space0
340
26
  0
ENDTAB
  0
ENDSEC
  0
SECTION
  2
BLOCKS
  0
BLOCK
  5
20
330
1F
100
AcDbEntity
  8
0
100
AcDbBlockBegin
  2
*Model_Space
 70
     0
 10
0.0
 20
0.0
 30
0.0
  3
*Model_Space
  1
*Model_Space
  0
ENDBLK
  5
21
330
1F
100
AcDbEntity
  8
0
100
AcDbBlockEnd
  0
BLOCK
  5
1C
330
1B
100
AcDbEntity
 67
     1
  8
0
100
AcDbBlockBegin
  2
*Paper_Space
 70
     0
 10
0.0
 20
0.0
 30
0.0
  3
*Paper_Space
  1
*Paper_Space
  0
ENDBLK
  5
1D
330
1B
100
AcDbEntity
 67
     1
  8
0
100
AcDbBlockEnd
  0
BLOCK
  5
24
330
23
100
AcDbEntity
  8
0
100
AcDbBlockBegin
  2
*Paper_Space0
 70
     0
 10
0.0
 20
0.0
 30
0.0
  3
*Paper_Space0
  1
*Paper_Space0
  0
ENDBLK
  5
25
330
23
100
AcDbEntity
  8
0
100
AcDbBlockEnd
  0
ENDSEC
  0
SECTION
  2
ENTITIES
  0
LINE
  5
6B
330
1F
100
AcDbEntity
  8
______
100
AcDbLine
 10
3077.073272733201
 20
769.1922761322872
 30
0.0000000000000213
 11
3086.162928047527
 21
769.1922761322872
 31
0.0
  0
LINE
  5
6C
330
1F
100
AcDbEntity
  8
______
100
AcDbLine
 10
3086.162928047527
 20
769.1922761322872
 30
0.0
 11
3086.162928047529
 21
1161.192276132287
 31
0.0
  0
LINE
  5
6D
330
1F
100
AcDbEntity
  8
______
100
AcDbLine
 10
3086.162928047529
 20
1161.192276132287
 30
0.0
 11
3077.073272733203
 21
1161.192276132287
 31
0.0
  0
LINE
  5
6E
330
1F
100
AcDbEntity
  8
______
100
AcDbLine
 10
3077.073272733203
 20
1161.192276132287
 30
0.0
 11
3077.073272733202
 21
1173.192276132287
 31
0.0000000000000426
  0
LINE
  5
6F
330
1F
100
AcDbEntity
  8
______
100
AcDbLine
 10
3077.073272733202
 20
1173.192276132287
 30
0.0000000000000426
 11
3054.723506366792
 21
1173.192276132287
 31
0.0000000000000426
  0
LINE
  5
70
330
1F
100
AcDbEntity
  8
______
100
AcDbLine
 10
3054.723506366792
 20
1173.192276132287
 30
0.0000000000000426
 11
3054.723506366792
 21
1161.192276132288
 31
0.0000000000000213
  0
LINE
  5
71
330
1F
100
AcDbEntity
  8
______
100
AcDbLine
 10
3054.723506366792
 20
1161.192276132288
 30
0.0000000000000213
 11
3044.573272733212
 21
1161.192276132288
 31
0.0
  0
LINE
  5
72
330
1F
100
AcDbEntity
  8
______
100
AcDbLine
 10
3044.573272733212
 20
1161.192276132288
 30
0.0
 11
3044.57327273321
 21
769.1922761322877
 31
0.0
  0
LINE
  5
73
330
1F
100
AcDbEntity
  8
______
100
AcDbLine
 10
3044.57327273321
 20
769.1922761322877
 30
0.0
 11
3054.72350636679
 21
769.1922761322877
 31
0.0000000000000213
  0
LINE
  5
74
330
1F
100
AcDbEntity
  8
______
100
AcDbLine
 10
3054.72350636679
 20
769.1922761322877
 30
0.0000000000000213
 11
3054.72350636679
 21
757.1922761322877
 31
0.0000000000000426
  0
LINE
  5
75
330
1F
100
AcDbEntity
  8
______
100
AcDbLine
 10
3054.72350636679
 20
757.1922761322877
 30
0.0000000000000426
 11
3077.073272733201
 21
757.1922761322872
 31
0.0000000000000426
  0
LINE
  5
76
330
1F
100
AcDbEntity
  8
______
100
AcDbLine
 10
3077.073272733201
 20
757.1922761322872
 30
0.0000000000000426
 11
3077.073272733201
 21
769.1922761322872
 31
0.0000000000000213
  0
LINE
  5
77
330
1F
100
AcDbEntity
  8
______
100
AcDbLine
 10
3130.989267077475
 20
769.1922761322872
 30
0.0000000000000213
 11
3140.0789223918
 21
769.1922761322872
 31
0.0
  0
LINE
  5
78
330
1F
100
AcDbEntity
  8
______
100
AcDbLine
 10
3140.0789223918
 20
769.1922761322872
 30
0.0
 11
3140.078922391803
 21
1161.192276132287
 31
0.0
  0
LINE
  5
79
330
1F
100
AcDbEntity
  8
______
100
AcDbLine
 10
3140.078922391803
 20
1161.192276132287
 30
0.0
 11
3130.989267077477
 21
1161.192276132287
 31
0.0
  0
LINE
  5
7A
330
1F
100
AcDbEntity
  8
______
100
AcDbLine
 10
3130.989267077477
 20
1161.192276132287
 30
0.0
 11
3130.989267077477
 21
1173.192276132287
 31
0.0000000000000426
  0
LINE
  5
7B
330
1F
100
AcDbEntity
  8
______
100
AcDbLine
 10
3130.989267077477
 20
1173.192276132287
 30
0.0000000000000426
 11
3108.639500711067
 21
1173.192276132287
 31
0.0000000000000426
  0
LINE
  5
7C
330
1F
100
AcDbEntity
  8
______
100
AcDbLine
 10
3108.639500711067
 20
1173.192276132287
 30
0.0000000000000426
 11
3108.639500711067
 21
1161.192276132287
 31
0.0000000000000213
  0
LINE
  5
7D
330
1F
100
AcDbEntity
  8
______
100
AcDbLine
 10
3108.639500711067
 20
1161.192276132287
 30
0.0000000000000213
 11
3098.489267077487
 21
1161.192276132287
 31
0.0
  0
LINE
  5
7E
330
1F
100
AcDbEntity
  8
______
100
AcDbLine
 10
3098.489267077487
 20
1161.192276132287
 30
0.0
 11
3098.489267077484
 21
769.1922761322872
 31
0.0
  0
LINE
  5
7F
330
1F
100
AcDbEntity
  8
______
100
AcDbLine
 10
3098.489267077484
 20
769.1922761322872
 30
0.0
 11
3108.639500711065
 21
769.1922761322872
 31
0.0000000000000213
  0
LINE
  5
80
330
1F
100
AcDbEntity
  8
______
100
AcDbLine
 10
3108.639500711065
 20
769.1922761322872
 30
0.0000000000000213
 11
3108.639500711065
 21
757.1922761322872
 31
0.0000000000000426
  0
LINE
  5
81
330
1F
100
AcDbEntity
  8
______
100
AcDbLine
 10
3108.639500711065
 20
757.1922761322872
 30
0.0000000000000426
 11
3130.989267077475
 21
757.1922761322872
 31
0.0000000000000426
  0
LINE
  5
82
330
1F
100
AcDbEntity
  8
______
100
AcDbLine
 10
3130.989267077475
 20
757.1922761322872
 30
0.0000000000000426
 11
3130.989267077475
 21
769.1922761322872
 31
0.0000000000000213
  0
LINE
  5
83
330
1F
100
AcDbEntity
  8
______
100
AcDbLine
 10
3188.512809282919
 20
769.1922761322868
 30
0.0000000000000213
 11
3197.602464597244
 21
769.1922761322868
 31
0.0
  0
LINE
  5
84
330
1F
100
AcDbEntity
  8
______
100
AcDbLine
 10
3197.602464597244
 20
769.1922761322868
 30
0.0
 11
3197.602464597247
 21
1161.192276132287
 31
0.0
  0
LINE
  5
85
330
1F
100
AcDbEntity
  8
______
100
AcDbLine
 10
3197.602464597247
 20
1161.192276132287
 30
0.0
 11
3188.512809282921
 21
1161.192276132287
 31
0.0
  0
LINE
  5
86
330
1F
100
AcDbEntity
  8
______
100
AcDbLine
 10
3188.512809282921
 20
1161.192276132287
 30
0.0
 11
3188.512809282921
 21
1173.192276132287
 31
0.0000000000000426
  0
LINE
  5
87
330
1F
100
AcDbEntity
  8
______
100
AcDbLine
 10
3188.512809282921
 20
1173.192276132287
 30
0.0000000000000426
 11
3166.163042916511
 21
1173.192276132287
 31
0.0000000000000426
  0
LINE
  5
88
330
1F
100
AcDbEntity
  8
______
100
AcDbLine
 10
3166.163042916511
 20
1173.192276132287
 30
0.0000000000000426
 11
3166.163042916511
 21
1161.192276132287
 31
0.0000000000000213
  0
LINE
  5
89
330
1F
100
AcDbEntity
  8
______
100
AcDbLine
 10
3166.163042916511
 20
1161.192276132287
 30
0.0000000000000213
 11
3156.012809282931
 21
1161.192276132287
 31
0.0
  0
LINE
  5
8A
330
1F
100
AcDbEntity
  8
______
100
AcDbLine
 10
3156.012809282931
 20
1161.192276132287
 30
0.0
 11
3156.012809282928
 21
769.1922761322872
 31
0.0
  0
LINE
  5
8B
330
1F
100
AcDbEntity
  8
______
100
AcDbLine
 10
3156.012809282928
 20
769.1922761322872
 30
0.0
 11
3166.163042916508
 21
769.1922761322868
 31
0.0000000000000213
  0
LINE
  5
8C
330
1F
100
AcDbEntity
  8
______
100
AcDbLine
 10
3166.163042916508
 20
769.1922761322868
 30
0.0000000000000213
 11
3166.163042916508
 21
757.1922761322868
 31
0.0000000000000426
  0
LINE
  5
8D
330
1F
100
AcDbEntity
  8
______
100
AcDbLine
 10
3166.163042916508
 20
757.1922761322868
 30
0.0000000000000426
 11
3188.512809282919
 21
757.1922761322868
 31
0.0000000000000426
  0
LINE
  5
8E
330
1F
100
AcDbEntity
  8
______
100
AcDbLine
 10
3188.512809282919
 20
757.1922761322868
 30
0.0000000000000426
 11
3188.512809282919
 21
769.1922761322868
 31
0.0000000000000213
  0
LINE
  5
90
330
1F
100
AcDbEntity
  8
Make2D$visible$lines
100
AcDbLine
 10
2784.353864147969
 20
666.1218025582822
 30
0.0
 11
2772.353848529314
 21
666.1218025582826
 31
0.0
  0
LINE
  5
91
330
1F
100
AcDbEntity
  8
Make2D$visible$lines
100
AcDbLine
 10
2772.353848529314
 20
666.1218025582826
 30
0.0
 11
2772.353848529314
 21
693.1217869396302
 31
0.0
  0
LINE
  5
92
330
1F
100
AcDbEntity
  8
Make2D$visible$lines
100
AcDbLine
 10
2772.353848529314
 20
693.1217869396302
 30
0.0
 11
2784.353864147969
 21
693.1217869396302
 31
0.0
  0
LINE
  5
93
330
1F
100
AcDbEntity
  8
Make2D$visible$lines
100
AcDbLine
 10
2784.353864147969
 20
693.1217869396302
 30
0.0
 11
2784.353864147969
 21
718.1217869396302
 31
0.0
  0
LINE
  5
94
330
1F
100
AcDbEntity
  8
Make2D$visible$lines
100
AcDbLine
 10
2784.353864147969
 20
718.1217869396302
 30
0.0
 11
2772.353848529314
 21
718.1217869396302
 31
0.0
  0
LINE
  5
95
330
1F
100
AcDbEntity
  8
Make2D$visible$lines
100
AcDbLine
 10
2772.353848529314
 20
718.1217869396302
 30
0.0
 11
2772.353832910658
 21
743.1218025582726
 31
0.0
  0
LINE
  5
96
330
1F
100
AcDbEntity
  8
Make2D$visible$lines
100
AcDbLine
 10
2772.353832910658
 20
743.1218025582726
 30
0.0
 11
2346.353832910658
 21
743.1218025582763
 31
0.0
  0
LINE
  5
97
330
1F
100
AcDbEntity
  8
Make2D$visible$lines
100
AcDbLine
 10
2346.353832910658
 20
743.1218025582763
 30
0.0
 11
2346.353817292003
 21
718.1217869396343
 31
0.0
  0
LINE
  5
98
330
1F
100
AcDbEntity
  8
Make2D$visible$lines
100
AcDbLine
 10
2346.353817292003
 20
718.1217869396343
 30
0.0
 11
2334.353801673347
 21
718.1217869396343
 31
0.0
  0
LINE
  5
99
330
1F
100
AcDbEntity
  8
Make2D$visible$lines
100
AcDbLine
 10
2334.353801673347
 20
718.1217869396343
 30
0.0
 11
2334.353801673347
 21
693.1217869396343
 31
0.0
  0
LINE
  5
9A
330
1F
100
AcDbEntity
  8
Make2D$visible$lines
100
AcDbLine
 10
2334.353801673347
 20
693.1217869396343
 30
0.0
 11
2346.353817292003
 21
693.1217869396343
 31
0.0
  0
LINE
  5
9B
330
1F
100
AcDbEntity
  8
Make2D$visible$lines
100
AcDbLine
 10
2346.353817292003
 20
693.1217869396343
 30
0.0
 11
2346.353817292003
 21
666.1218025582863
 31
0.0
  0
LINE
  5
9C
330
1F
100
AcDbEntity
  8
Make2D$visible$lines
100
AcDbLine
 10
2346.353817292003
 20
666.1218025582863
 30
0.0
 11
2334.353801673346
 21
666.1218025582863
 31
0.0
  0
LINE
  5
9D
330
1F
100
AcDbEntity
  8
Make2D$visible$lines
100
AcDbLine
 10
2334.353801673346
 20
666.1218025582863
 30
0.0
 11
2334.353801673346
 21
641.1218025582863
 31
0.0
  0
LINE
  5
9E
330
1F
100
AcDbEntity
  8
Make2D$visible$lines
100
AcDbLine
 10
2334.353801673346
 20
641.1218025582863
 30
0.0
 11
2346.353817292002
 21
641.1218025582863
 31
0.0
  0
LINE
  5
9F
330
1F
100
AcDbEntity
  8
Make2D$visible$lines
100
AcDbLine
 10
2346.353817292002
 20
641.1218025582863
 30
0.0
 11
2346.353832910657
 21
616.1218025582863
 31
0.0
  0
LINE
  5
A0
330
1F
100
AcDbEntity
  8
Make2D$visible$lines
100
AcDbLine
 10
2346.353832910657
 20
616.1218025582863
 30
0.0
 11
2772.353832910657
 21
616.1218025582826
 31
0.0
  0
LINE
  5
A1
330
1F
100
AcDbEntity
  8
Make2D$visible$lines
100
AcDbLine
 10
2772.353832910657
 20
616.1218025582826
 30
0.0
 11
2772.353848529313
 21
641.1218025582826
 31
0.0
  0
LINE
  5
A2
330
1F
100
AcDbEntity
  8
Make2D$visible$lines
100
AcDbLine
 10
2772.353848529313
 20
641.1218025582826
 30
0.0
 11
2784.353864147969
 21
641.1218025582822
 31
0.0
  0
LINE
  5
A3
330
1F
100
AcDbEntity
  8
Make2D$visible$lines
100
AcDbLine
 10
2784.353864147969
 20
641.1218025582822
 30
0.0
 11
2784.353864147969
 21
666.1218025582822
 31
0.0
  0
LINE
  5
A4
330
1F
100
AcDbEntity
  8
______
100
AcDbLine
 10
2777.911229411245
 20
759.0329456109902
 30
0.0
 11
2789.911229411245
 21
759.0329456109902
 31
0.0
  0
LINE
  5
A5
330
1F
100
AcDbEntity
  8
______
100
AcDbLine
 10
2789.911229411245
 20
759.0329456109902
 30
0.0
 11
2789.911229411245
 21
789.0329456109902
 31
0.0
  0
LINE
  5
A6
330
1F
100
AcDbEntity
  8
______
100
AcDbLine
 10
2789.911229411245
 20
789.0329456109902
 30
0.0
 11
2777.911229411245
 21
789.0329456109902
 31
0.0
  0
LINE
  5
A7
330
1F
100
AcDbEntity
  8
______
100
AcDbLine
 10
2777.911229411245
 20
789.0329456109902
 30
0.0
 11
2777.911229411245
 21
823.3166150509568
 31
0.0
  0
LINE
  5
A8
330
1F
100
AcDbEntity
  8
______
100
AcDbLine
 10
2777.911229411245
 20
823.3166150509568
 30
0.0
 11
2789.911229411245
 21
823.3166150509568
 31
0.0
  0
LINE
  5
A9
330
1F
100
AcDbEntity
  8
______
100
AcDbLine
 10
2789.911229411245
 20
823.3166150509568
 30
0.0
 11
2789.911229411245
 21
853.3166150509568
 31
0.0
  0
LINE
  5
AA
330
1F
100
AcDbEntity
  8
______
100
AcDbLine
 10
2789.911229411245
 20
853.3166150509568
 30
0.0
 11
2777.911229411245
 21
853.3166150509568
 31
0.0
  0
LINE
  5
AB
330
1F
100
AcDbEntity
  8
______
100
AcDbLine
 10
2777.911229411245
 20
853.3166150509568
 30
0.0
 11
2351.911229411245
 21
853.3166150509591
 31
0.0
  0
LINE
  5
AC
330
1F
100
AcDbEntity
  8
______
100
AcDbLine
 10
2351.911229411245
 20
853.3166150509591
 30
0.0
 11
2339.911229411245
 21
853.3166150509591
 31
0.0
  0
LINE
  5
AD
330
1F
100
AcDbEntity
  8
______
100
AcDbLine
 10
2339.911229411245
 20
853.3166150509591
 30
0.0
 11
2339.911229411245
 21
823.3166150509591
 31
0.0
  0
LINE
  5
AE
330
1F
100
AcDbEntity
  8
______
100
AcDbLine
 10
2339.911229411245
 20
823.3166150509591
 30
0.0
 11
2351.911229411245
 21
823.3166150509591
 31
0.0
  0
LINE
  5
AF
330
1F
100
AcDbEntity
  8
______
100
AcDbLine
 10
2351.911229411245
 20
823.3166150509591
 30
0.0
 11
2351.911229411245
 21
789.0329456109924
 31
0.0
  0
LINE
  5
B0
330
1F
100
AcDbEntity
  8
______
100
AcDbLine
 10
2351.911229411245
 20
789.0329456109924
 30
0.0
 11
2339.911229411245
 21
789.0329456109924
 31
0.0
  0
LINE
  5
B1
330
1F
100
AcDbEntity
  8
______
100
AcDbLine
 10
2339.911229411245
 20
789.0329456109924
 30
0.0
 11
2339.911229411245
 21
759.0329456109924
 31
0.0
  0
LINE
  5
B2
330
1F
100
AcDbEntity
  8
______
100
AcDbLine
 10
2339.911229411245
 20
759.0329456109924
 30
0.0
 11
2351.911229411245
 21
759.0329456109924
 31
0.0
  0
LINE
  5
B3
330
1F
100
AcDbEntity
  8
______
100
AcDbLine
 10
2351.911229411245
 20
759.0329456109924
 30
0.0
 11
2777.911229411245
 21
759.0329456109902
 31
0.0
  0
LINE
  5
B4
330
1F
100
AcDbEntity
  8
Make2D$visible$lines
100
AcDbLine
 10
2666.187877450252
 20
908.7604979476866
 30
0.0
 11
2666.187877450252
 21
884.7604979476866
 31
0.0
  0
LINE
  5
B5
330
1F
100
AcDbEntity
  8
Make2D$visible$lines
100
AcDbLine
 10
2666.187877450252
 20
884.7604979476866
 30
0.0
 11
2716.187877450252
 21
884.7604979476866
 31
0.0
  0
LINE
  5
B6
330
1F
100
AcDbEntity
  8
Make2D$visible$lines
100
AcDbLine
 10
2716.187877450252
 20
884.7604979476866
 30
0.0
 11
2716.187877450252
 21
896.7604979476866
 31
0.0
  0
LINE
  5
B7
330
1F
100
AcDbEntity
  8
Make2D$visible$lines
100
AcDbLine
 10
2716.187877450252
 20
896.7604979476866
 30
0.0
 11
2766.187877450252
 21
896.7604979476862
 31
0.0
  0
LINE
  5
B8
330
1F
100
AcDbEntity
  8
Make2D$visible$lines
100
AcDbLine
 10
2766.187877450252
 20
896.7604979476862
 30
0.0
 11
2766.187877450252
 21
884.7604979476862
 31
0.0
  0
LINE
  5
B9
330
1F
100
AcDbEntity
  8
Make2D$visible$lines
100
AcDbLine
 10
2766.187877450252
 20
884.7604979476862
 30
0.0
 11
2816.187877450252
 21
884.7604979476866
 31
0.0
  0
LINE
  5
BA
330
1F
100
AcDbEntity
  8
Make2D$visible$lines
100
AcDbLine
 10
2816.187877450252
 20
884.7604979476866
 30
0.0
 11
2816.187877450252
 21
896.7604979476866
 31
0.0
  0
LINE
  5
BB
330
1F
100
AcDbEntity
  8
Make2D$visible$lines
100
AcDbLine
 10
2816.187877450252
 20
896.7604979476866
 30
0.0
 11
2866.187877450252
 21
896.7604979476866
 31
0.0
  0
LINE
  5
BC
330
1F
100
AcDbEntity
  8
Make2D$visible$lines
100
AcDbLine
 10
2866.187877450252
 20
896.7604979476866
 30
0.0
 11
2866.187877450252
 21
884.7604979476866
 31
0.0
  0
LINE
  5
BD
330
1F
100
AcDbEntity
  8
Make2D$visible$lines
100
AcDbLine
 10
2866.187877450252
 20
884.7604979476866
 30
0.0
 11
2916.187877450252
 21
884.7604979476866
 31
0.0
  0
LINE
  5
BE
330
1F
100
AcDbEntity
  8
Make2D$visible$lines
100
AcDbLine
 10
2916.187877450252
 20
884.7604979476866
 30
0.0
 11
2916.187877450252
 21
896.7604979476866
 31
0.0
  0
LINE
  5
BF
330
1F
100
AcDbEntity
  8
Make2D$visible$lines
100
AcDbLine
 10
2916.187877450252
 20
896.7604979476866
 30
0.0
 11
2966.187877450252
 21
896.7604979476862
 31
0.0
  0
LINE
  5
C0
330
1F
100
AcDbEntity
  8
Make2D$visible$lines
100
AcDbLine
 10
2966.187877450252
 20
896.7604979476862
 30
0.0
 11
2966.187877450252
 21
884.7604979476862
 31
0.0
  0
LINE
  5
C1
330
1F
100
AcDbEntity
  8
Make2D$visible$lines
100
AcDbLine
 10
2966.187877450252
 20
884.7604979476862
 30
0.0
 11
3016.187877450252
 21
884.7604979476862
 31
0.0
  0
LINE
  5
C2
330
1F
100
AcDbEntity
  8
Make2D$visible$lines
100
AcDbLine
 10
3016.187877450252
 20
884.7604979476862
 30
0.0
 11
3016.187877450252
 21
1184.760497947686
 31
0.0
  0
LINE
  5
C3
330
1F
100
AcDbEntity
  8
Make2D$visible$lines
100
AcDbLine
 10
3016.187877450252
 20
1184.760497947686
 30
0.0
 11
2966.187877450252
 21
1184.760497947686
 31
0.0
  0
LINE
  5
C4
330
1F
100
AcDbEntity
  8
Make2D$visible$lines
100
AcDbLine
 10
2966.187877450252
 20
1184.760497947686
 30
0.0
 11
2966.187877450252
 21
1172.760497947686
 31
0.0
  0
LINE
  5
C5
330
1F
100
AcDbEntity
  8
Make2D$visible$lines
100
AcDbLine
 10
2966.187877450252
 20
1172.760497947686
 30
0.0
 11
2916.187877450252
 21
1172.760497947687
 31
0.0
  0
LINE
  5
C6
330
1F
100
AcDbEntity
  8
Make2D$visible$lines
100
AcDbLine
 10
2916.187877450252
 20
1172.760497947687
 30
0.0
 11
2916.187877450252
 21
1184.760497947687
 31
0.0
  0
LINE
  5
C7
330
1F
100
AcDbEntity
  8
Make2D$visible$lines
100
AcDbLine
 10
2916.187877450252
 20
1184.760497947687
 30
0.0
 11
2866.187877450253
 21
1184.760497947687
 31
0.0
  0
LINE
  5
C8
330
1F
100
AcDbEntity
  8
Make2D$visible$lines
100
AcDbLine
 10
2866.187877450253
 20
1184.760497947687
 30
0.0
 11
2866.187877450252
 21
1172.760497947687
 31
0.0
  0
LINE
  5
C9
330
1F
100
AcDbEntity
  8
Make2D$visible$lines
100
AcDbLine
 10
2866.187877450252
 20
1172.760497947687
 30
0.0
 11
2816.187877450252
 21
1172.760497947687
 31
0.0
  0
LINE
  5
CA
330
1F
100
AcDbEntity
  8
Make2D$visible$lines
100
AcDbLine
 10
2816.187877450252
 20
1172.760497947687
 30
0.0
 11
2816.187877450252
 21
1184.760497947687
 31
0.0
  0
LINE
  5
CB
330
1F
100
AcDbEntity
  8
Make2D$visible$lines
100
AcDbLine
 10
2816.187877450252
 20
1184.760497947687
 30
0.0
 11
2766.187877450253
 21
1184.760497947686
 31
0.0
  0
LINE
  5
CC
330
1F
100
AcDbEntity
  8
Make2D$visible$lines
100
AcDbLine
 10
2766.187877450253
 20
1184.760497947686
 30
0.0
 11
2766.187877450252
 21
1172.760497947686
 31
0.0
  0
LINE
  5
CD
330
1F
100
AcDbEntity
  8
Make2D$visible$lines
100
AcDbLine
 10
2766.187877450252
 20
1172.760497947686
 30
0.0
 11
2704.187877450253
 21
1172.760497947687
 31
0.0
  0
LINE
  5
CE
330
1F
100
AcDbEntity
  8
Make2D$visible$lines
100
AcDbLine
 10
2704.187877450253
 20
1172.760497947687
 30
0.0
 11
2704.187877450252
 21
946.7604979476866
 31
0.0
  0
LINE
  5
CF
330
1F
100
AcDbEntity
  8
Make2D$visible$lines
100
AcDbLine
 10
2704.187877450252
 20
946.7604979476866
 30
0.0
 11
2704.165724300167
 21
945.4631357606198
 31
0.0
  0
LINE
  5
D0
330
1F
100
AcDbEntity
  8
Make2D$visible$lines
100
AcDbLine
 10
2704.165724300167
 20
945.4631357606198
 30
0.0
 11
2704.099290679493
 21
944.1672862398292
 31
0.0
  0
LINE
  5
D1
330
1F
100
AcDbEntity
  8
Make2D$visible$lines
100
AcDbLine
 10
2704.099290679493
 20
944.1672862398292
 30
0.0
 11
2703.98865404686
 21
942.8744602878893
 31
0.0
  0
LINE
  5
D2
330
1F
100
AcDbEntity
  8
Make2D$visible$lines
100
AcDbLine
 10
2703.98865404686
 20
942.8744602878893
 30
0.0
 11
2703.833943399633
 21
941.5861652820292
 31
0.0
  0
LINE
  5
D3
330
1F
100
AcDbEntity
  8
Make2D$visible$lines
100
AcDbLine
 10
2703.833943399633
 20
941.5861652820292
 30
0.0
 11
2703.635339123506
 21
940.3039033165973
 31
0.0
  0
LINE
  5
D4
330
1F
100
AcDbEntity
  8
Make2D$visible$lines
100
AcDbLine
 10
2703.635339123506
 20
940.3039033165973
 30
0.0
 11
2703.393072782181
 21
939.0291694516866
 31
0.0
  0
LINE
  5
D5
330
1F
100
AcDbEntity
  8
Make2D$visible$lines
100
AcDbLine
 10
2703.393072782181
 20
939.0291694516866
 30
0.0
 11
2703.107426847374
 21
937.7634499699617
 31
0.0
  0
LINE
  5
D6
330
1F
100
AcDbEntity
  8
Make2D$visible$lines
100
AcDbLine
 10
2703.107426847374
 20
937.7634499699617
 30
0.0
 11
2702.778734369469
 21
936.5082206437197
 31
0.0
  0
LINE
  5
D7
330
1F
100
AcDbEntity
  8
Make2D$visible$lines
100
AcDbLine
 10
2702.778734369469
 20
936.5082206437197
 30
0.0
 11
2702.407378589191
 21
935.2649450142058
 31
0.0
  0
LINE
  5
D8
330
1F
100
AcDbEntity
  8
Make2D$visible$lines
100
AcDbLine
 10
2702.407378589191
 20
935.2649450142058
 30
0.0
 11
2701.993792490768
 21
934.0350726851891
 31
0.0
  0
LINE
  5
D9
330
1F
100
AcDbEntity
  8
Make2D$visible$lines
100
AcDbLine
 10
2701.993792490768
 20
934.0350726851891
 30
0.0
 11
2701.53845829709
 21
932.8200376327904
 31
0.0
  0
LINE
  5
DA
330
1F
100
AcDbEntity
  8
Make2D$visible$lines
100
AcDbLine
 10
2701.53845829709
 20
932.8200376327904
 30
0.0
 11
2701.04190690746
 21
931.6212565335294
 31
0.0
  0
LINE
  5
DB
330
1F
100
AcDbEntity
  8
Make2D$visible$lines
100
AcDbLine
 10
2701.04190690746
 20
931.6212565335294
 30
0.0
 11
2700.504717278585
 21
930.4401271125435
 31
0.0
  0
LINE
  5
DC
330
1F
100
AcDbEntity
  8
Make2D$visible$lines
100
AcDbLine
 10
2700.504717278585
 20
930.4401271125435
 30
0.0
 11
2699.927515749543
 21
929.2780265139028
 31
0.0
  0
LINE
  5
DD
330
1F
100
AcDbEntity
  8
Make2D$visible$lines
100
AcDbLine
 10
2699.927515749543
 20
929.2780265139028
 30
0.0
 11
2699.310975311497
 21
928.136309694922
 31
0.0
  0
LINE
  5
DE
330
1F
100
AcDbEntity
  8
Make2D$visible$lines
100
AcDbLine
 10
2699.310975311497
 20
928.136309694922
 30
0.0
 11
2698.655814823019
 21
927.0163078463402
 31
0.0
  0
LINE
  5
DF
330
1F
100
AcDbEntity
  8
Make2D$visible$lines
100
AcDbLine
 10
2698.655814823019
 20
927.0163078463402
 30
0.0
 11
2697.962798171931
 21
925.9193268402125
 31
0.0
  0
LINE
  5
E0
330
1F
100
AcDbEntity
  8
Make2D$visible$lines
100
AcDbLine
 10
2697.962798171931
 20
925.9193268402125
 30
0.0
 11
2697.232733384649
 21
924.8466457073217
 31
0.0
  0
LINE
  5
E1
330
1F
100
AcDbEntity
  8
Make2D$visible$lines
100
AcDbLine
 10
2697.232733384649
 20
924.8466457073217
 30
0.0
 11
2696.466471684057
 21
923.799515145885
 31
0.0
  0
LINE
  5
E2
330
1F
100
AcDbEntity
  8
Make2D$visible$lines
100
AcDbLine
 10
2696.466471684057
 20
923.799515145885
 30
0.0
 11
2695.66490649702
 21
922.7791560632967
 31
0.0
  0
LINE
  5
E3
330
1F
100
AcDbEntity
  8
Make2D$visible$lines
100
AcDbLine
 10
2695.66490649702
 20
922.7791560632967
 30
0.0
 11
2694.828972412692
 21
921.7867581526036
 31
0.0
  0
LINE
  5
E4
330
1F
100
AcDbEntity
  8
Make2D$visible$lines
100
AcDbLine
 10
2694.828972412692
 20
921.7867581526036
 30
0.0
 11
2693.959644092821
 21
920.8234785053778
 31
0.0
  0
LINE
  5
E5
330
1F
100
AcDbEntity
  8
Make2D$visible$lines
100
AcDbLine
 10
2693.959644092821
 20
920.8234785053778
 30
0.0
 11
2693.057935135341
 21
919.8904402625978
 31
0.0
  0
LINE
  5
E6
330
1F
100
AcDbEntity
  8
Make2D$visible$lines
100
AcDbLine
 10
2693.057935135341
 20
919.8904402625978
 30
0.0
 11
2692.124896892561
 21
918.9887313051179
 31
0.0
  0
LINE
  5
E7
330
1F
100
AcDbEntity
  8
Make2D$visible$lines
100
AcDbLine
 10
2692.124896892561
 20
918.9887313051179
 30
0.0
 11
2691.161617245335
 21
918.1194029852468
 31
0.0
  0
LINE
  5
E8
330
1F
100
AcDbEntity
  8
Make2D$visible$lines
100
AcDbLine
 10
2691.161617245335
 20
918.1194029852468
 30
0.0
 11
2690.169219334642
 21
917.2834689009186
 31
0.0
  0
LINE
  5
E9
330
1F
100
AcDbEntity
  8
Make2D$visible$lines
100
AcDbLine
 10
2690.169219334642
 20
917.2834689009186
 30
0.0
 11
2689.148860252054
 21
916.4819037138823
 31
0.0
  0
LINE
  5
EA
330
1F
100
AcDbEntity
  8
Make2D$visible$lines
100
AcDbLine
 10
2689.148860252054
 20
916.4819037138823
 30
0.0
 11
2688.101729690617
 21
915.7156420132898
 31
0.0
  0
LINE
  5
EB
330
1F
100
AcDbEntity
  8
Make2D$visible$lines
100
AcDbLine
 10
2688.101729690617
 20
915.7156420132898
 30
0.0
 11
2687.029048557727
 21
914.9855772260075
 31
0.0
  0
LINE
  5
EC
330
1F
100
AcDbEntity
  8
Make2D$visible$lines
100
AcDbLine
 10
2687.029048557727
 20
914.9855772260075
 30
0.0
 11
2685.932067551599
 21
914.29256057492
 31
0.0
  0
LINE
  5
ED
330
1F
100
AcDbEntity
  8
Make2D$visible$lines
100
AcDbLine
 10
2685.932067551599
 20
914.29256057492
 30
0.0
 11
2684.812065703017
 21
913.637400086442
 31
0.0
  0
LINE
  5
EE
330
1F
100
AcDbEntity
  8
Make2D$visible$lines
100
AcDbLine
 10
2684.812065703017
 20
913.637400086442
 30
0.0
 11
2683.670348884036
 21
913.0208596483963
 31
0.0
  0
LINE
  5
EF
330
1F
100
AcDbEntity
  8
Make2D$visible$lines
100
AcDbLine
 10
2683.670348884036
 20
913.0208596483963
 30
0.0
 11
2682.508248285395
 21
912.4436581193543
 31
0.0
  0
LINE
  5
F0
330
1F
100
AcDbEntity
  8
Make2D$visible$lines
100
AcDbLine
 10
2682.508248285395
 20
912.4436581193543
 30
0.0
 11
2681.327118864409
 21
911.9064684904793
 31
0.0
  0
LINE
  5
F1
330
1F
100
AcDbEntity
  8
Make2D$visible$lines
100
AcDbLine
 10
2681.327118864409
 20
911.9064684904793
 30
0.0
 11
2680.128337765148
 21
911.4099171008488
 31
0.0
  0
LINE
  5
F2
330
1F
100
AcDbEntity
  8
Make2D$visible$lines
100
AcDbLine
 10
2680.128337765148
 20
911.4099171008488
 30
0.0
 11
2678.91330271275
 21
910.9545829071714
 31
0.0
  0
LINE
  5
F3
330
1F
100
AcDbEntity
  8
Make2D$visible$lines
100
AcDbLine
 10
2678.91330271275
 20
910.9545829071714
 30
0.0
 11
2677.683430383733
 21
910.5409968087483
 31
0.0
  0
LINE
  5
F4
330
1F
100
AcDbEntity
  8
Make2D$visible$lines
100
AcDbLine
 10
2677.683430383733
 20
910.5409968087483
 30
0.0
 11
2676.440154754219
 21
910.1696410284701
 31
0.0
  0
LINE
  5
F5
330
1F
100
AcDbEntity
  8
Make2D$visible$lines
100
AcDbLine
 10
2676.440154754219
 20
910.1696410284701
 30
0.0
 11
2675.184925427977
 21
909.8409485505646
 31
0.0
  0
LINE
  5
F6
330
1F
100
AcDbEntity
  8
Make2D$visible$lines
100
AcDbLine
 10
2675.184925427977
 20
909.8409485505646
 30
0.0
 11
2673.919205946253
 21
909.555302615758
 31
0.0
  0
LINE
  5
F7
330
1F
100
AcDbEntity
  8
Make2D$visible$lines
100
AcDbLine
 10
2673.919205946253
 20
909.555302615758
 30
0.0
 11
2672.644472081342
 21
909.3130362744328
 31
0.0
  0
LINE
  5
F8
330
1F
100
AcDbEntity
  8
Make2D$visible$lines
100
AcDbLine
 10
2672.644472081342
 20
909.3130362744328
 30
0.0
 11
2671.36221011591
 21
909.1144319983057
 31
0.0
  0
LINE
  5
F9
330
1F
100
AcDbEntity
  8
Make2D$visible$lines
100
AcDbLine
 10
2671.36221011591
 20
909.1144319983057
 30
0.0
 11
2670.07391511005
 21
908.9597213510788
 31
0.0
  0
LINE
  5
FA
330
1F
100
AcDbEntity
  8
Make2D$visible$lines
100
AcDbLine
 10
2670.07391511005
 20
908.9597213510788
 30
0.0
 11
2668.78108915811
 21
908.8490847184457
 31
0.0
  0
LINE
  5
FB
330
1F
100
AcDbEntity
  8
Make2D$visible$lines
100
AcDbLine
 10
2668.78108915811
 20
908.8490847184457
 30
0.0
 11
2667.485239637319
 21
908.7826510977716
 31
0.0
  0
LINE
  5
FC
330
1F
100
AcDbEntity
  8
Make2D$visible$lines
100
AcDbLine
 10
2667.485239637319
 20
908.7826510977716
 30
0.0
 11
2666.187877450252
 21
908.7604979476862
 31
0.0
  0
LINE
  5
FD
330
1F
100
AcDbEntity
  8
Make2D$visible$lines
100
AcDbLine
 10
2788.687877450252
 20
1054.760497947758
 30
0.0
 11
2788.680346687049
 21
1054.326663454319
 31
0.0
  0
LINE
  5
FE
330
1F
100
AcDbEntity
  8
Make2D$visible$lines
100
AcDbLine
 10
2788.680346687049
 20
1054.326663454319
 30
0.0
 11
2788.657763471421
 21
1053.893351697653
 31
0.0
  0
LINE
  5
FF
330
1F
100
AcDbEntity
  8
Make2D$visible$lines
100
AcDbLine
 10
2788.657763471421
 20
1053.893351697653
 30
0.0
 11
2788.620155014384
 21
1053.461084784679
 31
0.0
  0
LINE
  5
100
330
1F
100
AcDbEntity
  8
Make2D$visible$lines
100
AcDbLine
 10
2788.620155014384
 20
1053.461084784679
 30
0.0
 11
2788.567566631201
 21
1053.030383563359
 31
0.0
  0
LINE
  5
101
330
1F
100
AcDbEntity
  8
Make2D$visible$lines
100
AcDbLine
 10
2788.567566631201
 20
1053.030383563359
 30
0.0
 11
2788.500061686776
 21
1052.601766995118
 31
0.0
  0
LINE
  5
102
330
1F
100
AcDbEntity
  8
Make2D$visible$lines
100
AcDbLine
 10
2788.500061686776
 20
1052.601766995118
 30
0.0
 11
2788.417721519311
 21
1052.175751529537
 31
0.0
  0
LINE
  5
103
330
1F
100
AcDbEntity
  8
Make2D$visible$lines
100
AcDbLine
 10
2788.417721519311
 20
1052.175751529537
 30
0.0
 11
2788.320645342294
 21
1051.75285048207
 31
0.0
  0
LINE
  5
104
330
1F
100
AcDbEntity
  8
Make2D$visible$lines
100
AcDbLine
 10
2788.320645342294
 20
1051.75285048207
 30
0.0
 11
2788.208950124956
 21
1051.333573415542
 31
0.0
  0
LINE
  5
105
330
1F
100
AcDbEntity
  8
Make2D$visible$lines
100
AcDbLine
 10
2788.208950124956
 20
1051.333573415542
 30
0.0
 11
2788.082770451335
 21
1050.918425526161
 31
0.0
  0
LINE
  5
106
330
1F
100
AcDbEntity
  8
Make2D$visible$lines
100
AcDbLine
 10
2788.082770451335
 20
1050.918425526161
 30
0.0
 11
2787.94225835811
 21
1050.507907034799
 31
0.0
  0
LINE
  5
107
330
1F
100
AcDbEntity
  8
Make2D$visible$lines
100
AcDbLine
 10
2787.94225835811
 20
1050.507907034799
 30
0.0
 11
2787.78758315141
 21
1050.102512584264
 31
0.0
  0
LINE
  5
108
330
1F
100
AcDbEntity
  8
Make2D$visible$lines
100
AcDbLine
 10
2787.78758315141
 20
1050.102512584264
 30
0.0
 11
2787.618931202811
 21
1049.702730643293
 31
0.0
  0
LINE
  5
109
330
1F
100
AcDbEntity
  8
Make2D$visible$lines
100
AcDbLine
 10
2787.618931202811
 20
1049.702730643293
 30
0.0
 11
2787.436505724775
 21
1049.309042917988
 31
0.0
  0
LINE
  5
10A
330
1F
100
AcDbEntity
  8
Make2D$visible$lines
100
AcDbLine
 10
2787.436505724775
 20
1049.309042917988
 30
0.0
 11
2787.240526525795
 21
1048.921923771394
 31
0.0
  0
LINE
  5
10B
330
1F
100
AcDbEntity
  8
Make2D$visible$lines
100
AcDbLine
 10
2787.240526525795
 20
1048.921923771394
 30
0.0
 11
2787.031229745541
 21
1048.541839651931
 31
0.0
  0
LINE
  5
10C
330
1F
100
AcDbEntity
  8
Make2D$visible$lines
100
AcDbLine
 10
2787.031229745541
 20
1048.541839651931
 30
0.0
 11
2786.808867570332
 21
1048.169248531359
 31
0.0
  0
LINE
  5
10D
330
1F
100
AcDbEntity
  8
Make2D$visible$lines
100
AcDbLine
 10
2786.808867570332
 20
1048.169248531359
 30
0.0
 11
2786.573707929269
 21
1047.804599352959
 31
0.0
  0
LINE
  5
10E
330
1F
100
AcDbEntity
  8
Make2D$visible$lines
100
AcDbLine
 10
2786.573707929269
 20
1047.804599352959
 30
0.0
 11
2786.326034171405
 21
1047.448331490589
 31
0.0
  0
LINE
  5
10F
330
1F
100
AcDbEntity
  8
Make2D$visible$lines
100
AcDbLine
 10
2786.326034171405
 20
1047.448331490589
 30
0.0
 11
2786.066144724326
 21
1047.100874219274
 31
0.0
  0
LINE
  5
110
330
1F
100
AcDbEntity
  8
Make2D$visible$lines
100
AcDbLine
 10
2786.066144724326
 20
1047.100874219274
 30
0.0
 11
2785.794352734575
 21
1046.762646197963
 31
0.0
  0
LINE
  5
111
330
1F
100
AcDbEntity
  8
Make2D$visible$lines
100
AcDbLine
 10
2785.794352734575
 20
1046.762646197963
 30
0.0
 11
2785.51098569033
 21
1046.434054965079
 31
0.0
  0
LINE
  5
112
330
1F
100
AcDbEntity
  8
Make2D$visible$lines
100
AcDbLine
 10
2785.51098569033
 20
1046.434054965079
 30
0.0
 11
2785.216385026808
 21
1046.115496447464
 31
0.0
  0
LINE
  5
113
330
1F
100
AcDbEntity
  8
Make2D$visible$lines
100
AcDbLine
 10
2785.216385026808
 20
1046.115496447464
 30
0.0
 11
2784.910905714863
 21
1045.80735448332
 31
0.0
  0
LINE
  5
114
330
1F
100
AcDbEntity
  8
Make2D$visible$lines
100
AcDbLine
 10
2784.910905714863
 20
1045.80735448332
 30
0.0
 11
2784.594915833273
 21
1045.510000359714
 31
0.0
  0
LINE
  5
115
330
1F
100
AcDbEntity
  8
Make2D$visible$lines
100
AcDbLine
 10
2784.594915833273
 20
1045.510000359714
 30
0.0
 11
2784.268796125235
 21
1045.223792365204
 31
0.0
  0
LINE
  5
116
330
1F
100
AcDbEntity
  8
Make2D$visible$lines
100
AcDbLine
 10
2784.268796125235
 20
1045.223792365204
 30
0.0
 11
2783.932939539595
 21
1044.949075358132
 31
0.0
  0
LINE
  5
117
330
1F
100
AcDbEntity
  8
Make2D$visible$lines
100
AcDbLine
 10
2783.932939539595
 20
1044.949075358132
 30
0.0
 11
2783.58775075738
 21
1044.686180351094
 31
0.0
  0
LINE
  5
118
330
1F
100
AcDbEntity
  8
Make2D$visible$lines
100
AcDbLine
 10
2783.58775075738
 20
1044.686180351094
 30
0.0
 11
2783.233645704187
 21
1044.435424112097
 31
0.0
  0
LINE
  5
119
330
1F
100
AcDbEntity
  8
Make2D$visible$lines
100
AcDbLine
 10
2783.233645704187
 20
1044.435424112097
 30
0.0
 11
2782.871051049024
 21
1044.197108782879
 31
0.0
  0
LINE
  5
11A
330
1F
100
AcDbEntity
  8
Make2D$visible$lines
100
AcDbLine
 10
2782.871051049024
 20
1044.197108782879
 30
0.0
 11
2782.50040369021
 21
1043.97152151485
 31
0.0
  0
LINE
  5
11B
330
1F
100
AcDbEntity
  8
Make2D$visible$lines
100
AcDbLine
 10
2782.50040369021
 20
1043.97152151485
 30
0.0
 11
2782.122150228944
 21
1043.758934123098
 31
0.0
  0
LINE
  5
11C
330
1F
100
AcDbEntity
  8
Make2D$visible$lines
100
AcDbLine
 10
2782.122150228944
 20
1043.758934123098
 30
0.0
 11
2781.736746431183
 21
1043.55960275887
 31
0.0
  0
LINE
  5
11D
330
1F
100
AcDbEntity
  8
Make2D$visible$lines
100
AcDbLine
 10
2781.736746431183
 20
1043.55960275887
 30
0.0
 11
2781.344656678489
 21
1043.373767600937
 31
0.0
  0
LINE
  5
11E
330
1F
100
AcDbEntity
  8
Make2D$visible$lines
100
AcDbLine
 10
2781.344656678489
 20
1043.373767600937
 30
0.0
 11
2780.946353408472
 21
1043.201652566188
 31
0.0
  0
LINE
  5
11F
330
1F
100
AcDbEntity
  8
Make2D$visible$lines
100
AcDbLine
 10
2780.946353408472
 20
1043.201652566188
 30
0.0
 11
2780.54231654555
 21
1043.043465039836
 31
0.0
  0
LINE
  5
120
330
1F
100
AcDbEntity
  8
Make2D$visible$lines
100
AcDbLine
 10
2780.54231654555
 20
1043.043465039836
 30
0.0
 11
2780.133032922676
 21
1042.899395625528
 31
0.0
  0
LINE
  5
121
330
1F
100
AcDbEntity
  8
Make2D$visible$lines
100
AcDbLine
 10
2780.133032922676
 20
1042.899395625528
 30
0.0
 11
2779.718995694734
 21
1042.769617915689
 31
0.0
  0
LINE
  5
122
330
1F
100
AcDbEntity
  8
Make2D$visible$lines
100
AcDbLine
 10
2779.718995694734
 20
1042.769617915689
 30
0.0
 11
2779.300703744338
 21
1042.654288282349
 31
0.0
  0
LINE
  5
123
330
1F
100
AcDbEntity
  8
Make2D$visible$lines
100
AcDbLine
 10
2779.300703744338
 20
1042.654288282349
 30
0.0
 11
2778.878661080707
 21
1042.553545688735
 31
0.0
  0
LINE
  5
124
330
1F
100
AcDbEntity
  8
Make2D$visible$lines
100
AcDbLine
 10
2778.878661080707
 20
1042.553545688735
 30
0.0
 11
2778.45337623238
 21
1042.467511521825
 31
0.0
  0
LINE
  5
125
330
1F
100
AcDbEntity
  8
Make2D$visible$lines
100
AcDbLine
 10
2778.45337623238
 20
1042.467511521825
 30
0.0
 11
2778.025361634474
 21
1042.39628944609
 31
0.0
  0
LINE
  5
126
330
1F
100
AcDbEntity
  8
Make2D$visible$lines
100
AcDbLine
 10
2778.025361634474
 20
1042.39628944609
 30
0.0
 11
2777.595133011243
 21
1042.339965278583
 31
0.0
  0
LINE
  5
127
330
1F
100
AcDbEntity
  8
Make2D$visible$lines
100
AcDbLine
 10
2777.595133011243
 20
1042.339965278583
 30
0.0
 11
2777.163208754669
 21
1042.298606885539
 31
0.0
  0
LINE
  5
128
330
1F
100
AcDbEntity
  8
Make2D$visible$lines
100
AcDbLine
 10
2777.163208754669
 20
1042.298606885539
 30
0.0
 11
2776.730109299838
 21
1042.272264100601
 31
0.0
  0
LINE
  5
129
330
1F
100
AcDbEntity
  8
Make2D$visible$lines
100
AcDbLine
 10
2776.730109299838
 20
1042.272264100601
 30
0.0
 11
2776.296356497862
 21
1042.260968664772
 31
0.0
  0
LINE
  5
12A
330
1F
100
AcDbEntity
  8
Make2D$visible$lines
100
AcDbLine
 10
2776.296356497862
 20
1042.260968664772
 30
0.0
 11
2775.862472987083
 21
1042.264734188174
 31
0.0
  0
LINE
  5
12B
330
1F
100
AcDbEntity
  8
Make2D$visible$lines
100
AcDbLine
 10
2775.862472987083
 20
1042.264734188174
 30
0.0
 11
2775.428981563337
 21
1042.283556133643
 31
0.0
  0
LINE
  5
12C
330
1F
100
AcDbEntity
  8
Make2D$visible$lines
100
AcDbLine
 10
2775.428981563337
 20
1042.283556133643
 30
0.0
 11
2774.996404550026
 21
1042.317411822201
 31
0.0
  0
LINE
  5
12D
330
1F
100
AcDbEntity
  8
Make2D$visible$lines
100
AcDbLine
 10
2774.996404550026
 20
1042.317411822201
 30
0.0
 11
2774.56526316876
 21
1042.366260460381
 31
0.0
  0
LINE
  5
12E
330
1F
100
AcDbEntity
  8
Make2D$visible$lines
100
AcDbLine
 10
2774.56526316876
 20
1042.366260460381
 30
0.0
 11
2774.136076911321
 21
1042.430043189379
 31
0.0
  0
LINE
  5
12F
330
1F
100
AcDbEntity
  8
Make2D$visible$lines
100
AcDbLine
 10
2774.136076911321
 20
1042.430043189379
 30
0.0
 11
2773.709362913722
 21
1042.508683155973
 31
0.0
  0
LINE
  5
130
330
1F
100
AcDbEntity
  8
Make2D$visible$lines
100
AcDbLine
 10
2773.709362913722
 20
1042.508683155973
 30
0.0
 11
2773.285635333095
 21
1042.602085605129
 31
0.0
  0
LINE
  5
131
330
1F
100
AcDbEntity
  8
Make2D$visible$lines
100
AcDbLine
 10
2773.285635333095
 20
1042.602085605129
 30
0.0
 11
2772.865404728171
 21
1042.710137994171
 31
0.0
  0
LINE
  5
132
330
1F
100
AcDbEntity
  8
Make2D$visible$lines
100
AcDbLine
 10
2772.865404728171
 20
1042.710137994171
 30
0.0
 11
2772.449177444098
 21
1042.832710128385
 31
0.0
  0
LINE
  5
133
330
1F
100
AcDbEntity
  8
Make2D$visible$lines
100
AcDbLine
 10
2772.449177444098
 20
1042.832710128385
 30
0.0
 11
2772.037455002335
 21
1042.969654317898
 31
0.0
  0
LINE
  5
134
330
1F
100
AcDbEntity
  8
Make2D$visible$lines
100
AcDbLine
 10
2772.037455002335
 20
1042.969654317898
 30
0.0
 11
2771.630733496356
 21
1043.120805555626
 31
0.0
  0
LINE
  5
135
330
1F
100
AcDbEntity
  8
Make2D$visible$lines
100
AcDbLine
 10
2771.630733496356
 20
1043.120805555626
 30
0.0
 11
2771.229502993897
 21
1043.285981716101
 31
0.0
  0
LINE
  5
136
330
1F
100
AcDbEntity
  8
Make2D$visible$lines
100
AcDbLine
 10
2771.229502993897
 20
1043.285981716101
 30
0.0
 11
2770.834246946463
 21
1043.464983774915
 31
0.0
  0
LINE
  5
137
330
1F
100
AcDbEntity
  8
Make2D$visible$lines
100
AcDbLine
 10
2770.834246946463
 20
1043.464983774915
 30
0.0
 11
2770.445441606806
 21
1043.657596048529
 31
0.0
  0
LINE
  5
138
330
1F
100
AcDbEntity
  8
Make2D$visible$lines
100
AcDbLine
 10
2770.445441606806
 20
1043.657596048529
 30
0.0
 11
2770.063555455077
 21
1043.863586454155
 31
0.0
  0
LINE
  5
139
330
1F
100
AcDbEntity
  8
Make2D$visible$lines
100
AcDbLine
 10
2770.063555455077
 20
1043.863586454155
 30
0.0
 11
2769.689048634345
 21
1044.082706789399
 31
0.0
  0
LINE
  5
13A
330
1F
100
AcDbEntity
  8
Make2D$visible$lines
100
AcDbLine
 10
2769.689048634345
 20
1044.082706789399
 30
0.0
 11
2769.322372396158
 21
1044.314693031323
 31
0.0
  0
LINE
  5
13B
330
1F
100
AcDbEntity
  8
Make2D$visible$lines
100
AcDbLine
 10
2769.322372396158
 20
1044.314693031323
 30
0.0
 11
2768.963968556826
 21
1044.559265654575
 31
0.0
  0
LINE
  5
13C
330
1F
100
AcDbEntity
  8
Make2D$visible$lines
100
AcDbLine
 10
2768.963968556826
 20
1044.559265654575
 30
0.0
 11
2768.614268965058
 21
1044.816129968193
 31
0.0
  0
LINE
  5
13D
330
1F
100
AcDbEntity
  8
Make2D$visible$lines
100
AcDbLine
 10
2768.614268965058
 20
1044.816129968193
 30
0.0
 11
2768.273694981627
 21
1045.084976470685
 31
0.0
  0
LINE
  5
13E
330
1F
100
AcDbEntity
  8
Make2D$visible$lines
100
AcDbLine
 10
2768.273694981627
 20
1045.084976470685
 30
0.0
 11
2767.942656971655
 21
1045.365481222956
 31
0.0
  0
LINE
  5
13F
330
1F
100
AcDbEntity
  8
Make2D$visible$lines
100
AcDbLine
 10
2767.942656971655
 20
1045.365481222956
 30
0.0
 11
2767.621553810161
 21
1045.657306238626
 31
0.0
  0
LINE
  5
140
330
1F
100
AcDbEntity
  8
Make2D$visible$lines
100
AcDbLine
 10
2767.621553810161
 20
1045.657306238626
 30
0.0
 11
2767.310772401444
 21
1045.960099891282
 31
0.0
  0
LINE
  5
141
330
1F
100
AcDbEntity
  8
Make2D$visible$lines
100
AcDbLine
 10
2767.310772401444
 20
1045.960099891282
 30
0.0
 11
2767.010687212897
 21
1046.273497338156
 31
0.0
  0
LINE
  5
142
330
1F
100
AcDbEntity
  8
Make2D$visible$lines
100
AcDbLine
 10
2767.010687212897
 20
1046.273497338156
 30
0.0
 11
2766.721659823798
 21
1046.597120959734
 31
0.0
  0
LINE
  5
143
330
1F
100
AcDbEntity
  8
Make2D$visible$lines
100
AcDbLine
 10
2766.721659823798
 20
1046.597120959734
 30
0.0
 11
2766.444038489639
 21
1046.930580814758
 31
0.0
  0
LINE
  5
144
330
1F
100
AcDbEntity
  8
Make2D$visible$lines
100
AcDbLine
 10
2766.444038489639
 20
1046.930580814758
 30
0.0
 11
2766.178157722507
 21
1047.273475110076
 31
0.0
  0
LINE
  5
145
330
1F
100
AcDbEntity
  8
Make2D$visible$lines
100
AcDbLine
 10
2766.178157722507
 20
1047.273475110076
 30
0.0
 11
2765.924337888014
 21
1047.625390684768
 31
0.0
  0
LINE
  5
146
330
1F
100
AcDbEntity
  8
Make2D$visible$lines
100
AcDbLine
 10
2765.924337888014
 20
1047.625390684768
 30
0.0
 11
2765.682884819294
 21
1047.985903507977
 31
0.0
  0
LINE
  5
147
330
1F
100
AcDbEntity
  8
Make2D$visible$lines
100
AcDbLine
 10
2765.682884819294
 20
1047.985903507977
 30
0.0
 11
2765.454089448487
 21
1048.35457918983
 31
0.0
  0
LINE
  5
148
330
1F
100
AcDbEntity
  8
Make2D$visible$lines
100
AcDbLine
 10
2765.454089448487
 20
1048.35457918983
 30
0.0
 11
2765.238227456196
 21
1048.730973504847
 31
0.0
  0
LINE
  5
149
330
1F
100
AcDbEntity
  8
Make2D$visible$lines
100
AcDbLine
 10
2765.238227456196
 20
1048.730973504847
 30
0.0
 11
2765.035558939308
 21
1049.114632927193
 31
0.0
  0
LINE
  5
14A
330
1F
100
AcDbEntity
  8
Make2D$visible$lines
100
AcDbLine
 10
2765.035558939308
 20
1049.114632927193
 30
0.0
 11
2764.8463280976
 21
1049.505095177147
 31
0.0
  0
LINE
  5
14B
330
1F
100
AcDbEntity
  8
Make2D$visible$lines
100
AcDbLine
 10
2764.8463280976
 20
1049.505095177147
 30
0.0
 11
2764.670762939498
 21
1049.901889778109
 31
0.0
  0
LINE
  5
14C
330
1F
100
AcDbEntity
  8
Make2D$visible$lines
100
AcDbLine
 10
2764.670762939498
 20
1049.901889778109
 30
0.0
 11
2764.509075007343
 21
1050.304538623492
 31
0.0
  0
LINE
  5
14D
330
1F
100
AcDbEntity
  8
Make2D$visible$lines
100
AcDbLine
 10
2764.509075007343
 20
1050.304538623492
 30
0.0
 11
2764.361459122501
 21
1050.712556552798
 31
0.0
  0
LINE
  5
14E
330
1F
100
AcDbEntity
  8
Make2D$visible$lines
100
AcDbLine
 10
2764.361459122501
 20
1050.712556552798
 30
0.0
 11
2764.228093150614
 21
1051.125451936201
 31
0.0
  0
LINE
  5
14F
330
1F
100
AcDbEntity
  8
Make2D$visible$lines
100
AcDbLine
 10
2764.228093150614
 20
1051.125451936201
 30
0.0
 11
2764.109137787292
 21
1051.542727266923
 31
0.0
  0
LINE
  5
150
330
1F
100
AcDbEntity
  8
Make2D$visible$lines
100
AcDbLine
 10
2764.109137787292
 20
1051.542727266923
 30
0.0
 11
2764.004736364482
 21
1051.963879760692
 31
0.0
  0
LINE
  5
151
330
1F
100
AcDbEntity
  8
Make2D$visible$lines
100
AcDbLine
 10
2764.004736364482
 20
1051.963879760692
 30
0.0
 11
2763.915014677767
 21
1052.388401961555
 31
0.0
  0
LINE
  5
152
330
1F
100
AcDbEntity
  8
Make2D$visible$lines
100
AcDbLine
 10
2763.915014677767
 20
1052.388401961555
 30
0.0
 11
2763.840080834791
 21
1052.815782353325
 31
0.0
  0
LINE
  5
153
330
1F
100
AcDbEntity
  8
Make2D$visible$lines
100
AcDbLine
 10
2763.840080834791
 20
1052.815782353325
 30
0.0
 11
2763.780025125
 21
1053.245505975917
 31
0.0
  0
LINE
  5
154
330
1F
100
AcDbEntity
  8
Make2D$visible$lines
100
AcDbLine
 10
2763.780025125
 20
1053.245505975917
 30
0.0
 11
2763.734919910844
 21
1053.677055045837
 31
0.0
  0
LINE
  5
155
330
1F
100
AcDbEntity
  8
Make2D$visible$lines
100
AcDbLine
 10
2763.734919910844
 20
1053.677055045837
 30
0.0
 11
2763.704819540596
 21
1054.109909580067
 31
0.0
  0
LINE
  5
156
330
1F
100
AcDbEntity
  8
Make2D$visible$lines
100
AcDbLine
 10
2763.704819540596
 20
1054.109909580067
 30
0.0
 11
2763.689760282855
 21
1054.543548022608
 31
0.0
  0
LINE
  5
157
330
1F
100
AcDbEntity
  8
Make2D$visible$lines
100
AcDbLine
 10
2763.689760282855
 20
1054.543548022608
 30
0.0
 11
2763.689760282855
 21
1054.97744787291
 31
0.0
  0
LINE
  5
158
330
1F
100
AcDbEntity
  8
Make2D$visible$lines
100
AcDbLine
 10
2763.689760282855
 20
1054.97744787291
 30
0.0
 11
2763.704819540596
 21
1055.411086315451
 31
0.0
  0
LINE
  5
159
330
1F
100
AcDbEntity
  8
Make2D$visible$lines
100
AcDbLine
 10
2763.704819540596
 20
1055.411086315451
 30
0.0
 11
2763.734919910844
 21
1055.843940849681
 31
0.0
  0
LINE
  5
15A
330
1F
100
AcDbEntity
  8
Make2D$visible$lines
100
AcDbLine
 10
2763.734919910844
 20
1055.843940849681
 30
0.0
 11
2763.780025125
 21
1056.2754899196
 31
0.0
  0
LINE
  5
15B
330
1F
100
AcDbEntity
  8
Make2D$visible$lines
100
AcDbLine
 10
2763.780025125
 20
1056.2754899196
 30
0.0
 11
2763.840080834791
 21
1056.705213542193
 31
0.0
  0
LINE
  5
15C
330
1F
100
AcDbEntity
  8
Make2D$visible$lines
100
AcDbLine
 10
2763.840080834791
 20
1056.705213542193
 30
0.0
 11
2763.915014677767
 21
1057.132593933963
 31
0.0
  0
LINE
  5
15D
330
1F
100
AcDbEntity
  8
Make2D$visible$lines
100
AcDbLine
 10
2763.915014677767
 20
1057.132593933963
 30
0.0
 11
2764.004736364482
 21
1057.557116134826
 31
0.0
  0
LINE
  5
15E
330
1F
100
AcDbEntity
  8
Make2D$visible$lines
100
AcDbLine
 10
2764.004736364482
 20
1057.557116134826
 30
0.0
 11
2764.109137787292
 21
1057.978268628595
 31
0.0
  0
LINE
  5
15F
330
1F
100
AcDbEntity
  8
Make2D$visible$lines
100
AcDbLine
 10
2764.109137787292
 20
1057.978268628595
 30
0.0
 11
2764.228093150614
 21
1058.395543959317
 31
0.0
  0
LINE
  5
160
330
1F
100
AcDbEntity
  8
Make2D$visible$lines
100
AcDbLine
 10
2764.228093150614
 20
1058.395543959317
 30
0.0
 11
2764.361459122501
 21
1058.80843934272
 31
0.0
  0
LINE
  5
161
330
1F
100
AcDbEntity
  8
Make2D$visible$lines
100
AcDbLine
 10
2764.361459122501
 20
1058.80843934272
 30
0.0
 11
2764.509075007343
 21
1059.216457272026
 31
0.0
  0
LINE
  5
162
330
1F
100
AcDbEntity
  8
Make2D$visible$lines
100
AcDbLine
 10
2764.509075007343
 20
1059.216457272026
 30
0.0
 11
2764.670762939498
 21
1059.619106117409
 31
0.0
  0
LINE
  5
163
330
1F
100
AcDbEntity
  8
Make2D$visible$lines
100
AcDbLine
 10
2764.670762939498
 20
1059.619106117409
 30
0.0
 11
2764.8463280976
 21
1060.015900718371
 31
0.0
  0
LINE
  5
164
330
1F
100
AcDbEntity
  8
Make2D$visible$lines
100
AcDbLine
 10
2764.8463280976
 20
1060.015900718371
 30
0.0
 11
2765.035558939308
 21
1060.406362968325
 31
0.0
  0
LINE
  5
165
330
1F
100
AcDbEntity
  8
Make2D$visible$lines
100
AcDbLine
 10
2765.035558939308
 20
1060.406362968325
 30
0.0
 11
2765.238227456196
 21
1060.790022390671
 31
0.0
  0
LINE
  5
166
330
1F
100
AcDbEntity
  8
Make2D$visible$lines
100
AcDbLine
 10
2765.238227456196
 20
1060.790022390671
 30
0.0
 11
2765.454089448487
 21
1061.166416705688
 31
0.0
  0
LINE
  5
167
330
1F
100
AcDbEntity
  8
Make2D$visible$lines
100
AcDbLine
 10
2765.454089448487
 20
1061.166416705688
 30
0.0
 11
2765.682884819294
 21
1061.535092387541
 31
0.0
  0
LINE
  5
168
330
1F
100
AcDbEntity
  8
Make2D$visible$lines
100
AcDbLine
 10
2765.682884819294
 20
1061.535092387541
 30
0.0
 11
2765.924337888014
 21
1061.89560521075
 31
0.0
  0
LINE
  5
169
330
1F
100
AcDbEntity
  8
Make2D$visible$lines
100
AcDbLine
 10
2765.924337888014
 20
1061.89560521075
 30
0.0
 11
2766.178157722507
 21
1062.247520785442
 31
0.0
  0
LINE
  5
16A
330
1F
100
AcDbEntity
  8
Make2D$visible$lines
100
AcDbLine
 10
2766.178157722507
 20
1062.247520785442
 30
0.0
 11
2766.444038489639
 21
1062.59041508076
 31
0.0
  0
LINE
  5
16B
330
1F
100
AcDbEntity
  8
Make2D$visible$lines
100
AcDbLine
 10
2766.444038489639
 20
1062.59041508076
 30
0.0
 11
2766.721659823798
 21
1062.923874935784
 31
0.0
  0
LINE
  5
16C
330
1F
100
AcDbEntity
  8
Make2D$visible$lines
100
AcDbLine
 10
2766.721659823798
 20
1062.923874935784
 30
0.0
 11
2767.010687212897
 21
1063.247498557362
 31
0.0
  0
LINE
  5
16D
330
1F
100
AcDbEntity
  8
Make2D$visible$lines
100
AcDbLine
 10
2767.010687212897
 20
1063.247498557362
 30
0.0
 11
2767.310772401444
 21
1063.560896004236
 31
0.0
  0
LINE
  5
16E
330
1F
100
AcDbEntity
  8
Make2D$visible$lines
100
AcDbLine
 10
2767.310772401444
 20
1063.560896004236
 30
0.0
 11
2767.621553810161
 21
1063.863689656892
 31
0.0
  0
LINE
  5
16F
330
1F
100
AcDbEntity
  8
Make2D$visible$lines
100
AcDbLine
 10
2767.621553810161
 20
1063.863689656892
 30
0.0
 11
2767.942656971655
 21
1064.155514672562
 31
0.0
  0
LINE
  5
170
330
1F
100
AcDbEntity
  8
Make2D$visible$lines
100
AcDbLine
 10
2767.942656971655
 20
1064.155514672562
 30
0.0
 11
2768.273694981627
 21
1064.436019424833
 31
0.0
  0
LINE
  5
171
330
1F
100
AcDbEntity
  8
Make2D$visible$lines
100
AcDbLine
 10
2768.273694981627
 20
1064.436019424833
 30
0.0
 11
2768.614268965058
 21
1064.704865927325
 31
0.0
  0
LINE
  5
172
330
1F
100
AcDbEntity
  8
Make2D$visible$lines
100
AcDbLine
 10
2768.614268965058
 20
1064.704865927325
 30
0.0
 11
2768.963968556826
 21
1064.961730240942
 31
0.0
  0
LINE
  5
173
330
1F
100
AcDbEntity
  8
Make2D$visible$lines
100
AcDbLine
 10
2768.963968556826
 20
1064.961730240942
 30
0.0
 11
2769.322372396158
 21
1065.206302864194
 31
0.0
  0
LINE
  5
174
330
1F
100
AcDbEntity
  8
Make2D$visible$lines
100
AcDbLine
 10
2769.322372396158
 20
1065.206302864194
 30
0.0
 11
2769.689048634345
 21
1065.438289106119
 31
0.0
  0
LINE
  5
175
330
1F
100
AcDbEntity
  8
Make2D$visible$lines
100
AcDbLine
 10
2769.689048634345
 20
1065.438289106119
 30
0.0
 11
2770.063555455077
 21
1065.657409441362
 31
0.0
  0
LINE
  5
176
330
1F
100
AcDbEntity
  8
Make2D$visible$lines
100
AcDbLine
 10
2770.063555455077
 20
1065.657409441362
 30
0.0
 11
2770.445441606806
 21
1065.863399846989
 31
0.0
  0
LINE
  5
177
330
1F
100
AcDbEntity
  8
Make2D$visible$lines
100
AcDbLine
 10
2770.445441606806
 20
1065.863399846989
 30
0.0
 11
2770.834246946463
 21
1066.056012120602
 31
0.0
  0
LINE
  5
178
330
1F
100
AcDbEntity
  8
Make2D$visible$lines
100
AcDbLine
 10
2770.834246946463
 20
1066.056012120602
 30
0.0
 11
2771.229502993897
 21
1066.235014179417
 31
0.0
  0
LINE
  5
179
330
1F
100
AcDbEntity
  8
Make2D$visible$lines
100
AcDbLine
 10
2771.229502993897
 20
1066.235014179417
 30
0.0
 11
2771.630733496356
 21
1066.400190339892
 31
0.0
  0
LINE
  5
17A
330
1F
100
AcDbEntity
  8
Make2D$visible$lines
100
AcDbLine
 10
2771.630733496356
 20
1066.400190339892
 30
0.0
 11
2772.037455002335
 21
1066.55134157762
 31
0.0
  0
LINE
  5
17B
330
1F
100
AcDbEntity
  8
Make2D$visible$lines
100
AcDbLine
 10
2772.037455002335
 20
1066.55134157762
 30
0.0
 11
2772.449177444098
 21
1066.688285767132
 31
0.0
  0
LINE
  5
17C
330
1F
100
AcDbEntity
  8
Make2D$visible$lines
100
AcDbLine
 10
2772.449177444098
 20
1066.688285767132
 30
0.0
 11
2772.865404728171
 21
1066.810857901347
 31
0.0
  0
LINE
  5
17D
330
1F
100
AcDbEntity
  8
Make2D$visible$lines
100
AcDbLine
 10
2772.865404728171
 20
1066.810857901347
 30
0.0
 11
2773.285635333095
 21
1066.918910290389
 31
0.0
  0
LINE
  5
17E
330
1F
100
AcDbEntity
  8
Make2D$visible$lines
100
AcDbLine
 10
2773.285635333095
 20
1066.918910290389
 30
0.0
 11
2773.709362913722
 21
1067.012312739545
 31
0.0
  0
LINE
  5
17F
330
1F
100
AcDbEntity
  8
Make2D$visible$lines
100
AcDbLine
 10
2773.709362913722
 20
1067.012312739545
 30
0.0
 11
2774.136076911321
 21
1067.090952706139
 31
0.0
  0
LINE
  5
180
330
1F
100
AcDbEntity
  8
Make2D$visible$lines
100
AcDbLine
 10
2774.136076911321
 20
1067.090952706139
 30
0.0
 11
2774.56526316876
 21
1067.154735435136
 31
0.0
  0
LINE
  5
181
330
1F
100
AcDbEntity
  8
Make2D$visible$lines
100
AcDbLine
 10
2774.56526316876
 20
1067.154735435136
 30
0.0
 11
2774.996404550026
 21
1067.203584073316
 31
0.0
  0
LINE
  5
182
330
1F
100
AcDbEntity
  8
Make2D$visible$lines
100
AcDbLine
 10
2774.996404550026
 20
1067.203584073316
 30
0.0
 11
2775.428981563337
 21
1067.237439761875
 31
0.0
  0
LINE
  5
183
330
1F
100
AcDbEntity
  8
Make2D$visible$lines
100
AcDbLine
 10
2775.428981563337
 20
1067.237439761875
 30
0.0
 11
2775.862472987083
 21
1067.256261707344
 31
0.0
  0
LINE
  5
184
330
1F
100
AcDbEntity
  8
Make2D$visible$lines
100
AcDbLine
 10
2775.862472987083
 20
1067.256261707344
 30
0.0
 11
2776.296356497862
 21
1067.260027230745
 31
0.0
  0
LINE
  5
185
330
1F
100
AcDbEntity
  8
Make2D$visible$lines
100
AcDbLine
 10
2776.296356497862
 20
1067.260027230745
 30
0.0
 11
2776.730109299838
 21
1067.248731794917
 31
0.0
  0
LINE
  5
186
330
1F
100
AcDbEntity
  8
Make2D$visible$lines
100
AcDbLine
 10
2776.730109299838
 20
1067.248731794917
 30
0.0
 11
2777.163208754669
 21
1067.222389009979
 31
0.0
  0
LINE
  5
187
330
1F
100
AcDbEntity
  8
Make2D$visible$lines
100
AcDbLine
 10
2777.163208754669
 20
1067.222389009979
 30
0.0
 11
2777.595133011243
 21
1067.181030616935
 31
0.0
  0
LINE
  5
188
330
1F
100
AcDbEntity
  8
Make2D$visible$lines
100
AcDbLine
 10
2777.595133011243
 20
1067.181030616935
 30
0.0
 11
2778.025361634474
 21
1067.124706449428
 31
0.0
  0
LINE
  5
189
330
1F
100
AcDbEntity
  8
Make2D$visible$lines
100
AcDbLine
 10
2778.025361634474
 20
1067.124706449428
 30
0.0
 11
2778.45337623238
 21
1067.053484373692
 31
0.0
  0
LINE
  5
18A
330
1F
100
AcDbEntity
  8
Make2D$visible$lines
100
AcDbLine
 10
2778.45337623238
 20
1067.053484373692
 30
0.0
 11
2778.878661080707
 21
1066.967450206783
 31
0.0
  0
LINE
  5
18B
330
1F
100
AcDbEntity
  8
Make2D$visible$lines
100
AcDbLine
 10
2778.878661080707
 20
1066.967450206783
 30
0.0
 11
2779.300703744338
 21
1066.866707613169
 31
0.0
  0
LINE
  5
18C
330
1F
100
AcDbEntity
  8
Make2D$visible$lines
100
AcDbLine
 10
2779.300703744338
 20
1066.866707613169
 30
0.0
 11
2779.718995694734
 21
1066.751377979829
 31
0.0
  0
LINE
  5
18D
330
1F
100
AcDbEntity
  8
Make2D$visible$lines
100
AcDbLine
 10
2779.718995694734
 20
1066.751377979829
 30
0.0
 11
2780.133032922676
 21
1066.621600269989
 31
0.0
  0
LINE
  5
18E
330
1F
100
AcDbEntity
  8
Make2D$visible$lines
100
AcDbLine
 10
2780.133032922676
 20
1066.621600269989
 30
0.0
 11
2780.54231654555
 21
1066.477530855682
 31
0.0
  0
LINE
  5
18F
330
1F
100
AcDbEntity
  8
Make2D$visible$lines
100
AcDbLine
 10
2780.54231654555
 20
1066.477530855682
 30
0.0
 11
2780.946353408472
 21
1066.319343329329
 31
0.0
  0
LINE
  5
190
330
1F
100
AcDbEntity
  8
Make2D$visible$lines
100
AcDbLine
 10
2780.946353408472
 20
1066.319343329329
 30
0.0
 11
2781.344656678489
 21
1066.147228294581
 31
0.0
  0
LINE
  5
191
330
1F
100
AcDbEntity
  8
Make2D$visible$lines
100
AcDbLine
 10
2781.344656678489
 20
1066.147228294581
 30
0.0
 11
2781.736746431183
 21
1065.961393136647
 31
0.0
  0
LINE
  5
192
330
1F
100
AcDbEntity
  8
Make2D$visible$lines
100
AcDbLine
 10
2781.736746431183
 20
1065.961393136647
 30
0.0
 11
2782.122150228944
 21
1065.76206177242
 31
0.0
  0
LINE
  5
193
330
1F
100
AcDbEntity
  8
Make2D$visible$lines
100
AcDbLine
 10
2782.122150228944
 20
1065.76206177242
 30
0.0
 11
2782.50040369021
 21
1065.549474380667
 31
0.0
  0
LINE
  5
194
330
1F
100
AcDbEntity
  8
Make2D$visible$lines
100
AcDbLine
 10
2782.50040369021
 20
1065.549474380667
 30
0.0
 11
2782.871051049024
 21
1065.323887112638
 31
0.0
  0
LINE
  5
195
330
1F
100
AcDbEntity
  8
Make2D$visible$lines
100
AcDbLine
 10
2782.871051049024
 20
1065.323887112638
 30
0.0
 11
2783.233645704187
 21
1065.08557178342
 31
0.0
  0
LINE
  5
196
330
1F
100
AcDbEntity
  8
Make2D$visible$lines
100
AcDbLine
 10
2783.233645704187
 20
1065.08557178342
 30
0.0
 11
2783.58775075738
 21
1064.834815544423
 31
0.0
  0
LINE
  5
197
330
1F
100
AcDbEntity
  8
Make2D$visible$lines
100
AcDbLine
 10
2783.58775075738
 20
1064.834815544423
 30
0.0
 11
2783.932939539595
 21
1064.571920537385
 31
0.0
  0
LINE
  5
198
330
1F
100
AcDbEntity
  8
Make2D$visible$lines
100
AcDbLine
 10
2783.932939539595
 20
1064.571920537385
 30
0.0
 11
2784.268796125235
 21
1064.297203530313
 31
0.0
  0
LINE
  5
199
330
1F
100
AcDbEntity
  8
Make2D$visible$lines
100
AcDbLine
 10
2784.268796125235
 20
1064.297203530313
 30
0.0
 11
2784.594915833273
 21
1064.010995535803
 31
0.0
  0
LINE
  5
19A
330
1F
100
AcDbEntity
  8
Make2D$visible$lines
100
AcDbLine
 10
2784.594915833273
 20
1064.010995535803
 30
0.0
 11
2784.910905714863
 21
1063.713641412197
 31
0.0
  0
LINE
  5
19B
330
1F
100
AcDbEntity
  8
Make2D$visible$lines
100
AcDbLine
 10
2784.910905714863
 20
1063.713641412197
 30
0.0
 11
2785.216385026808
 21
1063.405499448053
 31
0.0
  0
LINE
  5
19C
330
1F
100
AcDbEntity
  8
Make2D$visible$lines
100
AcDbLine
 10
2785.216385026808
 20
1063.405499448053
 30
0.0
 11
2785.51098569033
 21
1063.086940930438
 31
0.0
  0
LINE
  5
19D
330
1F
100
AcDbEntity
  8
Make2D$visible$lines
100
AcDbLine
 10
2785.51098569033
 20
1063.086940930438
 30
0.0
 11
2785.794352734575
 21
1062.758349697554
 31
0.0
  0
LINE
  5
19E
330
1F
100
AcDbEntity
  8
Make2D$visible$lines
100
AcDbLine
 10
2785.794352734575
 20
1062.758349697554
 30
0.0
 11
2786.066144724326
 21
1062.420121676243
 31
0.0
  0
LINE
  5
19F
330
1F
100
AcDbEntity
  8
Make2D$visible$lines
100
AcDbLine
 10
2786.066144724326
 20
1062.420121676243
 30
0.0
 11
2786.326034171405
 21
1062.072664404928
 31
0.0
  0
LINE
  5
1A0
330
1F
100
AcDbEntity
  8
Make2D$visible$lines
100
AcDbLine
 10
2786.326034171405
 20
1062.072664404928
 30
0.0
 11
2786.573707929269
 21
1061.716396542558
 31
0.0
  0
LINE
  5
1A1
330
1F
100
AcDbEntity
  8
Make2D$visible$lines
100
AcDbLine
 10
2786.573707929269
 20
1061.716396542558
 30
0.0
 11
2786.808867570332
 21
1061.351747364158
 31
0.0
  0
LINE
  5
1A2
330
1F
100
AcDbEntity
  8
Make2D$visible$lines
100
AcDbLine
 10
2786.808867570332
 20
1061.351747364158
 30
0.0
 11
2787.031229745541
 21
1060.979156243586
 31
0.0
  0
LINE
  5
1A3
330
1F
100
AcDbEntity
  8
Make2D$visible$lines
100
AcDbLine
 10
2787.031229745541
 20
1060.979156243586
 30
0.0
 11
2787.240526525795
 21
1060.599072124123
 31
0.0
  0
LINE
  5
1A4
330
1F
100
AcDbEntity
  8
Make2D$visible$lines
100
AcDbLine
 10
2787.240526525795
 20
1060.599072124123
 30
0.0
 11
2787.436505724775
 21
1060.211952977529
 31
0.0
  0
LINE
  5
1A5
330
1F
100
AcDbEntity
  8
Make2D$visible$lines
100
AcDbLine
 10
2787.436505724775
 20
1060.211952977529
 30
0.0
 11
2787.618931202811
 21
1059.818265252224
 31
0.0
  0
LINE
  5
1A6
330
1F
100
AcDbEntity
  8
Make2D$visible$lines
100
AcDbLine
 10
2787.618931202811
 20
1059.818265252224
 30
0.0
 11
2787.78758315141
 21
1059.418483311253
 31
0.0
  0
LINE
  5
1A7
330
1F
100
AcDbEntity
  8
Make2D$visible$lines
100
AcDbLine
 10
2787.78758315141
 20
1059.418483311253
 30
0.0
 11
2787.94225835811
 21
1059.013088860718
 31
0.0
  0
LINE
  5
1A8
330
1F
100
AcDbEntity
  8
Make2D$visible$lines
100
AcDbLine
 10
2787.94225835811
 20
1059.013088860718
 30
0.0
 11
2788.082770451335
 21
1058.602570369356
 31
0.0
  0
LINE
  5
1A9
330
1F
100
AcDbEntity
  8
Make2D$visible$lines
100
AcDbLine
 10
2788.082770451335
 20
1058.602570369356
 30
0.0
 11
2788.208950124956
 21
1058.187422479975
 31
0.0
  0
LINE
  5
1AA
330
1F
100
AcDbEntity
  8
Make2D$visible$lines
100
AcDbLine
 10
2788.208950124956
 20
1058.187422479975
 30
0.0
 11
2788.320645342294
 21
1057.768145413447
 31
0.0
  0
LINE
  5
1AB
330
1F
100
AcDbEntity
  8
Make2D$visible$lines
100
AcDbLine
 10
2788.320645342294
 20
1057.768145413447
 30
0.0
 11
2788.417721519311
 21
1057.34524436598
 31
0.0
  0
LINE
  5
1AC
330
1F
100
AcDbEntity
  8
Make2D$visible$lines
100
AcDbLine
 10
2788.417721519311
 20
1057.34524436598
 30
0.0
 11
2788.500061686776
 21
1056.919228900399
 31
0.0
  0
LINE
  5
1AD
330
1F
100
AcDbEntity
  8
Make2D$visible$lines
100
AcDbLine
 10
2788.500061686776
 20
1056.919228900399
 30
0.0
 11
2788.567566631201
 21
1056.490612332158
 31
0.0
  0
LINE
  5
1AE
330
1F
100
AcDbEntity
  8
Make2D$visible$lines
100
AcDbLine
 10
2788.567566631201
 20
1056.490612332158
 30
0.0
 11
2788.620155014384
 21
1056.059911110838
 31
0.0
  0
LINE
  5
1AF
330
1F
100
AcDbEntity
  8
Make2D$visible$lines
100
AcDbLine
 10
2788.620155014384
 20
1056.059911110838
 30
0.0
 11
2788.657763471421
 21
1055.627644197864
 31
0.0
  0
LINE
  5
1B0
330
1F
100
AcDbEntity
  8
Make2D$visible$lines
100
AcDbLine
 10
2788.657763471421
 20
1055.627644197864
 30
0.0
 11
2788.680346687049
 21
1055.194332441198
 31
0.0
  0
LINE
  5
1B1
330
1F
100
AcDbEntity
  8
Make2D$visible$lines
100
AcDbLine
 10
2788.680346687049
 20
1055.194332441198
 30
0.0
 11
2788.687877450252
 21
1054.760497947758
 31
0.0
  0
LINE
  5
1B2
330
1F
100
AcDbEntity
  8
______
100
AcDbLine
 10
2313.959234261089
 20
1194.300454206757
 30
0.0
 11
2313.959234261087
 21
594.3004542067574
 31
0.0
  0
LINE
  5
1B3
330
1F
100
AcDbEntity
  8
______
100
AcDbLine
 10
2313.959234261087
 20
594.3004542067574
 30
0.0
 11
3213.959234261087
 21
594.3004542067551
 31
0.0
  0
LINE
  5
1B4
330
1F
100
AcDbEntity
  8
______
100
AcDbLine
 10
3213.959234261087
 20
594.3004542067551
 30
0.0
 11
3213.959234261089
 21
1194.300454206755
 31
0.0
  0
LINE
  5
1B5
330
1F
100
AcDbEntity
  8
______
100
AcDbLine
 10
3213.959234261089
 20
1194.300454206755
 30
0.0
 11
2313.959234261089
 21
1194.300454206757
 31
0.0
  0
LINE
  5
1B6
330
1F
100
AcDbEntity
  8
Make2D$visible$lines
100
AcDbLine
 10
2560.778103532446
 20
1011.378749434654
 30
0.0
 11
2560.78563429565
 21
1011.812583928094
 31
0.0
  0
LINE
  5
1B7
330
1F
100
AcDbEntity
  8
Make2D$visible$lines
100
AcDbLine
 10
2560.78563429565
 20
1011.812583928094
 30
0.0
 11
2560.808217511278
 21
1012.245895684759
 31
0.0
  0
LINE
  5
1B8
330
1F
100
AcDbEntity
  8
Make2D$visible$lines
100
AcDbLine
 10
2560.808217511278
 20
1012.245895684759
 30
0.0
 11
2560.845825968315
 21
1012.678162597733
 31
0.0
  0
LINE
  5
1B9
330
1F
100
AcDbEntity
  8
Make2D$visible$lines
100
AcDbLine
 10
2560.845825968315
 20
1012.678162597733
 30
0.0
 11
2560.898414351498
 21
1013.108863819054
 31
0.0
  0
LINE
  5
1BA
330
1F
100
AcDbEntity
  8
Make2D$visible$lines
100
AcDbLine
 10
2560.898414351498
 20
1013.108863819054
 30
0.0
 11
2560.965919295923
 21
1013.537480387295
 31
0.0
  0
LINE
  5
1BB
330
1F
100
AcDbEntity
  8
Make2D$visible$lines
100
AcDbLine
 10
2560.965919295923
 20
1013.537480387295
 30
0.0
 11
2561.048259463388
 21
1013.963495852876
 31
0.0
  0
LINE
  5
1BC
330
1F
100
AcDbEntity
  8
Make2D$visible$lines
100
AcDbLine
 10
2561.048259463388
 20
1013.963495852876
 30
0.0
 11
2561.145335640405
 21
1014.386396900342
 31
0.0
  0
LINE
  5
1BD
330
1F
100
AcDbEntity
  8
Make2D$visible$lines
100
AcDbLine
 10
2561.145335640405
 20
1014.386396900342
 30
0.0
 11
2561.257030857743
 21
1014.80567396687
 31
0.0
  0
LINE
  5
1BE
330
1F
100
AcDbEntity
  8
Make2D$visible$lines
100
AcDbLine
 10
2561.257030857743
 20
1014.80567396687
 30
0.0
 11
2561.383210531364
 21
1015.220821856252
 31
0.0
  0
LINE
  5
1BF
330
1F
100
AcDbEntity
  8
Make2D$visible$lines
100
AcDbLine
 10
2561.383210531364
 20
1015.220821856252
 30
0.0
 11
2561.523722624589
 21
1015.631340347614
 31
0.0
  0
LINE
  5
1C0
330
1F
100
AcDbEntity
  8
Make2D$visible$lines
100
AcDbLine
 10
2561.523722624589
 20
1015.631340347614
 30
0.0
 11
2561.678397831289
 21
1016.036734798149
 31
0.0
  0
LINE
  5
1C1
330
1F
100
AcDbEntity
  8
Make2D$visible$lines
100
AcDbLine
 10
2561.678397831289
 20
1016.036734798149
 30
0.0
 11
2561.847049779888
 21
1016.43651673912
 31
0.0
  0
LINE
  5
1C2
330
1F
100
AcDbEntity
  8
Make2D$visible$lines
100
AcDbLine
 10
2561.847049779888
 20
1016.43651673912
 30
0.0
 11
2562.029475257924
 21
1016.830204464425
 31
0.0
  0
LINE
  5
1C3
330
1F
100
AcDbEntity
  8
Make2D$visible$lines
100
AcDbLine
 10
2562.029475257924
 20
1016.830204464425
 30
0.0
 11
2562.225454456904
 21
1017.217323611019
 31
0.0
  0
LINE
  5
1C4
330
1F
100
AcDbEntity
  8
Make2D$visible$lines
100
AcDbLine
 10
2562.225454456904
 20
1017.217323611019
 30
0.0
 11
2562.434751237158
 21
1017.597407730482
 31
0.0
  0
LINE
  5
1C5
330
1F
100
AcDbEntity
  8
Make2D$visible$lines
100
AcDbLine
 10
2562.434751237158
 20
1017.597407730482
 30
0.0
 11
2562.657113412368
 21
1017.969998851053
 31
0.0
  0
LINE
  5
1C6
330
1F
100
AcDbEntity
  8
Make2D$visible$lines
100
AcDbLine
 10
2562.657113412368
 20
1017.969998851053
 30
0.0
 11
2562.89227305343
 21
1018.334648029453
 31
0.0
  0
LINE
  5
1C7
330
1F
100
AcDbEntity
  8
Make2D$visible$lines
100
AcDbLine
 10
2562.89227305343
 20
1018.334648029453
 30
0.0
 11
2563.139946811295
 21
1018.690915891824
 31
0.0
  0
LINE
  5
1C8
330
1F
100
AcDbEntity
  8
Make2D$visible$lines
100
AcDbLine
 10
2563.139946811295
 20
1018.690915891824
 30
0.0
 11
2563.399836258373
 21
1019.038373163139
 31
0.0
  0
LINE
  5
1C9
330
1F
100
AcDbEntity
  8
Make2D$visible$lines
100
AcDbLine
 10
2563.399836258373
 20
1019.038373163139
 30
0.0
 11
2563.671628248125
 21
1019.376601184449
 31
0.0
  0
LINE
  5
1CA
330
1F
100
AcDbEntity
  8
Make2D$visible$lines
100
AcDbLine
 10
2563.671628248125
 20
1019.376601184449
 30
0.0
 11
2563.95499529237
 21
1019.705192417333
 31
0.0
  0
LINE
  5
1CB
330
1F
100
AcDbEntity
  8
Make2D$visible$lines
100
AcDbLine
 10
2563.95499529237
 20
1019.705192417333
 30
0.0
 11
2564.249595955892
 21
1020.023750934948
 31
0.0
  0
LINE
  5
1CC
330
1F
100
AcDbEntity
  8
Make2D$visible$lines
100
AcDbLine
 10
2564.249595955892
 20
1020.023750934948
 30
0.0
 11
2564.555075267836
 21
1020.331892899092
 31
0.0
  0
LINE
  5
1CD
330
1F
100
AcDbEntity
  8
Make2D$visible$lines
100
AcDbLine
 10
2564.555075267836
 20
1020.331892899092
 30
0.0
 11
2564.871065149426
 21
1020.629247022699
 31
0.0
  0
LINE
  5
1CE
330
1F
100
AcDbEntity
  8
Make2D$visible$lines
100
AcDbLine
 10
2564.871065149426
 20
1020.629247022699
 30
0.0
 11
2565.197184857464
 21
1020.915455017209
 31
0.0
  0
LINE
  5
1CF
330
1F
100
AcDbEntity
  8
Make2D$visible$lines
100
AcDbLine
 10
2565.197184857464
 20
1020.915455017209
 30
0.0
 11
2565.533041443105
 21
1021.190172024281
 31
0.0
  0
LINE
  5
1D0
330
1F
100
AcDbEntity
  8
Make2D$visible$lines
100
AcDbLine
 10
2565.533041443105
 20
1021.190172024281
 30
0.0
 11
2565.87823022532
 21
1021.453067031319
 31
0.0
  0
LINE
  5
1D1
330
1F
100
AcDbEntity
  8
Make2D$visible$lines
100
AcDbLine
 10
2565.87823022532
 20
1021.453067031319
 30
0.0
 11
2566.232335278513
 21
1021.703823270315
 31
0.0
  0
LINE
  5
1D2
330
1F
100
AcDbEntity
  8
Make2D$visible$lines
100
AcDbLine
 10
2566.232335278513
 20
1021.703823270315
 30
0.0
 11
2566.594929933675
 21
1021.942138599533
 31
0.0
  0
LINE
  5
1D3
330
1F
100
AcDbEntity
  8
Make2D$visible$lines
100
AcDbLine
 10
2566.594929933675
 20
1021.942138599533
 30
0.0
 11
2566.965577292489
 21
1022.167725867562
 31
0.0
  0
LINE
  5
1D4
330
1F
100
AcDbEntity
  8
Make2D$visible$lines
100
AcDbLine
 10
2566.965577292489
 20
1022.167725867562
 30
0.0
 11
2567.343830753756
 21
1022.380313259315
 31
0.0
  0
LINE
  5
1D5
330
1F
100
AcDbEntity
  8
Make2D$visible$lines
100
AcDbLine
 10
2567.343830753756
 20
1022.380313259315
 30
0.0
 11
2567.729234551516
 21
1022.579644623543
 31
0.0
  0
LINE
  5
1D6
330
1F
100
AcDbEntity
  8
Make2D$visible$lines
100
AcDbLine
 10
2567.729234551516
 20
1022.579644623543
 30
0.0
 11
2568.121324304211
 21
1022.765479781476
 31
0.0
  0
LINE
  5
1D7
330
1F
100
AcDbEntity
  8
Make2D$visible$lines
100
AcDbLine
 10
2568.121324304211
 20
1022.765479781476
 30
0.0
 11
2568.519627574228
 21
1022.937594816225
 31
0.0
  0
LINE
  5
1D8
330
1F
100
AcDbEntity
  8
Make2D$visible$lines
100
AcDbLine
 10
2568.519627574228
 20
1022.937594816225
 30
0.0
 11
2568.923664437149
 21
1023.095782342577
 31
0.0
  0
LINE
  5
1D9
330
1F
100
AcDbEntity
  8
Make2D$visible$lines
100
AcDbLine
 10
2568.923664437149
 20
1023.095782342577
 30
0.0
 11
2569.332948060024
 21
1023.239851756884
 31
0.0
  0
LINE
  5
1DA
330
1F
100
AcDbEntity
  8
Make2D$visible$lines
100
AcDbLine
 10
2569.332948060024
 20
1023.239851756884
 30
0.0
 11
2569.746985287965
 21
1023.369629466724
 31
0.0
  0
LINE
  5
1DB
330
1F
100
AcDbEntity
  8
Make2D$visible$lines
100
AcDbLine
 10
2569.746985287965
 20
1023.369629466724
 30
0.0
 11
2570.165277238361
 21
1023.484959100064
 31
0.0
  0
LINE
  5
1DC
330
1F
100
AcDbEntity
  8
Make2D$visible$lines
100
AcDbLine
 10
2570.165277238361
 20
1023.484959100064
 30
0.0
 11
2570.587319901992
 21
1023.585701693678
 31
0.0
  0
LINE
  5
1DD
330
1F
100
AcDbEntity
  8
Make2D$visible$lines
100
AcDbLine
 10
2570.587319901992
 20
1023.585701693678
 30
0.0
 11
2571.012604750319
 21
1023.671735860587
 31
0.0
  0
LINE
  5
1DE
330
1F
100
AcDbEntity
  8
Make2D$visible$lines
100
AcDbLine
 10
2571.012604750319
 20
1023.671735860587
 30
0.0
 11
2571.440619348225
 21
1023.742957936323
 31
0.0
  0
LINE
  5
1DF
330
1F
100
AcDbEntity
  8
Make2D$visible$lines
100
AcDbLine
 10
2571.440619348225
 20
1023.742957936323
 30
0.0
 11
2571.870847971456
 21
1023.79928210383
 31
0.0
  0
LINE
  5
1E0
330
1F
100
AcDbEntity
  8
Make2D$visible$lines
100
AcDbLine
 10
2571.870847971456
 20
1023.79928210383
 30
0.0
 11
2572.302772228031
 21
1023.840640496874
 31
0.0
  0
LINE
  5
1E1
330
1F
100
AcDbEntity
  8
Make2D$visible$lines
100
AcDbLine
 10
2572.302772228031
 20
1023.840640496874
 30
0.0
 11
2572.735871682861
 21
1023.866983281812
 31
0.0
  0
LINE
  5
1E2
330
1F
100
AcDbEntity
  8
Make2D$visible$lines
100
AcDbLine
 10
2572.735871682861
 20
1023.866983281812
 30
0.0
 11
2573.169624484837
 21
1023.87827871764
 31
0.0
  0
LINE
  5
1E3
330
1F
100
AcDbEntity
  8
Make2D$visible$lines
100
AcDbLine
 10
2573.169624484837
 20
1023.87827871764
 30
0.0
 11
2573.603507995616
 21
1023.874513194239
 31
0.0
  0
LINE
  5
1E4
330
1F
100
AcDbEntity
  8
Make2D$visible$lines
100
AcDbLine
 10
2573.603507995616
 20
1023.874513194239
 30
0.0
 11
2574.036999419362
 21
1023.85569124877
 31
0.0
  0
LINE
  5
1E5
330
1F
100
AcDbEntity
  8
Make2D$visible$lines
100
AcDbLine
 10
2574.036999419362
 20
1023.85569124877
 30
0.0
 11
2574.469576432673
 21
1023.821835560211
 31
0.0
  0
LINE
  5
1E6
330
1F
100
AcDbEntity
  8
Make2D$visible$lines
100
AcDbLine
 10
2574.469576432673
 20
1023.821835560211
 30
0.0
 11
2574.90071781394
 21
1023.772986922031
 31
0.0
  0
LINE
  5
1E7
330
1F
100
AcDbEntity
  8
Make2D$visible$lines
100
AcDbLine
 10
2574.90071781394
 20
1023.772986922031
 30
0.0
 11
2575.329904071378
 21
1023.709204193034
 31
0.0
  0
LINE
  5
1E8
330
1F
100
AcDbEntity
  8
Make2D$visible$lines
100
AcDbLine
 10
2575.329904071378
 20
1023.709204193034
 30
0.0
 11
2575.756618068977
 21
1023.630564226439
 31
0.0
  0
LINE
  5
1E9
330
1F
100
AcDbEntity
  8
Make2D$visible$lines
100
AcDbLine
 10
2575.756618068977
 20
1023.630564226439
 30
0.0
 11
2576.180345649605
 21
1023.537161777283
 31
0.0
  0
LINE
  5
1EA
330
1F
100
AcDbEntity
  8
Make2D$visible$lines
100
AcDbLine
 10
2576.180345649605
 20
1023.537161777283
 30
0.0
 11
2576.600576254529
 21
1023.429109388242
 31
0.0
  0
LINE
  5
1EB
330
1F
100
AcDbEntity
  8
Make2D$visible$lines
100
AcDbLine
 10
2576.600576254529
 20
1023.429109388242
 30
0.0
 11
2577.016803538601
 21
1023.306537254027
 31
0.0
  0
LINE
  5
1EC
330
1F
100
AcDbEntity
  8
Make2D$visible$lines
100
AcDbLine
 10
2577.016803538601
 20
1023.306537254027
 30
0.0
 11
2577.428525980365
 21
1023.169593064515
 31
0.0
  0
LINE
  5
1ED
330
1F
100
AcDbEntity
  8
Make2D$visible$lines
100
AcDbLine
 10
2577.428525980365
 20
1023.169593064515
 30
0.0
 11
2577.835247486344
 21
1023.018441826787
 31
0.0
  0
LINE
  5
1EE
330
1F
100
AcDbEntity
  8
Make2D$visible$lines
100
AcDbLine
 10
2577.835247486344
 20
1023.018441826787
 30
0.0
 11
2578.236477988802
 21
1022.853265666311
 31
0.0
  0
LINE
  5
1EF
330
1F
100
AcDbEntity
  8
Make2D$visible$lines
100
AcDbLine
 10
2578.236477988802
 20
1022.853265666311
 30
0.0
 11
2578.631734036236
 21
1022.674263607497
 31
0.0
  0
LINE
  5
1F0
330
1F
100
AcDbEntity
  8
Make2D$visible$lines
100
AcDbLine
 10
2578.631734036236
 20
1022.674263607497
 30
0.0
 11
2579.020539375893
 21
1022.481651333883
 31
0.0
  0
LINE
  5
1F1
330
1F
100
AcDbEntity
  8
Make2D$visible$lines
100
AcDbLine
 10
2579.020539375893
 20
1022.481651333883
 30
0.0
 11
2579.402425527622
 21
1022.275660928257
 31
0.0
  0
LINE
  5
1F2
330
1F
100
AcDbEntity
  8
Make2D$visible$lines
100
AcDbLine
 10
2579.402425527622
 20
1022.275660928257
 30
0.0
 11
2579.776932348355
 21
1022.056540593013
 31
0.0
  0
LINE
  5
1F3
330
1F
100
AcDbEntity
  8
Make2D$visible$lines
100
AcDbLine
 10
2579.776932348355
 20
1022.056540593013
 30
0.0
 11
2580.143608586541
 21
1021.824554351089
 31
0.0
  0
LINE
  5
1F4
330
1F
100
AcDbEntity
  8
Make2D$visible$lines
100
AcDbLine
 10
2580.143608586541
 20
1021.824554351089
 30
0.0
 11
2580.502012425874
 21
1021.579981727837
 31
0.0
  0
LINE
  5
1F5
330
1F
100
AcDbEntity
  8
Make2D$visible$lines
100
AcDbLine
 10
2580.502012425874
 20
1021.579981727837
 30
0.0
 11
2580.851712017641
 21
1021.323117414219
 31
0.0
  0
LINE
  5
1F6
330
1F
100
AcDbEntity
  8
Make2D$visible$lines
100
AcDbLine
 10
2580.851712017641
 20
1021.323117414219
 30
0.0
 11
2581.192286001073
 21
1021.054270911727
 31
0.0
  0
LINE
  5
1F7
330
1F
100
AcDbEntity
  8
Make2D$visible$lines
100
AcDbLine
 10
2581.192286001073
 20
1021.054270911727
 30
0.0
 11
2581.523324011045
 21
1020.773766159457
 31
0.0
  0
LINE
  5
1F8
330
1F
100
AcDbEntity
  8
Make2D$visible$lines
100
AcDbLine
 10
2581.523324011045
 20
1020.773766159457
 30
0.0
 11
2581.844427172539
 21
1020.481941143786
 31
0.0
  0
LINE
  5
1F9
330
1F
100
AcDbEntity
  8
Make2D$visible$lines
100
AcDbLine
 10
2581.844427172539
 20
1020.481941143786
 30
0.0
 11
2582.155208581255
 21
1020.17914749113
 31
0.0
  0
LINE
  5
1FA
330
1F
100
AcDbEntity
  8
Make2D$visible$lines
100
AcDbLine
 10
2582.155208581255
 20
1020.17914749113
 30
0.0
 11
2582.455293769803
 21
1019.865750044256
 31
0.0
  0
LINE
  5
1FB
330
1F
100
AcDbEntity
  8
Make2D$visible$lines
100
AcDbLine
 10
2582.455293769803
 20
1019.865750044256
 30
0.0
 11
2582.744321158902
 21
1019.542126422679
 31
0.0
  0
LINE
  5
1FC
330
1F
100
AcDbEntity
  8
Make2D$visible$lines
100
AcDbLine
 10
2582.744321158902
 20
1019.542126422679
 30
0.0
 11
2583.02194249306
 21
1019.208666567654
 31
0.0
  0
LINE
  5
1FD
330
1F
100
AcDbEntity
  8
Make2D$visible$lines
100
AcDbLine
 10
2583.02194249306
 20
1019.208666567654
 30
0.0
 11
2583.287823260193
 21
1018.865772272337
 31
0.0
  0
LINE
  5
1FE
330
1F
100
AcDbEntity
  8
Make2D$visible$lines
100
AcDbLine
 10
2583.287823260193
 20
1018.865772272337
 30
0.0
 11
2583.541643094685
 21
1018.513856697645
 31
0.0
  0
LINE
  5
1FF
330
1F
100
AcDbEntity
  8
Make2D$visible$lines
100
AcDbLine
 10
2583.541643094685
 20
1018.513856697645
 30
0.0
 11
2583.783096163405
 21
1018.153343874435
 31
0.0
  0
LINE
  5
200
330
1F
100
AcDbEntity
  8
Make2D$visible$lines
100
AcDbLine
 10
2583.783096163405
 20
1018.153343874435
 30
0.0
 11
2584.011891534212
 21
1017.784668192582
 31
0.0
  0
LINE
  5
201
330
1F
100
AcDbEntity
  8
Make2D$visible$lines
100
AcDbLine
 10
2584.011891534212
 20
1017.784668192582
 30
0.0
 11
2584.227753526503
 21
1017.408273877566
 31
0.0
  0
LINE
  5
202
330
1F
100
AcDbEntity
  8
Make2D$visible$lines
100
AcDbLine
 10
2584.227753526503
 20
1017.408273877566
 30
0.0
 11
2584.430422043391
 21
1017.02461445522
 31
0.0
  0
LINE
  5
203
330
1F
100
AcDbEntity
  8
Make2D$visible$lines
100
AcDbLine
 10
2584.430422043391
 20
1017.02461445522
 30
0.0
 11
2584.619652885099
 21
1016.634152205266
 31
0.0
  0
LINE
  5
204
330
1F
100
AcDbEntity
  8
Make2D$visible$lines
100
AcDbLine
 10
2584.619652885099
 20
1016.634152205266
 30
0.0
 11
2584.795218043201
 21
1016.237357604303
 31
0.0
  0
LINE
  5
205
330
1F
100
AcDbEntity
  8
Make2D$visible$lines
100
AcDbLine
 10
2584.795218043201
 20
1016.237357604303
 30
0.0
 11
2584.956905975356
 21
1015.83470875892
 31
0.0
  0
LINE
  5
206
330
1F
100
AcDbEntity
  8
Make2D$visible$lines
100
AcDbLine
 10
2584.956905975356
 20
1015.83470875892
 30
0.0
 11
2585.104521860198
 21
1015.426690829614
 31
0.0
  0
LINE
  5
207
330
1F
100
AcDbEntity
  8
Make2D$visible$lines
100
AcDbLine
 10
2585.104521860198
 20
1015.426690829614
 30
0.0
 11
2585.237887832085
 21
1015.013795446212
 31
0.0
  0
LINE
  5
208
330
1F
100
AcDbEntity
  8
Make2D$visible$lines
100
AcDbLine
 10
2585.237887832085
 20
1015.013795446212
 30
0.0
 11
2585.356843195407
 21
1014.596520115489
 31
0.0
  0
LINE
  5
209
330
1F
100
AcDbEntity
  8
Make2D$visible$lines
100
AcDbLine
 10
2585.356843195407
 20
1014.596520115489
 30
0.0
 11
2585.461244618217
 21
1014.17536762172
 31
0.0
  0
LINE
  5
20A
330
1F
100
AcDbEntity
  8
Make2D$visible$lines
100
AcDbLine
 10
2585.461244618217
 20
1014.17536762172
 30
0.0
 11
2585.550966304932
 21
1013.750845420857
 31
0.0
  0
LINE
  5
20B
330
1F
100
AcDbEntity
  8
Make2D$visible$lines
100
AcDbLine
 10
2585.550966304932
 20
1013.750845420857
 30
0.0
 11
2585.625900147907
 21
1013.323465029087
 31
0.0
  0
LINE
  5
20C
330
1F
100
AcDbEntity
  8
Make2D$visible$lines
100
AcDbLine
 10
2585.625900147907
 20
1013.323465029087
 30
0.0
 11
2585.685955857699
 21
1012.893741406495
 31
0.0
  0
LINE
  5
20D
330
1F
100
AcDbEntity
  8
Make2D$visible$lines
100
AcDbLine
 10
2585.685955857699
 20
1012.893741406495
 30
0.0
 11
2585.731061071855
 21
1012.462192336575
 31
0.0
  0
LINE
  5
20E
330
1F
100
AcDbEntity
  8
Make2D$visible$lines
100
AcDbLine
 10
2585.731061071855
 20
1012.462192336575
 30
0.0
 11
2585.761161442103
 21
1012.029337802345
 31
0.0
  0
LINE
  5
20F
330
1F
100
AcDbEntity
  8
Make2D$visible$lines
100
AcDbLine
 10
2585.761161442103
 20
1012.029337802345
 30
0.0
 11
2585.776220699844
 21
1011.595699359805
 31
0.0
  0
LINE
  5
210
330
1F
100
AcDbEntity
  8
Make2D$visible$lines
100
AcDbLine
 10
2585.776220699844
 20
1011.595699359805
 30
0.0
 11
2585.776220699844
 21
1011.161799509502
 31
0.0
  0
LINE
  5
211
330
1F
100
AcDbEntity
  8
Make2D$visible$lines
100
AcDbLine
 10
2585.776220699844
 20
1011.161799509502
 30
0.0
 11
2585.761161442103
 21
1010.728161066962
 31
0.0
  0
LINE
  5
212
330
1F
100
AcDbEntity
  8
Make2D$visible$lines
100
AcDbLine
 10
2585.761161442103
 20
1010.728161066962
 30
0.0
 11
2585.731061071855
 21
1010.295306532732
 31
0.0
  0
LINE
  5
213
330
1F
100
AcDbEntity
  8
Make2D$visible$lines
100
AcDbLine
 10
2585.731061071855
 20
1010.295306532732
 30
0.0
 11
2585.685955857699
 21
1009.863757462812
 31
0.0
  0
LINE
  5
214
330
1F
100
AcDbEntity
  8
Make2D$visible$lines
100
AcDbLine
 10
2585.685955857699
 20
1009.863757462812
 30
0.0
 11
2585.625900147907
 21
1009.434033840219
 31
0.0
  0
LINE
  5
215
330
1F
100
AcDbEntity
  8
Make2D$visible$lines
100
AcDbLine
 10
2585.625900147907
 20
1009.434033840219
 30
0.0
 11
2585.550966304932
 21
1009.006653448449
 31
0.0
  0
LINE
  5
216
330
1F
100
AcDbEntity
  8
Make2D$visible$lines
100
AcDbLine
 10
2585.550966304932
 20
1009.006653448449
 30
0.0
 11
2585.461244618217
 21
1008.582131247586
 31
0.0
  0
LINE
  5
217
330
1F
100
AcDbEntity
  8
Make2D$visible$lines
100
AcDbLine
 10
2585.461244618217
 20
1008.582131247586
 30
0.0
 11
2585.356843195407
 21
1008.160978753817
 31
0.0
  0
LINE
  5
218
330
1F
100
AcDbEntity
  8
Make2D$visible$lines
100
AcDbLine
 10
2585.356843195407
 20
1008.160978753817
 30
0.0
 11
2585.237887832085
 21
1007.743703423095
 31
0.0
  0
LINE
  5
219
330
1F
100
AcDbEntity
  8
Make2D$visible$lines
100
AcDbLine
 10
2585.237887832085
 20
1007.743703423095
 30
0.0
 11
2585.104521860198
 21
1007.330808039692
 31
0.0
  0
LINE
  5
21A
330
1F
100
AcDbEntity
  8
Make2D$visible$lines
100
AcDbLine
 10
2585.104521860198
 20
1007.330808039692
 30
0.0
 11
2584.956905975356
 21
1006.922790110387
 31
0.0
  0
LINE
  5
21B
330
1F
100
AcDbEntity
  8
Make2D$visible$lines
100
AcDbLine
 10
2584.956905975356
 20
1006.922790110387
 30
0.0
 11
2584.795218043201
 21
1006.520141265004
 31
0.0
  0
LINE
  5
21C
330
1F
100
AcDbEntity
  8
Make2D$visible$lines
100
AcDbLine
 10
2584.795218043201
 20
1006.520141265004
 30
0.0
 11
2584.619652885099
 21
1006.123346664041
 31
0.0
  0
LINE
  5
21D
330
1F
100
AcDbEntity
  8
Make2D$visible$lines
100
AcDbLine
 10
2584.619652885099
 20
1006.123346664041
 30
0.0
 11
2584.430422043391
 21
1005.732884414087
 31
0.0
  0
LINE
  5
21E
330
1F
100
AcDbEntity
  8
Make2D$visible$lines
100
AcDbLine
 10
2584.430422043391
 20
1005.732884414087
 30
0.0
 11
2584.227753526503
 21
1005.349224991741
 31
0.0
  0
LINE
  5
21F
330
1F
100
AcDbEntity
  8
Make2D$visible$lines
100
AcDbLine
 10
2584.227753526503
 20
1005.349224991741
 30
0.0
 11
2584.011891534211
 21
1004.972830676725
 31
0.0
  0
LINE
  5
220
330
1F
100
AcDbEntity
  8
Make2D$visible$lines
100
AcDbLine
 10
2584.011891534211
 20
1004.972830676725
 30
0.0
 11
2583.783096163404
 21
1004.604154994871
 31
0.0
  0
LINE
  5
221
330
1F
100
AcDbEntity
  8
Make2D$visible$lines
100
AcDbLine
 10
2583.783096163404
 20
1004.604154994871
 30
0.0
 11
2583.541643094684
 21
1004.243642171662
 31
0.0
  0
LINE
  5
222
330
1F
100
AcDbEntity
  8
Make2D$visible$lines
100
AcDbLine
 10
2583.541643094684
 20
1004.243642171662
 30
0.0
 11
2583.287823260192
 21
1003.89172659697
 31
0.0
  0
LINE
  5
223
330
1F
100
AcDbEntity
  8
Make2D$visible$lines
100
AcDbLine
 10
2583.287823260192
 20
1003.89172659697
 30
0.0
 11
2583.021942493059
 21
1003.548832301653
 31
0.0
  0
LINE
  5
224
330
1F
100
AcDbEntity
  8
Make2D$visible$lines
100
AcDbLine
 10
2583.021942493059
 20
1003.548832301653
 30
0.0
 11
2582.744321158901
 21
1003.215372446628
 31
0.0
  0
LINE
  5
225
330
1F
100
AcDbEntity
  8
Make2D$visible$lines
100
AcDbLine
 10
2582.744321158901
 20
1003.215372446628
 30
0.0
 11
2582.455293769802
 21
1002.89174882505
 31
0.0
  0
LINE
  5
226
330
1F
100
AcDbEntity
  8
Make2D$visible$lines
100
AcDbLine
 10
2582.455293769802
 20
1002.89174882505
 30
0.0
 11
2582.155208581255
 21
1002.578351378177
 31
0.0
  0
LINE
  5
227
330
1F
100
AcDbEntity
  8
Make2D$visible$lines
100
AcDbLine
 10
2582.155208581255
 20
1002.578351378177
 30
0.0
 11
2581.844427172538
 21
1002.275557725521
 31
0.0
  0
LINE
  5
228
330
1F
100
AcDbEntity
  8
Make2D$visible$lines
100
AcDbLine
 10
2581.844427172538
 20
1002.275557725521
 30
0.0
 11
2581.523324011044
 21
1001.98373270985
 31
0.0
  0
LINE
  5
229
330
1F
100
AcDbEntity
  8
Make2D$visible$lines
100
AcDbLine
 10
2581.523324011044
 20
1001.98373270985
 30
0.0
 11
2581.192286001072
 21
1001.70322795758
 31
0.0
  0
LINE
  5
22A
330
1F
100
AcDbEntity
  8
Make2D$visible$lines
100
AcDbLine
 10
2581.192286001072
 20
1001.70322795758
 30
0.0
 11
2580.85171201764
 21
1001.434381455088
 31
0.0
  0
LINE
  5
22B
330
1F
100
AcDbEntity
  8
Make2D$visible$lines
100
AcDbLine
 10
2580.85171201764
 20
1001.434381455088
 30
0.0
 11
2580.502012425873
 21
1001.17751714147
 31
0.0
  0
LINE
  5
22C
330
1F
100
AcDbEntity
  8
Make2D$visible$lines
100
AcDbLine
 10
2580.502012425873
 20
1001.17751714147
 30
0.0
 11
2580.14360858654
 21
1000.932944518218
 31
0.0
  0
LINE
  5
22D
330
1F
100
AcDbEntity
  8
Make2D$visible$lines
100
AcDbLine
 10
2580.14360858654
 20
1000.932944518218
 30
0.0
 11
2579.776932348354
 21
1000.700958276294
 31
0.0
  0
LINE
  5
22E
330
1F
100
AcDbEntity
  8
Make2D$visible$lines
100
AcDbLine
 10
2579.776932348354
 20
1000.700958276294
 30
0.0
 11
2579.402425527621
 21
1000.48183794105
 31
0.0
  0
LINE
  5
22F
330
1F
100
AcDbEntity
  8
Make2D$visible$lines
100
AcDbLine
 10
2579.402425527621
 20
1000.48183794105
 30
0.0
 11
2579.020539375892
 21
1000.275847535424
 31
0.0
  0
LINE
  5
230
330
1F
100
AcDbEntity
  8
Make2D$visible$lines
100
AcDbLine
 10
2579.020539375892
 20
1000.275847535424
 30
0.0
 11
2578.631734036235
 21
1000.08323526181
 31
0.0
  0
LINE
  5
231
330
1F
100
AcDbEntity
  8
Make2D$visible$lines
100
AcDbLine
 10
2578.631734036235
 20
1000.08323526181
 30
0.0
 11
2578.236477988801
 21
999.9042332029957
 31
0.0
  0
LINE
  5
232
330
1F
100
AcDbEntity
  8
Make2D$visible$lines
100
AcDbLine
 10
2578.236477988801
 20
999.9042332029957
 30
0.0
 11
2577.835247486343
 21
999.7390570425207
 31
0.0
  0
LINE
  5
233
330
1F
100
AcDbEntity
  8
Make2D$visible$lines
100
AcDbLine
 10
2577.835247486343
 20
999.7390570425207
 30
0.0
 11
2577.428525980364
 21
999.5879058047925
 31
0.0
  0
LINE
  5
234
330
1F
100
AcDbEntity
  8
Make2D$visible$lines
100
AcDbLine
 10
2577.428525980364
 20
999.5879058047925
 30
0.0
 11
2577.0168035386
 21
999.4509616152801
 31
0.0
  0
LINE
  5
235
330
1F
100
AcDbEntity
  8
Make2D$visible$lines
100
AcDbLine
 10
2577.0168035386
 20
999.4509616152801
 30
0.0
 11
2576.600576254528
 21
999.3283894810656
 31
0.0
  0
LINE
  5
236
330
1F
100
AcDbEntity
  8
Make2D$visible$lines
100
AcDbLine
 10
2576.600576254528
 20
999.3283894810656
 30
0.0
 11
2576.180345649604
 21
999.2203370920239
 31
0.0
  0
LINE
  5
237
330
1F
100
AcDbEntity
  8
Make2D$visible$lines
100
AcDbLine
 10
2576.180345649604
 20
999.2203370920239
 30
0.0
 11
2575.756618068976
 21
999.1269346428678
 31
0.0
  0
LINE
  5
238
330
1F
100
AcDbEntity
  8
Make2D$visible$lines
100
AcDbLine
 10
2575.756618068976
 20
999.1269346428678
 30
0.0
 11
2575.329904071377
 21
999.0482946762737
 31
0.0
  0
LINE
  5
239
330
1F
100
AcDbEntity
  8
Make2D$visible$lines
100
AcDbLine
 10
2575.329904071377
 20
999.0482946762737
 30
0.0
 11
2574.900717813939
 21
998.9845119472764
 31
0.0
  0
LINE
  5
23A
330
1F
100
AcDbEntity
  8
Make2D$visible$lines
100
AcDbLine
 10
2574.900717813939
 20
998.9845119472764
 30
0.0
 11
2574.469576432672
 21
998.9356633090963
 31
0.0
  0
LINE
  5
23B
330
1F
100
AcDbEntity
  8
Make2D$visible$lines
100
AcDbLine
 10
2574.469576432672
 20
998.9356633090963
 30
0.0
 11
2574.036999419362
 21
998.9018076205377
 31
0.0
  0
LINE
  5
23C
330
1F
100
AcDbEntity
  8
Make2D$visible$lines
100
AcDbLine
 10
2574.036999419362
 20
998.9018076205377
 30
0.0
 11
2573.603507995615
 21
998.8829856750687
 31
0.0
  0
LINE
  5
23D
330
1F
100
AcDbEntity
  8
Make2D$visible$lines
100
AcDbLine
 10
2573.603507995615
 20
998.8829856750687
 30
0.0
 11
2573.169624484836
 21
998.8792201516671
 31
0.0
  0
LINE
  5
23E
330
1F
100
AcDbEntity
  8
Make2D$visible$lines
100
AcDbLine
 10
2573.169624484836
 20
998.8792201516671
 30
0.0
 11
2572.73587168286
 21
998.8905155874957
 31
0.0
  0
LINE
  5
23F
330
1F
100
AcDbEntity
  8
Make2D$visible$lines
100
AcDbLine
 10
2572.73587168286
 20
998.8905155874957
 30
0.0
 11
2572.30277222803
 21
998.9168583724338
 31
0.0
  0
LINE
  5
240
330
1F
100
AcDbEntity
  8
Make2D$visible$lines
100
AcDbLine
 10
2572.30277222803
 20
998.9168583724338
 30
0.0
 11
2571.870847971456
 21
998.9582167654776
 31
0.0
  0
LINE
  5
241
330
1F
100
AcDbEntity
  8
Make2D$visible$lines
100
AcDbLine
 10
2571.870847971456
 20
998.9582167654776
 30
0.0
 11
2571.440619348225
 21
999.0145409329848
 31
0.0
  0
LINE
  5
242
330
1F
100
AcDbEntity
  8
Make2D$visible$lines
100
AcDbLine
 10
2571.440619348225
 20
999.0145409329848
 30
0.0
 11
2571.012604750319
 21
999.0857630087203
 31
0.0
  0
LINE
  5
243
330
1F
100
AcDbEntity
  8
Make2D$visible$lines
100
AcDbLine
 10
2571.012604750319
 20
999.0857630087203
 30
0.0
 11
2570.587319901991
 21
999.1717971756301
 31
0.0
  0
LINE
  5
244
330
1F
100
AcDbEntity
  8
Make2D$visible$lines
100
AcDbLine
 10
2570.587319901991
 20
999.1717971756301
 30
0.0
 11
2570.16527723836
 21
999.2725397692442
 31
0.0
  0
LINE
  5
245
330
1F
100
AcDbEntity
  8
Make2D$visible$lines
100
AcDbLine
 10
2570.16527723836
 20
999.2725397692442
 30
0.0
 11
2569.746985287964
 21
999.3878694025838
 31
0.0
  0
LINE
  5
246
330
1F
100
AcDbEntity
  8
Make2D$visible$lines
100
AcDbLine
 10
2569.746985287964
 20
999.3878694025838
 30
0.0
 11
2569.332948060023
 21
999.5176471124236
 31
0.0
  0
LINE
  5
247
330
1F
100
AcDbEntity
  8
Make2D$visible$lines
100
AcDbLine
 10
2569.332948060023
 20
999.5176471124236
 30
0.0
 11
2568.923664437148
 21
999.661716526731
 31
0.0
  0
LINE
  5
248
330
1F
100
AcDbEntity
  8
Make2D$visible$lines
100
AcDbLine
 10
2568.923664437148
 20
999.661716526731
 30
0.0
 11
2568.519627574227
 21
999.8199040530833
 31
0.0
  0
LINE
  5
249
330
1F
100
AcDbEntity
  8
Make2D$visible$lines
100
AcDbLine
 10
2568.519627574227
 20
999.8199040530833
 30
0.0
 11
2568.12132430421
 21
999.9920190878319
 31
0.0
  0
LINE
  5
24A
330
1F
100
AcDbEntity
  8
Make2D$visible$lines
100
AcDbLine
 10
2568.12132430421
 20
999.9920190878319
 30
0.0
 11
2567.729234551515
 21
1000.177854245765
 31
0.0
  0
LINE
  5
24B
330
1F
100
AcDbEntity
  8
Make2D$visible$lines
100
AcDbLine
 10
2567.729234551515
 20
1000.177854245765
 30
0.0
 11
2567.343830753755
 21
1000.377185609993
 31
0.0
  0
LINE
  5
24C
330
1F
100
AcDbEntity
  8
Make2D$visible$lines
100
AcDbLine
 10
2567.343830753755
 20
1000.377185609993
 30
0.0
 11
2566.965577292488
 21
1000.589773001746
 31
0.0
  0
LINE
  5
24D
330
1F
100
AcDbEntity
  8
Make2D$visible$lines
100
AcDbLine
 10
2566.965577292488
 20
1000.589773001746
 30
0.0
 11
2566.594929933674
 21
1000.815360269775
 31
0.0
  0
LINE
  5
24E
330
1F
100
AcDbEntity
  8
Make2D$visible$lines
100
AcDbLine
 10
2566.594929933674
 20
1000.815360269775
 30
0.0
 11
2566.232335278512
 21
1001.053675598993
 31
0.0
  0
LINE
  5
24F
330
1F
100
AcDbEntity
  8
Make2D$visible$lines
100
AcDbLine
 10
2566.232335278512
 20
1001.053675598993
 30
0.0
 11
2565.878230225319
 21
1001.304431837989
 31
0.0
  0
LINE
  5
250
330
1F
100
AcDbEntity
  8
Make2D$visible$lines
100
AcDbLine
 10
2565.878230225319
 20
1001.304431837989
 30
0.0
 11
2565.533041443104
 21
1001.567326845027
 31
0.0
  0
LINE
  5
251
330
1F
100
AcDbEntity
  8
Make2D$visible$lines
100
AcDbLine
 10
2565.533041443104
 20
1001.567326845027
 30
0.0
 11
2565.197184857464
 21
1001.8420438521
 31
0.0
  0
LINE
  5
252
330
1F
100
AcDbEntity
  8
Make2D$visible$lines
100
AcDbLine
 10
2565.197184857464
 20
1001.8420438521
 30
0.0
 11
2564.871065149425
 21
1002.12825184661
 31
0.0
  0
LINE
  5
253
330
1F
100
AcDbEntity
  8
Make2D$visible$lines
100
AcDbLine
 10
2564.871065149425
 20
1002.12825184661
 30
0.0
 11
2564.555075267835
 21
1002.425605970216
 31
0.0
  0
LINE
  5
254
330
1F
100
AcDbEntity
  8
Make2D$visible$lines
100
AcDbLine
 10
2564.555075267835
 20
1002.425605970216
 30
0.0
 11
2564.249595955891
 21
1002.73374793436
 31
0.0
  0
LINE
  5
255
330
1F
100
AcDbEntity
  8
Make2D$visible$lines
100
AcDbLine
 10
2564.249595955891
 20
1002.73374793436
 30
0.0
 11
2563.954995292369
 21
1003.052306451975
 31
0.0
  0
LINE
  5
256
330
1F
100
AcDbEntity
  8
Make2D$visible$lines
100
AcDbLine
 10
2563.954995292369
 20
1003.052306451975
 30
0.0
 11
2563.671628248124
 21
1003.380897684859
 31
0.0
  0
LINE
  5
257
330
1F
100
AcDbEntity
  8
Make2D$visible$lines
100
AcDbLine
 10
2563.671628248124
 20
1003.380897684859
 30
0.0
 11
2563.399836258372
 21
1003.719125706169
 31
0.0
  0
LINE
  5
258
330
1F
100
AcDbEntity
  8
Make2D$visible$lines
100
AcDbLine
 10
2563.399836258372
 20
1003.719125706169
 30
0.0
 11
2563.139946811294
 21
1004.066582977484
 31
0.0
  0
LINE
  5
259
330
1F
100
AcDbEntity
  8
Make2D$visible$lines
100
AcDbLine
 10
2563.139946811294
 20
1004.066582977484
 30
0.0
 11
2562.89227305343
 21
1004.422850839855
 31
0.0
  0
LINE
  5
25A
330
1F
100
AcDbEntity
  8
Make2D$visible$lines
100
AcDbLine
 10
2562.89227305343
 20
1004.422850839855
 30
0.0
 11
2562.657113412367
 21
1004.787500018255
 31
0.0
  0
LINE
  5
25B
330
1F
100
AcDbEntity
  8
Make2D$visible$lines
100
AcDbLine
 10
2562.657113412367
 20
1004.787500018255
 30
0.0
 11
2562.434751237158
 21
1005.160091138826
 31
0.0
  0
LINE
  5
25C
330
1F
100
AcDbEntity
  8
Make2D$visible$lines
100
AcDbLine
 10
2562.434751237158
 20
1005.160091138826
 30
0.0
 11
2562.225454456904
 21
1005.54017525829
 31
0.0
  0
LINE
  5
25D
330
1F
100
AcDbEntity
  8
Make2D$visible$lines
100
AcDbLine
 10
2562.225454456904
 20
1005.54017525829
 30
0.0
 11
2562.029475257924
 21
1005.927294404883
 31
0.0
  0
LINE
  5
25E
330
1F
100
AcDbEntity
  8
Make2D$visible$lines
100
AcDbLine
 10
2562.029475257924
 20
1005.927294404883
 30
0.0
 11
2561.847049779888
 21
1006.320982130189
 31
0.0
  0
LINE
  5
25F
330
1F
100
AcDbEntity
  8
Make2D$visible$lines
100
AcDbLine
 10
2561.847049779888
 20
1006.320982130189
 30
0.0
 11
2561.678397831289
 21
1006.720764071159
 31
0.0
  0
LINE
  5
260
330
1F
100
AcDbEntity
  8
Make2D$visible$lines
100
AcDbLine
 10
2561.678397831289
 20
1006.720764071159
 30
0.0
 11
2561.523722624589
 21
1007.126158521695
 31
0.0
  0
LINE
  5
261
330
1F
100
AcDbEntity
  8
Make2D$visible$lines
100
AcDbLine
 10
2561.523722624589
 20
1007.126158521695
 30
0.0
 11
2561.383210531364
 21
1007.536677013057
 31
0.0
  0
LINE
  5
262
330
1F
100
AcDbEntity
  8
Make2D$visible$lines
100
AcDbLine
 10
2561.383210531364
 20
1007.536677013057
 30
0.0
 11
2561.257030857743
 21
1007.951824902438
 31
0.0
  0
LINE
  5
263
330
1F
100
AcDbEntity
  8
Make2D$visible$lines
100
AcDbLine
 10
2561.257030857743
 20
1007.951824902438
 30
0.0
 11
2561.145335640405
 21
1008.371101968966
 31
0.0
  0
LINE
  5
264
330
1F
100
AcDbEntity
  8
Make2D$visible$lines
100
AcDbLine
 10
2561.145335640405
 20
1008.371101968966
 30
0.0
 11
2561.048259463388
 21
1008.794003016432
 31
0.0
  0
LINE
  5
265
330
1F
100
AcDbEntity
  8
Make2D$visible$lines
100
AcDbLine
 10
2561.048259463388
 20
1008.794003016432
 30
0.0
 11
2560.965919295923
 21
1009.220018482014
 31
0.0
  0
LINE
  5
266
330
1F
100
AcDbEntity
  8
Make2D$visible$lines
100
AcDbLine
 10
2560.965919295923
 20
1009.220018482014
 30
0.0
 11
2560.898414351498
 21
1009.648635050255
 31
0.0
  0
LINE
  5
267
330
1F
100
AcDbEntity
  8
Make2D$visible$lines
100
AcDbLine
 10
2560.898414351498
 20
1009.648635050255
 30
0.0
 11
2560.845825968315
 21
1010.079336271575
 31
0.0
  0
LINE
  5
268
330
1F
100
AcDbEntity
  8
Make2D$visible$lines
100
AcDbLine
 10
2560.845825968315
 20
1010.079336271575
 30
0.0
 11
2560.808217511278
 21
1010.511603184549
 31
0.0
  0
LINE
  5
269
330
1F
100
AcDbEntity
  8
Make2D$visible$lines
100
AcDbLine
 10
2560.808217511278
 20
1010.511603184549
 30
0.0
 11
2560.78563429565
 21
1010.944914941214
 31
0.0
  0
LINE
  5
26A
330
1F
100
AcDbEntity
  8
Make2D$visible$lines
100
AcDbLine
 10
2560.78563429565
 20
1010.944914941214
 30
0.0
 11
2560.778103532446
 21
1011.378749434654
 31
0.0
  0
LINE
  5
26B
330
1F
100
AcDbEntity
  8
Make2D$visible$lines
100
AcDbLine
 10
2683.278103532446
 20
1157.378749434727
 30
0.0
 11
2683.278103532446
 21
1181.378749434727
 31
0.0
  0
LINE
  5
26C
330
1F
100
AcDbEntity
  8
Make2D$visible$lines
100
AcDbLine
 10
2683.278103532446
 20
1181.378749434727
 30
0.0
 11
2633.278103532446
 21
1181.378749434727
 31
0.0
  0
LINE
  5
26D
330
1F
100
AcDbEntity
  8
Make2D$visible$lines
100
AcDbLine
 10
2633.278103532446
 20
1181.378749434727
 30
0.0
 11
2633.278103532446
 21
1169.378749434727
 31
0.0
  0
LINE
  5
26E
330
1F
100
AcDbEntity
  8
Make2D$visible$lines
100
AcDbLine
 10
2633.278103532446
 20
1169.378749434727
 30
0.0
 11
2583.278103532446
 21
1169.378749434726
 31
0.0
  0
LINE
  5
26F
330
1F
100
AcDbEntity
  8
Make2D$visible$lines
100
AcDbLine
 10
2583.278103532446
 20
1169.378749434726
 30
0.0
 11
2583.278103532446
 21
1181.378749434726
 31
0.0
  0
LINE
  5
270
330
1F
100
AcDbEntity
  8
Make2D$visible$lines
100
AcDbLine
 10
2583.278103532446
 20
1181.378749434726
 30
0.0
 11
2533.278103532446
 21
1181.378749434726
 31
0.0
  0
LINE
  5
271
330
1F
100
AcDbEntity
  8
Make2D$visible$lines
100
AcDbLine
 10
2533.278103532446
 20
1181.378749434726
 30
0.0
 11
2533.278103532446
 21
1169.378749434726
 31
0.0
  0
LINE
  5
272
330
1F
100
AcDbEntity
  8
Make2D$visible$lines
100
AcDbLine
 10
2533.278103532446
 20
1169.378749434726
 30
0.0
 11
2483.278103532446
 21
1169.378749434726
 31
0.0
  0
LINE
  5
273
330
1F
100
AcDbEntity
  8
Make2D$visible$lines
100
AcDbLine
 10
2483.278103532446
 20
1169.378749434726
 30
0.0
 11
2483.278103532446
 21
1181.378749434726
 31
0.0
  0
LINE
  5
274
330
1F
100
AcDbEntity
  8
Make2D$visible$lines
100
AcDbLine
 10
2483.278103532446
 20
1181.378749434726
 30
0.0
 11
2433.278103532446
 21
1181.378749434726
 31
0.0
  0
LINE
  5
275
330
1F
100
AcDbEntity
  8
Make2D$visible$lines
100
AcDbLine
 10
2433.278103532446
 20
1181.378749434726
 30
0.0
 11
2433.278103532446
 21
1169.378749434726
 31
0.0
  0
LINE
  5
276
330
1F
100
AcDbEntity
  8
Make2D$visible$lines
100
AcDbLine
 10
2433.278103532446
 20
1169.378749434726
 30
0.0
 11
2383.278103532446
 21
1169.378749434725
 31
0.0
  0
LINE
  5
277
330
1F
100
AcDbEntity
  8
Make2D$visible$lines
100
AcDbLine
 10
2383.278103532446
 20
1169.378749434725
 30
0.0
 11
2383.278103532446
 21
1181.378749434725
 31
0.0
  0
LINE
  5
278
330
1F
100
AcDbEntity
  8
Make2D$visible$lines
100
AcDbLine
 10
2383.278103532446
 20
1181.378749434725
 30
0.0
 11
2333.278103532446
 21
1181.378749434725
 31
0.0
  0
LINE
  5
279
330
1F
100
AcDbEntity
  8
Make2D$visible$lines
100
AcDbLine
 10
2333.278103532446
 20
1181.378749434725
 30
0.0
 11
2333.278103532446
 21
881.3787494347251
 31
0.0
  0
LINE
  5
27A
330
1F
100
AcDbEntity
  8
Make2D$visible$lines
100
AcDbLine
 10
2333.278103532446
 20
881.3787494347251
 30
0.0
 11
2383.278103532446
 21
881.3787494347251
 31
0.0
  0
LINE
  5
27B
330
1F
100
AcDbEntity
  8
Make2D$visible$lines
100
AcDbLine
 10
2383.278103532446
 20
881.3787494347251
 30
0.0
 11
2383.278103532446
 21
893.3787494347251
 31
0.0
  0
LINE
  5
27C
330
1F
100
AcDbEntity
  8
Make2D$visible$lines
100
AcDbLine
 10
2383.278103532446
 20
893.3787494347251
 30
0.0
 11
2433.278103532446
 21
893.378749434726
 31
0.0
  0
LINE
  5
27D
330
1F
100
AcDbEntity
  8
Make2D$visible$lines
100
AcDbLine
 10
2433.278103532446
 20
893.378749434726
 30
0.0
 11
2433.278103532446
 21
881.378749434726
 31
0.0
  0
LINE
  5
27E
330
1F
100
AcDbEntity
  8
Make2D$visible$lines
100
AcDbLine
 10
2433.278103532446
 20
881.378749434726
 30
0.0
 11
2483.278103532446
 21
881.378749434726
 31
0.0
  0
LINE
  5
27F
330
1F
100
AcDbEntity
  8
Make2D$visible$lines
100
AcDbLine
 10
2483.278103532446
 20
881.378749434726
 30
0.0
 11
2483.278103532446
 21
893.378749434726
 31
0.0
  0
LINE
  5
280
330
1F
100
AcDbEntity
  8
Make2D$visible$lines
100
AcDbLine
 10
2483.278103532446
 20
893.378749434726
 30
0.0
 11
2533.278103532446
 21
893.378749434726
 31
0.0
  0
LINE
  5
281
330
1F
100
AcDbEntity
  8
Make2D$visible$lines
100
AcDbLine
 10
2533.278103532446
 20
893.378749434726
 30
0.0
 11
2533.278103532447
 21
881.378749434726
 31
0.0
  0
LINE
  5
282
330
1F
100
AcDbEntity
  8
Make2D$visible$lines
100
AcDbLine
 10
2533.278103532447
 20
881.378749434726
 30
0.0
 11
2583.278103532446
 21
881.378749434726
 31
0.0
  0
LINE
  5
283
330
1F
100
AcDbEntity
  8
Make2D$visible$lines
100
AcDbLine
 10
2583.278103532446
 20
881.378749434726
 30
0.0
 11
2583.278103532447
 21
893.378749434726
 31
0.0
  0
LINE
  5
284
330
1F
100
AcDbEntity
  8
Make2D$visible$lines
100
AcDbLine
 10
2583.278103532447
 20
893.378749434726
 30
0.0
 11
2645.278103532446
 21
893.3787494347265
 31
0.0
  0
LINE
  5
285
330
1F
100
AcDbEntity
  8
Make2D$visible$lines
100
AcDbLine
 10
2645.278103532446
 20
893.3787494347265
 30
0.0
 11
2645.278103532446
 21
1119.378749434727
 31
0.0
  0
LINE
  5
286
330
1F
100
AcDbEntity
  8
Make2D$visible$lines
100
AcDbLine
 10
2645.278103532446
 20
1119.378749434727
 30
0.0
 11
2645.300256682532
 21
1120.676111621793
 31
0.0
  0
LINE
  5
287
330
1F
100
AcDbEntity
  8
Make2D$visible$lines
100
AcDbLine
 10
2645.300256682532
 20
1120.676111621793
 30
0.0
 11
2645.366690303205
 21
1121.971961142584
 31
0.0
  0
LINE
  5
288
330
1F
100
AcDbEntity
  8
Make2D$visible$lines
100
AcDbLine
 10
2645.366690303205
 20
1121.971961142584
 30
0.0
 11
2645.477326935838
 21
1123.264787094524
 31
0.0
  0
LINE
  5
289
330
1F
100
AcDbEntity
  8
Make2D$visible$lines
100
AcDbLine
 10
2645.477326935838
 20
1123.264787094524
 30
0.0
 11
2645.632037583066
 21
1124.553082100384
 31
0.0
  0
LINE
  5
28A
330
1F
100
AcDbEntity
  8
Make2D$visible$lines
100
AcDbLine
 10
2645.632037583066
 20
1124.553082100384
 30
0.0
 11
2645.830641859192
 21
1125.835344065816
 31
0.0
  0
LINE
  5
28B
330
1F
100
AcDbEntity
  8
Make2D$visible$lines
100
AcDbLine
 10
2645.830641859192
 20
1125.835344065816
 30
0.0
 11
2646.072908200518
 21
1127.110077930727
 31
0.0
  0
LINE
  5
28C
330
1F
100
AcDbEntity
  8
Make2D$visible$lines
100
AcDbLine
 10
2646.072908200518
 20
1127.110077930727
 30
0.0
 11
2646.358554135324
 21
1128.375797412451
 31
0.0
  0
LINE
  5
28D
330
1F
100
AcDbEntity
  8
Make2D$visible$lines
100
AcDbLine
 10
2646.358554135324
 20
1128.375797412451
 30
0.0
 11
2646.687246613229
 21
1129.631026738693
 31
0.0
  0
LINE
  5
28E
330
1F
100
AcDbEntity
  8
Make2D$visible$lines
100
AcDbLine
 10
2646.687246613229
 20
1129.631026738693
 30
0.0
 11
2647.058602393508
 21
1130.874302368208
 31
0.0
  0
LINE
  5
28F
330
1F
100
AcDbEntity
  8
Make2D$visible$lines
100
AcDbLine
 10
2647.058602393508
 20
1130.874302368208
 30
0.0
 11
2647.47218849193
 21
1132.104174697224
 31
0.0
  0
LINE
  5
290
330
1F
100
AcDbEntity
  8
Make2D$visible$lines
100
AcDbLine
 10
2647.47218849193
 20
1132.104174697224
 30
0.0
 11
2647.927522685608
 21
1133.319209749623
 31
0.0
  0
LINE
  5
291
330
1F
100
AcDbEntity
  8
Make2D$visible$lines
100
AcDbLine
 10
2647.927522685608
 20
1133.319209749623
 30
0.0
 11
2648.424074075238
 21
1134.517990848884
 31
0.0
  0
LINE
  5
292
330
1F
100
AcDbEntity
  8
Make2D$visible$lines
100
AcDbLine
 10
2648.424074075238
 20
1134.517990848884
 30
0.0
 11
2648.961263704113
 21
1135.69912026987
 31
0.0
  0
LINE
  5
293
330
1F
100
AcDbEntity
  8
Make2D$visible$lines
100
AcDbLine
 10
2648.961263704113
 20
1135.69912026987
 30
0.0
 11
2649.538465233155
 21
1136.86122086851
 31
0.0
  0
LINE
  5
294
330
1F
100
AcDbEntity
  8
Make2D$visible$lines
100
AcDbLine
 10
2649.538465233155
 20
1136.86122086851
 30
0.0
 11
2650.155005671201
 21
1138.002937687491
 31
0.0
  0
LINE
  5
295
330
1F
100
AcDbEntity
  8
Make2D$visible$lines
100
AcDbLine
 10
2650.155005671201
 20
1138.002937687491
 30
0.0
 11
2650.810166159679
 21
1139.122939536073
 31
0.0
  0
LINE
  5
296
330
1F
100
AcDbEntity
  8
Make2D$visible$lines
100
AcDbLine
 10
2650.810166159679
 20
1139.122939536073
 30
0.0
 11
2651.503182810767
 21
1140.2199205422
 31
0.0
  0
LINE
  5
297
330
1F
100
AcDbEntity
  8
Make2D$visible$lines
100
AcDbLine
 10
2651.503182810767
 20
1140.2199205422
 30
0.0
 11
2652.233247598049
 21
1141.292601675092
 31
0.0
  0
LINE
  5
298
330
1F
100
AcDbEntity
  8
Make2D$visible$lines
100
AcDbLine
 10
2652.233247598049
 20
1141.292601675092
 30
0.0
 11
2652.999509298641
 21
1142.339732236528
 31
0.0
  0
LINE
  5
299
330
1F
100
AcDbEntity
  8
Make2D$visible$lines
100
AcDbLine
 10
2652.999509298641
 20
1142.339732236528
 30
0.0
 11
2653.801074485678
 21
1143.360091319117
 31
0.0
  0
LINE
  5
29A
330
1F
100
AcDbEntity
  8
Make2D$visible$lines
100
AcDbLine
 10
2653.801074485678
 20
1143.360091319117
 30
0.0
 11
2654.637008570006
 21
1144.35248922981
 31
0.0
  0
LINE
  5
29B
330
1F
100
AcDbEntity
  8
Make2D$visible$lines
100
AcDbLine
 10
2654.637008570006
 20
1144.35248922981
 30
0.0
 11
2655.506336889877
 21
1145.315768877035
 31
0.0
  0
LINE
  5
29C
330
1F
100
AcDbEntity
  8
Make2D$visible$lines
100
AcDbLine
 10
2655.506336889877
 20
1145.315768877035
 30
0.0
 11
2656.408045847357
 21
1146.248807119815
 31
0.0
  0
LINE
  5
29D
330
1F
100
AcDbEntity
  8
Make2D$visible$lines
100
AcDbLine
 10
2656.408045847357
 20
1146.248807119815
 30
0.0
 11
2657.341084090137
 21
1147.150516077295
 31
0.0
  0
LINE
  5
29E
330
1F
100
AcDbEntity
  8
Make2D$visible$lines
100
AcDbLine
 10
2657.341084090137
 20
1147.150516077295
 30
0.0
 11
2658.304363737363
 21
1148.019844397166
 31
0.0
  0
LINE
  5
29F
330
1F
100
AcDbEntity
  8
Make2D$visible$lines
100
AcDbLine
 10
2658.304363737363
 20
1148.019844397166
 30
0.0
 11
2659.296761648056
 21
1148.855778481495
 31
0.0
  0
LINE
  5
2A0
330
1F
100
AcDbEntity
  8
Make2D$visible$lines
100
AcDbLine
 10
2659.296761648056
 20
1148.855778481495
 30
0.0
 11
2660.317120730644
 21
1149.657343668531
 31
0.0
  0
LINE
  5
2A1
330
1F
100
AcDbEntity
  8
Make2D$visible$lines
100
AcDbLine
 10
2660.317120730644
 20
1149.657343668531
 30
0.0
 11
2661.364251292081
 21
1150.423605369123
 31
0.0
  0
LINE
  5
2A2
330
1F
100
AcDbEntity
  8
Make2D$visible$lines
100
AcDbLine
 10
2661.364251292081
 20
1150.423605369123
 30
0.0
 11
2662.436932424971
 21
1151.153670156405
 31
0.0
  0
LINE
  5
2A3
330
1F
100
AcDbEntity
  8
Make2D$visible$lines
100
AcDbLine
 10
2662.436932424971
 20
1151.153670156405
 30
0.0
 11
2663.533913431099
 21
1151.846686807493
 31
0.0
  0
LINE
  5
2A4
330
1F
100
AcDbEntity
  8
Make2D$visible$lines
100
AcDbLine
 10
2663.533913431099
 20
1151.846686807493
 30
0.0
 11
2664.653915279681
 21
1152.501847295971
 31
0.0
  0
LINE
  5
2A5
330
1F
100
AcDbEntity
  8
Make2D$visible$lines
100
AcDbLine
 10
2664.653915279681
 20
1152.501847295971
 30
0.0
 11
2665.795632098662
 21
1153.118387734017
 31
0.0
  0
LINE
  5
2A6
330
1F
100
AcDbEntity
  8
Make2D$visible$lines
100
AcDbLine
 10
2665.795632098662
 20
1153.118387734017
 30
0.0
 11
2666.957732697303
 21
1153.695589263059
 31
0.0
  0
LINE
  5
2A7
330
1F
100
AcDbEntity
  8
Make2D$visible$lines
100
AcDbLine
 10
2666.957732697303
 20
1153.695589263059
 30
0.0
 11
2668.138862118289
 21
1154.232778891934
 31
0.0
  0
LINE
  5
2A8
330
1F
100
AcDbEntity
  8
Make2D$visible$lines
100
AcDbLine
 10
2668.138862118289
 20
1154.232778891934
 30
0.0
 11
2669.33764321755
 21
1154.729330281564
 31
0.0
  0
LINE
  5
2A9
330
1F
100
AcDbEntity
  8
Make2D$visible$lines
100
AcDbLine
 10
2669.33764321755
 20
1154.729330281564
 30
0.0
 11
2670.552678269949
 21
1155.184664475242
 31
0.0
  0
LINE
  5
2AA
330
1F
100
AcDbEntity
  8
Make2D$visible$lines
100
AcDbLine
 10
2670.552678269949
 20
1155.184664475242
 30
0.0
 11
2671.782550598965
 21
1155.598250573665
 31
0.0
  0
LINE
  5
2AB
330
1F
100
AcDbEntity
  8
Make2D$visible$lines
100
AcDbLine
 10
2671.782550598965
 20
1155.598250573665
 30
0.0
 11
2673.025826228479
 21
1155.969606353943
 31
0.0
  0
LINE
  5
2AC
330
1F
100
AcDbEntity
  8
Make2D$visible$lines
100
AcDbLine
 10
2673.025826228479
 20
1155.969606353943
 30
0.0
 11
2674.281055554721
 21
1156.298298831848
 31
0.0
  0
LINE
  5
2AD
330
1F
100
AcDbEntity
  8
Make2D$visible$lines
100
AcDbLine
 10
2674.281055554721
 20
1156.298298831848
 30
0.0
 11
2675.546775036446
 21
1156.583944766655
 31
0.0
  0
LINE
  5
2AE
330
1F
100
AcDbEntity
  8
Make2D$visible$lines
100
AcDbLine
 10
2675.546775036446
 20
1156.583944766655
 30
0.0
 11
2676.821508901357
 21
1156.82621110798
 31
0.0
  0
LINE
  5
2AF
330
1F
100
AcDbEntity
  8
Make2D$visible$lines
100
AcDbLine
 10
2676.821508901357
 20
1156.82621110798
 30
0.0
 11
2678.103770866789
 21
1157.024815384107
 31
0.0
  0
LINE
  5
2B0
330
1F
100
AcDbEntity
  8
Make2D$visible$lines
100
AcDbLine
 10
2678.103770866789
 20
1157.024815384107
 30
0.0
 11
2679.392065872648
 21
1157.179526031334
 31
0.0
  0
LINE
  5
2B1
330
1F
100
AcDbEntity
  8
Make2D$visible$lines
100
AcDbLine
 10
2679.392065872648
 20
1157.179526031334
 30
0.0
 11
2680.684891824588
 21
1157.290162663967
 31
0.0
  0
LINE
  5
2B2
330
1F
100
AcDbEntity
  8
Make2D$visible$lines
100
AcDbLine
 10
2680.684891824588
 20
1157.290162663967
 30
0.0
 11
2681.980741345379
 21
1157.356596284641
 31
0.0
  0
LINE
  5
2B3
330
1F
100
AcDbEntity
  8
Make2D$visible$lines
100
AcDbLine
 10
2681.980741345379
 20
1157.356596284641
 30
0.0
 11
2683.278103532446
 21
1157.378749434726
 31
0.0
  0
ENDSEC
  0
SECTION
  2
OBJECTS
  0
DICTIONARY
  5
C
330
0
100
AcDbDictionary
281
     1
  3
ACAD_DETAILVIEWSTYLE
350
2F1
  3
ACAD_GROUP
350
D
  3
ACAD_LAYOUT
350
1A
  3
ACAD_MATERIAL
350
43
  3
ACAD_MLEADERSTYLE
350
2F0
  3
ACAD_MLINESTYLE
350
17
  3
ACAD_PLOTSETTINGS
350
19
  3
ACAD_PLOTSTYLENAME
350
E
  3
ACAD_SCALELIST
350
47
  3
ACAD_SECTIONVIEWSTYLE
350
2F2
  3
ACAD_TABLESTYLE
350
2EF
  3
ACAD_VISUALSTYLE
350
2A
  3
AcDbVariableDictionary
350
2B6
  0
DICTIONARY
  5
2B4
330
8
100
AcDbDictionary
280
     1
281
     1
  3
ACAD_XREC_ROUNDTRIP
360
2B5
  0
DICTIONARY
  5
2F1
102
{ACAD_REACTORS
330
C
102
}
330
C
100
AcDbDictionary
281
     1
  0
DICTIONARY
  5
D
102
{ACAD_REACTORS
330
C
102
}
330
C
100
AcDbDictionary
281
     1
  0
DICTIONARY
  5
1A
102
{ACAD_REACTORS
330
C
102
}
330
C
100
AcDbDictionary
281
     1
  3
Layout1
350
1E
  3
Layout2
350
26
  3
Model
350
22
  0
DICTIONARY
  5
43
102
{ACAD_REACTORS
330
C
102
}
330
C
100
AcDbDictionary
281
     1
  3
ByBlock
350
45
  3
ByLayer
350
44
  3
Global
350
46
  0
DICTIONARY
  5
2F0
102
{ACAD_REACTORS
330
C
102
}
330
C
100
AcDbDictionary
281
     1
  0
DICTIONARY
  5
17
102
{ACAD_REACTORS
330
C
102
}
330
C
100
AcDbDictionary
281
     1
  3
Standard
350
18
  0
DICTIONARY
  5
19
102
{ACAD_REACTORS
330
C
102
}
330
C
100
AcDbDictionary
281
     1
  0
ACDBDICTIONARYWDFLT
  5
E
102
{ACAD_REACTORS
330
C
102
}
330
C
100
AcDbDictionary
281
     1
  3
Normal
350
F
100
AcDbDictionaryWithDefault
340
F
  0
DICTIONARY
  5
47
102
{ACAD_REACTORS
330
C
102
}
330
C
100
AcDbDictionary
281
     1
  3
A0
350
48
  3
A1
350
49
  3
A2
350
4A
  3
A3
350
4B
  3
A4
350
4C
  3
A5
350
4D
  3
A6
350
4E
  3
A7
350
4F
  3
A8
350
50
  3
A9
350
51
  3
B0
350
52
  3
B1
350
53
  3
B2
350
54
  3
B3
350
55
  3
B4
350
56
  3
B5
350
57
  3
B6
350
58
  3
B7
350
59
  3
B8
350
5A
  3
B9
350
5B
  3
C0
350
5C
  3
C1
350
5D
  3
C2
350
5E
  3
C3
350
5F
  3
C4
350
60
  3
C5
350
61
  3
C6
350
62
  3
C7
350
63
  3
C8
350
64
  3
C9
350
65
  3
D0
350
66
  3
D1
350
67
  3
D2
350
68
  0
DICTIONARY
  5
2F2
102
{ACAD_REACTORS
330
C
102
}
330
C
100
AcDbDictionary
281
     1
  0
DICTIONARY
  5
2EF
102
{ACAD_REACTORS
330
C
102
}
330
C
100
AcDbDictionary
281
     1
  0
DICTIONARY
  5
2A
102
{ACAD_REACTORS
330
C
102
}
330
C
100
AcDbDictionary
281
     1
  3
2dWireframe
350
2F
  3
Basic
350
32
  3
Brighten
350
36
  3
ColorChange
350
3A
  3
Conceptual
350
34
  3
Dim
350
35
  3
EdgeColorOff
350
3D
  3
Facepattern
350
39
  3
Flat
350
2B
  3
FlatWithEdges
350
2C
  3
Gouraud
350
2D
  3
GouraudWithEdges
350
2E
  3
Hidden
350
31
  3
JitterOff
350
3B
  3
Linepattern
350
38
  3
OverhangOff
350
3C
  3
Realistic
350
33
  3
Shaded
350
42
  3
Shaded with edges
350
41
  3
Shades of Gray
350
3E
  3
Sketchy
350
3F
  3
Thicken
350
37
  3
Wireframe
350
30
  3
X-Ray
350
40
  0
DICTIONARY
  5
2B6
102
{ACAD_REACTORS
330
C
102
}
330
C
100
AcDbDictionary
281
     1
  3
CANNOSCALE
350
2B7
  3
MSLTSCALE
350
2B8
  0
XRECORD
  5
2B5
102
{ACAD_REACTORS
330
2B4
102
}
330
2B4
100
AcDbXrecord
280
     1
102
VTR_0.000_0.000_1.000_1.000_GRIDDISPLAY
 70
     3
102
VTR_0.000_0.000_1.000_1.000_GRIDMAJOR
 70
     5
102
VTR_0.000_0.000_1.000_1.000_DEFAULTLIGHTING
280
     1
102
VTR_0.000_0.000_1.000_1.000_DEFAULTLIGHTINGTYPE
 70
     1
102
VTR_0.000_0.000_1.000_1.000_BRIGHTNESS
141
0.0
102
VTR_0.000_0.000_1.000_1.000_CONTRAST
142
0.0
  0
LAYOUT
  5
1E
102
{ACAD_REACTORS
330
1A
102
}
330
1A
100
AcDbPlotSettings
  1

  2
none_device
  4

  6

 40
0.0
 41
0.0
 42
0.0
 43
0.0
 44
0.0
 45
0.0
 46
0.0
 47
0.0
 48
0.0
 49
0.0
140
0.0
141
0.0
142
1.0
143
1.0
 70
   688
 72
     0
 73
     0
 74
     5
  7

 75
    16
 76
     0
 77
     2
 78
   300
147
1.0
148
0.0
149
0.0
100
AcDbLayout
  1
Layout1
 70
     1
 71
     1
 10
0.0
 20
0.0
 11
12.0
 21
9.0
 12
0.0
 22
0.0
 32
0.0
 14
1.000000000000000E+20
 24
1.000000000000000E+20
 34
1.000000000000000E+20
 15
-1.000000000000000E+20
 25
-1.000000000000000E+20
 35
-1.000000000000000E+20
146
0.0
 13
0.0
 23
0.0
 33
0.0
 16
1.0
 26
0.0
 36
0.0
 17
0.0
 27
1.0
 37
0.0
 76
     0
330
1B
  0
LAYOUT
  5
26
102
{ACAD_REACTORS
330
1A
102
}
330
1A
100
AcDbPlotSettings
  1

  2
none_device
  4

  6

 40
0.0
 41
0.0
 42
0.0
 43
0.0
 44
0.0
 45
0.0
 46
0.0
 47
0.0
 48
0.0
 49
0.0
140
0.0
141
0.0
142
1.0
143
1.0
 70
   688
 72
     0
 73
     0
 74
     5
  7

 75
    16
 76
     0
 77
     2
 78
   300
147
1.0
148
0.0
149
0.0
100
AcDbLayout
  1
Layout2
 70
     1
 71
     2
 10
0.0
 20
0.0
 11
0.0
 21
0.0
 12
0.0
 22
0.0
 32
0.0
 14
0.0
 24
0.0
 34
0.0
 15
0.0
 25
0.0
 35
0.0
146
0.0
 13
0.0
 23
0.0
 33
0.0
 16
1.0
 26
0.0
 36
0.0
 17
0.0
 27
1.0
 37
0.0
 76
     0
330
23
  0
LAYOUT
  5
22
102
{ACAD_REACTORS
330
1A
102
}
330
1A
100
AcDbPlotSettings
  1

  2
none_device
  4
Letter_(8.50_x_11.00_Inches)
  6

 40
6.35
 41
6.35
 42
6.35000508
 43
6.35000508
 44
215.9
 45
279.4
 46
0.0
 47
0.0
 48
0.0
 49
0.0
140
0.0
141
0.0
142
1.0
143
1.0
 70
  1712
 72
     0
 73
     0
 74
     0
  7

 75
     0
 76
     0
 77
     2
 78
   300
147
1.0
148
0.0
149
0.0
100
AcDbLayout
  1
Model
 70
     1
 71
     0
 10
0.0
 20
0.0
 11
12.0
 21
9.0
 12
0.0
 22
0.0
 32
0.0
 14
2313.959234261087
 24
594.3004542067551
 34
0.0
 15
3213.959234261089
 25
1194.300454206757
 35
0.0000000000000426
146
0.0
 13
0.0
 23
0.0
 33
0.0
 16
1.0
 26
0.0
 36
0.0
 17
0.0
 27
1.0
 37
0.0
 76
     0
330
1F
331
29
  0
MATERIAL
  5
45
102
{ACAD_REACTORS
330
43
102
}
102
{ACAD_XDICTIONARY
360
2EB
102
}
330
43
100
AcDbMaterial
  1
ByBlock
  0
MATERIAL
  5
44
102
{ACAD_REACTORS
330
43
102
}
102
{ACAD_XDICTIONARY
360
2E9
102
}
330
43
100
AcDbMaterial
  1
ByLayer
  0
MATERIAL
  5
46
102
{ACAD_REACTORS
330
43
102
}
102
{ACAD_XDICTIONARY
360
2ED
102
}
330
43
100
AcDbMaterial
  1
Global
  0
MLINESTYLE
  5
18
102
{ACAD_REACTORS
330
17
102
}
330
17
100
AcDbMlineStyle
  2
Standard
 70
     0
  3

 62
   256
 51
90.0
 52
90.0
 71
     2
 49
0.5
 62
   256
  6
BYLAYER
 49
-0.5
 62
   256
  6
BYLAYER
  0
ACDBPLACEHOLDER
  5
F
102
{ACAD_REACTORS
330
E
102
}
330
E
  0
SCALE
  5
48
102
{ACAD_REACTORS
330
47
102
}
330
47
100
AcDbScale
 70
     0
300
1:1
140
1.0
141
1.0
290
     1
  0
SCALE
  5
49
102
{ACAD_REACTORS
330
47
102
}
330
47
100
AcDbScale
 70
     0
300
1:2
140
1.0
141
2.0
290
     0
  0
SCALE
  5
4A
102
{ACAD_REACTORS
330
47
102
}
330
47
100
AcDbScale
 70
     0
300
1:4
140
1.0
141
4.0
290
     0
  0
SCALE
  5
4B
102
{ACAD_REACTORS
330
47
102
}
330
47
100
AcDbScale
 70
     0
300
1:5
140
1.0
141
5.0
290
     0
  0
SCALE
  5
4C
102
{ACAD_REACTORS
330
47
102
}
330
47
100
AcDbScale
 70
     0
300
1:8
140
1.0
141
8.0
290
     0
  0
SCALE
  5
4D
102
{ACAD_REACTORS
330
47
102
}
330
47
100
AcDbScale
 70
     0
300
1:10
140
1.0
141
10.0
290
     0
  0
SCALE
  5
4E
102
{ACAD_REACTORS
330
47
102
}
330
47
100
AcDbScale
 70
     0
300
1:16
140
1.0
141
16.0
290
     0
  0
SCALE
  5
4F
102
{ACAD_REACTORS
330
47
102
}
330
47
100
AcDbScale
 70
     0
300
1:20
140
1.0
141
20.0
290
     0
  0
SCALE
  5
50
102
{ACAD_REACTORS
330
47
102
}
330
47
100
AcDbScale
 70
     0
300
1:30
140
1.0
141
30.0
290
     0
  0
SCALE
  5
51
102
{ACAD_REACTORS
330
47
102
}
330
47
100
AcDbScale
 70
     0
300
1:40
140
1.0
141
40.0
290
     0
  0
SCALE
  5
52
102
{ACAD_REACTORS
330
47
102
}
330
47
100
AcDbScale
 70
     0
300
1:50
140
1.0
141
50.0
290
     0
  0
SCALE
  5
53
102
{ACAD_REACTORS
330
47
102
}
330
47
100
AcDbScale
 70
     0
300
1:100
140
1.0
141
100.0
290
     0
  0
SCALE
  5
54
102
{ACAD_REACTORS
330
47
102
}
330
47
100
AcDbScale
 70
     0
300
2:1
140
2.0
141
1.0
290
     0
  0
SCALE
  5
55
102
{ACAD_REACTORS
330
47
102
}
330
47
100
AcDbScale
 70
     0
300
4:1
140
4.0
141
1.0
290
     0
  0
SCALE
  5
56
102
{ACAD_REACTORS
330
47
102
}
330
47
100
AcDbScale
 70
     0
300
8:1
140
8.0
141
1.0
290
     0
  0
SCALE
  5
57
102
{ACAD_REACTORS
330
47
102
}
330
47
100
AcDbScale
 70
     0
300
10:1
140
10.0
141
1.0
290
     0
  0
SCALE
  5
58
102
{ACAD_REACTORS
330
47
102
}
330
47
100
AcDbScale
 70
     0
300
100:1
140
100.0
141
1.0
290
     0
  0
SCALE
  5
59
102
{ACAD_REACTORS
330
47
102
}
330
47
100
AcDbScale
 70
     0
300
1/128" = 1'-0"
140
0.0078125
141
12.0
290
     0
  0
SCALE
  5
5A
102
{ACAD_REACTORS
330
47
102
}
330
47
100
AcDbScale
 70
     0
300
1/64" = 1'-0"
140
0.015625
141
12.0
290
     0
  0
SCALE
  5
5B
102
{ACAD_REACTORS
330
47
102
}
330
47
100
AcDbScale
 70
     0
300
1/32" = 1'-0"
140
0.03125
141
12.0
290
     0
  0
SCALE
  5
5C
102
{ACAD_REACTORS
330
47
102
}
330
47
100
AcDbScale
 70
     0
300
1/16" = 1'-0"
140
0.0625
141
12.0
290
     0
  0
SCALE
  5
5D
102
{ACAD_REACTORS
330
47
102
}
330
47
100
AcDbScale
 70
     0
300
3/32" = 1'-0"
140
0.09375
141
12.0
290
     0
  0
SCALE
  5
5E
102
{ACAD_REACTORS
330
47
102
}
330
47
100
AcDbScale
 70
     0
300
1/8" = 1'-0"
140
0.125
141
12.0
290
     0
  0
SCALE
  5
5F
102
{ACAD_REACTORS
330
47
102
}
330
47
100
AcDbScale
 70
     0
300
3/16" = 1'-0"
140
0.1875
141
12.0
290
     0
  0
SCALE
  5
60
102
{ACAD_REACTORS
330
47
102
}
330
47
100
AcDbScale
 70
     0
300
1/4" = 1'-0"
140
0.25
141
12.0
290
     0
  0
SCALE
  5
61
102
{ACAD_REACTORS
330
47
102
}
330
47
100
AcDbScale
 70
     0
300
3/8" = 1'-0"
140
0.375
141
12.0
290
     0
  0
SCALE
  5
62
102
{ACAD_REACTORS
330
47
102
}
330
47
100
AcDbScale
 70
     0
300
1/2" = 1'-0"
140
0.5
141
12.0
290
     0
  0
SCALE
  5
63
102
{ACAD_REACTORS
330
47
102
}
330
47
100
AcDbScale
 70
     0
300
3/4" = 1'-0"
140
0.75
141
12.0
290
     0
  0
SCALE
  5
64
102
{ACAD_REACTORS
330
47
102
}
330
47
100
AcDbScale
 70
     0
300
1" = 1'-0"
140
1.0
141
12.0
290
     0
  0
SCALE
  5
65
102
{ACAD_REACTORS
330
47
102
}
330
47
100
AcDbScale
 70
     0
300
1-1/2" = 1'-0"
140
1.5
141
12.0
290
     0
  0
SCALE
  5
66
102
{ACAD_REACTORS
330
47
102
}
330
47
100
AcDbScale
 70
     0
300
3" = 1'-0"
140
3.0
141
12.0
290
     0
  0
SCALE
  5
67
102
{ACAD_REACTORS
330
47
102
}
330
47
100
AcDbScale
 70
     0
300
6" = 1'-0"
140
6.0
141
12.0
290
     0
  0
SCALE
  5
68
102
{ACAD_REACTORS
330
47
102
}
330
47
100
AcDbScale
 70
     0
300
1'-0" = 1'-0"
140
12.0
141
12.0
290
     0
  0
VISUALSTYLE
  5
2F
102
{ACAD_REACTORS
330
2A
102
}
102
{ACAD_XDICTIONARY
360
2C1
102
}
330
2A
100
AcDbVisualStyle
  2
2dWireframe
 70
     4
 71
     0
 72
     2
 73
     0
 90
        0
 40
0.6
 41
30.0
 62
     5
 63
     7
421
 16777215
 74
     1
 91
        4
 64
     7
 65
   257
 75
     1
175
     1
 42
1.0
 92
        0
 66
   257
 43
1.0
 76
     1
 77
     6
 78
     2
 67
     7
 79
     5
170
     0
171
     0
290
     0
174
     0
 93
        1
 44
0.0
173
     0
291
     0
 45
0.0
1001
ACAD
1000
AcDbSavedByObjectVersion
1070
     0
  0
VISUALSTYLE
  5
32
102
{ACAD_REACTORS
330
2A
102
}
102
{ACAD_XDICTIONARY
360
2C7
102
}
330
2A
100
AcDbVisualStyle
  2
Basic
 70
     7
 71
     1
 72
     0
 73
     1
 90
        0
 40
0.6
 41
30.0
 62
     5
 63
     7
421
 16777215
 74
     0
 91
        4
 64
     7
 65
   257
 75
     1
175
     1
 42
1.0
 92
        8
 66
     7
 43
1.0
 76
     1
 77
     6
 78
     2
 67
     7
 79
     5
170
     0
171
     0
290
     0
174
     0
 93
        1
 44
0.0
173
     0
291
     1
 45
0.0
1001
ACAD
1000
AcDbSavedByObjectVersion
1070
     0
  0
VISUALSTYLE
  5
36
102
{ACAD_REACTORS
330
2A
102
}
102
{ACAD_XDICTIONARY
360
2CF
102
}
330
2A
100
AcDbVisualStyle
  2
Brighten
 70
    12
 71
     2
 72
     2
 73
     0
 90
        0
 40
0.6
 41
30.0
 62
     5
 63
     7
421
 16777215
 74
     1
 91
        4
 64
     7
 65
   257
 75
     1
175
     1
 42
1.0
 92
        8
 66
     7
 43
1.0
 76
     1
 77
     6
 78
     2
 67
     7
 79
     5
170
     0
171
     0
290
     0
174
     0
 93
        1
 44
50.0
173
     0
291
     1
 45
0.0
1001
ACAD
1000
AcDbSavedByObjectVersion
1070
     0
  0
VISUALSTYLE
  5
3A
102
{ACAD_REACTORS
330
2A
102
}
102
{ACAD_XDICTIONARY
360
2D7
102
}
330
2A
100
AcDbVisualStyle
  2
ColorChange
 70
    16
 71
     2
 72
     2
 73
     3
 90
        0
 40
0.6
 41
30.0
 62
     5
 63
     8
421
  8421504
 74
     1
 91
        4
 64
     7
 65
   257
 75
     1
175
     1
 42
1.0
 92
        8
 66
     8
424
  8421504
 43
1.0
 76
     1
 77
     6
 78
     2
 67
     7
 79
     5
170
     0
171
     0
290
     0
174
     0
 93
        1
 44
0.0
173
     0
291
     1
 45
0.0
1001
ACAD
1000
AcDbSavedByObjectVersion
1070
     0
  0
VISUALSTYLE
  5
34
102
{ACAD_REACTORS
330
2A
102
}
102
{ACAD_XDICTIONARY
360
2CB
102
}
330
2A
100
AcDbVisualStyle
  2
Conceptual
 70
     9
 71
     3
 72
     2
 73
     0
 90
        0
 40
0.6
 41
30.0
 62
     5
 63
     7
421
 16777215
 74
     2
 91
        2
 64
     7
 65
   257
 75
     1
175
     1
 42
179.0
 92
        8
 66
     7
 43
1.0
 76
     1
 77
     6
 78
     2
 67
     7
 79
     3
170
     0
171
     0
290
     0
174
     0
 93
        1
 44
0.0
173
     0
291
     0
 45
0.0
1001
ACAD
1000
AcDbSavedByObjectVersion
1070
     0
  0
VISUALSTYLE
  5
35
102
{ACAD_REACTORS
330
2A
102
}
102
{ACAD_XDICTIONARY
360
2CD
102
}
330
2A
100
AcDbVisualStyle
  2
Dim
 70
    11
 71
     2
 72
     2
 73
     0
 90
        0
 40
0.6
 41
30.0
 62
     5
 63
     7
421
 16777215
 74
     1
 91
        4
 64
     7
 65
   257
 75
     1
175
     1
 42
1.0
 92
        8
 66
     7
 43
1.0
 76
     1
 77
     6
 78
     2
 67
     7
 79
     5
170
     0
171
     0
290
     0
174
     0
 93
        1
 44
-50.0
173
     0
291
     1
 45
0.0
1001
ACAD
1000
AcDbSavedByObjectVersion
1070
     0
  0
VISUALSTYLE
  5
3D
102
{ACAD_REACTORS
330
2A
102
}
102
{ACAD_XDICTIONARY
360
2DD
102
}
330
2A
100
AcDbVisualStyle
  2
EdgeColorOff
 70
    22
 71
     2
 72
     2
 73
     0
 90
        0
 40
0.6
 41
30.0
 62
     5
 63
     7
421
 16777215
 74
     1
 91
        4
 64
     7
 65
   257
 75
     1
175
     1
 42
1.0
 92
        8
 66
     7
 43
1.0
 76
     1
 77
     6
 78
     2
 67
     7
 79
     5
170
     0
171
     0
290
     0
174
     0
 93
        1
 44
0.0
173
     0
291
     1
 45
0.0
1001
ACAD
1000
AcDbSavedByObjectVersion
1070
     0
  0
VISUALSTYLE
  5
39
102
{ACAD_REACTORS
330
2A
102
}
102
{ACAD_XDICTIONARY
360
2D5
102
}
330
2A
100
AcDbVisualStyle
  2
Facepattern
 70
    15
 71
     2
 72
     2
 73
     0
 90
        0
 40
0.6
 41
30.0
 62
     5
 63
     7
421
 16777215
 74
     1
 91
        4
 64
     7
 65
   257
 75
     1
175
     1
 42
1.0
 92
        8
 66
     7
 43
1.0
 76
     1
 77
     6
 78
     2
 67
     7
 79
     5
170
     0
171
     0
290
     0
174
     0
 93
        1
 44
0.0
173
     0
291
     1
 45
0.0
1001
ACAD
1000
AcDbSavedByObjectVersion
1070
     0
  0
VISUALSTYLE
  5
2B
102
{ACAD_REACTORS
330
2A
102
}
102
{ACAD_XDICTIONARY
360
2B9
102
}
330
2A
100
AcDbVisualStyle
  2
Flat
 70
     0
 71
     2
 72
     1
 73
     1
 90
        2
 40
0.6
 41
30.0
 62
     5
 63
     7
421
 16777215
 74
     0
 91
        0
 64
     7
 65
   257
 75
     1
175
     1
 42
1.0
 92
        8
 66
     7
 43
1.0
 76
     1
 77
     6
 78
     2
 67
     7
 79
     5
170
     0
171
     0
290
     0
174
     0
 93
       13
 44
0.0
173
     0
291
     1
 45
0.0
1001
ACAD
1000
AcDbSavedByObjectVersion
1070
     0
  0
VISUALSTYLE
  5
2C
102
{ACAD_REACTORS
330
2A
102
}
102
{ACAD_XDICTIONARY
360
2BB
102
}
330
2A
100
AcDbVisualStyle
  2
FlatWithEdges
 70
     1
 71
     2
 72
     1
 73
     1
 90
        2
 40
0.6
 41
30.0
 62
     5
 63
     7
421
 16777215
 74
     1
 91
        0
 64
     7
 65
   257
 75
     1
175
     1
 42
1.0
 92
        0
 66
   257
 43
1.0
 76
     1
 77
     6
 78
     2
 67
     7
 79
     5
170
     0
171
     0
290
     0
174
     0
 93
       13
 44
0.0
173
     0
291
     1
 45
0.0
1001
ACAD
1000
AcDbSavedByObjectVersion
1070
     0
  0
VISUALSTYLE
  5
2D
102
{ACAD_REACTORS
330
2A
102
}
102
{ACAD_XDICTIONARY
360
2BD
102
}
330
2A
100
AcDbVisualStyle
  2
Gouraud
 70
     2
 71
     2
 72
     2
 73
     1
 90
        2
 40
0.6
 41
30.0
 62
     5
 63
     7
421
 16777215
 74
     0
 91
        0
 64
     7
 65
   257
 75
     1
175
     1
 42
1.0
 92
        0
 66
     7
 43
1.0
 76
     1
 77
     6
 78
     2
 67
     7
 79
     5
170
     0
171
     0
290
     0
174
     0
 93
       13
 44
0.0
173
     0
291
     1
 45
0.0
1001
ACAD
1000
AcDbSavedByObjectVersion
1070
     0
  0
VISUALSTYLE
  5
2E
102
{ACAD_REACTORS
330
2A
102
}
102
{ACAD_XDICTIONARY
360
2BF
102
}
330
2A
100
AcDbVisualStyle
  2
GouraudWithEdges
 70
     3
 71
     2
 72
     2
 73
     1
 90
        2
 40
0.6
 41
30.0
 62
     5
 63
     7
421
 16777215
 74
     1
 91
        0
 64
     7
 65
   257
 75
     1
175
     1
 42
1.0
 92
        0
 66
   257
 43
1.0
 76
     1
 77
     6
 78
     2
 67
     7
 79
     5
170
     0
171
     0
290
     0
174
     0
 93
       13
 44
0.0
173
     0
291
     1
 45
0.0
1001
ACAD
1000
AcDbSavedByObjectVersion
1070
     0
  0
VISUALSTYLE
  5
31
102
{ACAD_REACTORS
330
2A
102
}
102
{ACAD_XDICTIONARY
360
2C5
102
}
330
2A
100
AcDbVisualStyle
  2
Hidden
 70
     6
 71
     1
 72
     2
 73
     2
 90
        0
 40
0.6
 41
30.0
 62
     5
 63
     7
421
 16777215
 74
     2
 91
        2
 64
     7
 65
   257
 75
     2
175
     1
 42
40.0
 92
        0
 66
   257
 43
1.0
 76
     1
 77
     6
 78
     2
 67
     7
 79
     3
170
     0
171
     0
290
     0
174
     0
 93
        1
 44
0.0
173
     0
291
     0
 45
0.0
1001
ACAD
1000
AcDbSavedByObjectVersion
1070
     0
  0
VISUALSTYLE
  5
3B
102
{ACAD_REACTORS
330
2A
102
}
102
{ACAD_XDICTIONARY
360
2D9
102
}
330
2A
100
AcDbVisualStyle
  2
JitterOff
 70
    20
 71
     2
 72
     2
 73
     0
 90
        0
 40
0.6
 41
30.0
 62
     5
 63
     7
421
 16777215
 74
     1
 91
        4
 64
     7
 65
   257
 75
     1
175
     1
 42
1.0
 92
       10
 66
     7
 43
1.0
 76
     1
 77
     6
 78
     2
 67
     7
 79
     5
170
     0
171
     0
290
     0
174
     0
 93
        1
 44
0.0
173
     0
291
     1
 45
0.0
1001
ACAD
1000
AcDbSavedByObjectVersion
1070
     0
  0
VISUALSTYLE
  5
38
102
{ACAD_REACTORS
330
2A
102
}
102
{ACAD_XDICTIONARY
360
2D3
102
}
330
2A
100
AcDbVisualStyle
  2
Linepattern
 70
    14
 71
     2
 72
     2
 73
     0
 90
        0
 40
0.6
 41
30.0
 62
     5
 63
     7
421
 16777215
 74
     1
 91
        4
 64
     7
 65
   257
 75
     7
175
     7
 42
1.0
 92
        8
 66
     7
 43
1.0
 76
     1
 77
     6
 78
     2
 67
     7
 79
     5
170
     0
171
     0
290
     0
174
     0
 93
        1
 44
0.0
173
     0
291
     1
 45
0.0
1001
ACAD
1000
AcDbSavedByObjectVersion
1070
     0
  0
VISUALSTYLE
  5
3C
102
{ACAD_REACTORS
330
2A
102
}
102
{ACAD_XDICTIONARY
360
2DB
102
}
330
2A
100
AcDbVisualStyle
  2
OverhangOff
 70
    21
 71
     2
 72
     2
 73
     0
 90
        0
 40
0.6
 41
30.0
 62
     5
 63
     7
421
 16777215
 74
     1
 91
        4
 64
     7
 65
   257
 75
     1
175
     1
 42
1.0
 92
        9
 66
     7
 43
1.0
 76
     1
 77
     6
 78
     2
 67
     7
 79
     5
170
     0
171
     0
290
     0
174
     0
 93
        1
 44
0.0
173
     0
291
     1
 45
0.0
1001
ACAD
1000
AcDbSavedByObjectVersion
1070
     0
  0
VISUALSTYLE
  5
33
102
{ACAD_REACTORS
330
2A
102
}
102
{ACAD_XDICTIONARY
360
2C9
102
}
330
2A
100
AcDbVisualStyle
  2
Realistic
 70
     8
 71
     2
 72
     3
 73
     0
 90
        2
 40
0.6
 41
30.0
 62
     5
 63
     7
421
 16777215
 74
     0
 91
        0
 64
     7
 65
   257
 75
     1
175
     1
 42
1.0
 92
        8
 66
   257
 43
1.0
 76
     1
 77
     6
 78
     2
 67
     7
 79
     3
170
     0
171
     0
290
     0
174
     0
 93
       13
 44
0.0
173
     0
291
     0
 45
0.0
1001
ACAD
1000
AcDbSavedByObjectVersion
1070
     0
  0
VISUALSTYLE
  5
42
102
{ACAD_REACTORS
330
2A
102
}
102
{ACAD_XDICTIONARY
360
2E7
102
}
330
2A
100
AcDbVisualStyle
  2
Shaded
 70
    27
 71
     2
 72
     2
 73
     1
 90
        2
 40
0.6
 41
30.0
 62
     5
 63
     7
421
 16777215
 74
     0
 91
        4
 64
     7
 65
   257
 75
     1
175
     1
 42
1.0
 92
        8
 66
   257
 43
1.0
 76
     1
 77
     6
 78
     2
 67
     8
425
  7895160
 79
     3
170
     0
171
     0
290
     0
174
     0
 93
        5
 44
0.0
173
     0
291
     0
 45
0.0
1001
ACAD
1000
AcDbSavedByObjectVersion
1070
     0
  0
VISUALSTYLE
  5
41
102
{ACAD_REACTORS
330
2A
102
}
102
{ACAD_XDICTIONARY
360
2E5
102
}
330
2A
100
AcDbVisualStyle
  2
Shaded with edges
 70
    26
 71
     2
 72
     2
 73
     1
 90
        2
 40
0.6
 41
30.0
 62
     5
 63
     7
421
 16777215
 74
     1
 91
       10
 64
     7
 65
   257
 75
     2
175
     1
 42
1.0
 92
        8
 66
   257
 43
1.0
 76
     1
 77
     6
 78
     2
 67
     7
 79
     3
170
     0
171
     0
290
     0
174
     0
 93
        5
 44
0.0
173
     0
291
     0
 45
0.0
1001
ACAD
1000
AcDbSavedByObjectVersion
1070
     0
  0
VISUALSTYLE
  5
3E
102
{ACAD_REACTORS
330
2A
102
}
102
{ACAD_XDICTIONARY
360
2DF
102
}
330
2A
100
AcDbVisualStyle
  2
Shades of Gray
 70
    23
 71
     2
 72
     2
 73
     3
 90
        0
 40
0.6
 41
30.0
 62
     5
 63
     7
421
 16777215
 74
     2
 91
        2
 64
     7
 65
     7
 75
     1
175
     1
 42
40.0
 92
        8
 66
     7
 43
1.0
 76
     1
 77
     6
 78
     2
 67
     7
 79
     3
170
     0
171
     0
290
     0
174
     0
 93
        1
 44
0.0
173
     0
291
     0
 45
0.0
1001
ACAD
1000
AcDbSavedByObjectVersion
1070
     0
  0
VISUALSTYLE
  5
3F
102
{ACAD_REACTORS
330
2A
102
}
102
{ACAD_XDICTIONARY
360
2E1
102
}
330
2A
100
AcDbVisualStyle
  2
Sketchy
 70
    24
 71
     1
 72
     2
 73
     2
 90
        0
 40
0.6
 41
30.0
 62
     5
 63
     7
421
 16777215
 74
     2
 91
        2
 64
     7
 65
     7
 75
     1
175
     1
 42
40.0
 92
       11
 66
     7
 43
1.0
 76
     1
 77
     6
 78
     2
 67
     7
 79
     6
170
     0
171
     0
290
     0
174
     0
 93
        1
 44
0.0
173
     0
291
     0
 45
0.0
1001
ACAD
1000
AcDbSavedByObjectVersion
1070
     0
  0
VISUALSTYLE
  5
37
102
{ACAD_REACTORS
330
2A
102
}
102
{ACAD_XDICTIONARY
360
2D1
102
}
330
2A
100
AcDbVisualStyle
  2
Thicken
 70
    13
 71
     2
 72
     2
 73
     0
 90
        0
 40
0.6
 41
30.0
 62
     5
 63
     7
421
 16777215
 74
     1
 91
        4
 64
     7
 65
   257
 75
     1
175
     1
 42
1.0
 92
       12
 66
     7
 43
1.0
 76
     1
 77
     6
 78
     2
 67
     7
 79
     5
170
     0
171
     0
290
     0
174
     0
 93
        1
 44
0.0
173
     0
291
     1
 45
0.0
1001
ACAD
1000
AcDbSavedByObjectVersion
1070
     0
  0
VISUALSTYLE
  5
30
102
{ACAD_REACTORS
330
2A
102
}
102
{ACAD_XDICTIONARY
360
2C3
102
}
330
2A
100
AcDbVisualStyle
  2
Wireframe
 70
     5
 71
     0
 72
     2
 73
     0
 90
        0
 40
0.6
 41
30.0
 62
     5
 63
     7
421
 16777215
 74
     1
 91
        4
 64
     7
 65
   257
 75
     1
175
     1
 42
1.0
 92
        0
 66
   257
 43
1.0
 76
     1
 77
     6
 78
     2
 67
     7
 79
     3
170
     0
171
     0
290
     0
174
     0
 93
        1
 44
0.0
173
     0
291
     0
 45
0.0
1001
ACAD
1000
AcDbSavedByObjectVersion
1070
     0
  0
VISUALSTYLE
  5
40
102
{ACAD_REACTORS
330
2A
102
}
102
{ACAD_XDICTIONARY
360
2E3
102
}
330
2A
100
AcDbVisualStyle
  2
X-Ray
 70
    25
 71
     2
 72
     2
 73
     1
 90
        1
 40
0.5
 41
30.0
 62
     5
 63
     7
421
 16777215
 74
     1
 91
        0
 64
     7
 65
   257
 75
     1
175
     1
 42
1.0
 92
        8
 66
     7
 43
1.0
 76
     1
 77
     6
 78
     2
 67
     7
 79
     3
170
     0
171
     0
290
     0
174
     0
 93
       13
 44
0.0
173
     0
291
     0
 45
0.0
1001
ACAD
1000
AcDbSavedByObjectVersion
1070
     0
  0
DICTIONARYVAR
  5
2B7
102
{ACAD_REACTORS
330
2B6
102
}
330
2B6
100
DictionaryVariables
280
     0
  1
1:1
  0
DICTIONARYVAR
  5
2B8
102
{ACAD_REACTORS
330
2B6
102
}
330
2B6
100
DictionaryVariables
280
     0
  1
1
  0
DICTIONARY
  5
2EB
330
45
100
AcDbDictionary
280
     1
281
     1
  3
ACAD_XREC_ROUNDTRIP
360
2EC
  0
DICTIONARY
  5
2E9
330
44
100
AcDbDictionary
280
     1
281
     1
  3
ACAD_XREC_ROUNDTRIP
360
2EA
  0
DICTIONARY
  5
2ED
330
46
100
AcDbDictionary
280
     1
281
     1
  3
ACAD_XREC_ROUNDTRIP
360
2EE
  0
DICTIONARY
  5
2C1
330
2F
100
AcDbDictionary
280
     1
281
     1
  3
ACAD_XREC_ROUNDTRIP
360
2C2
  0
DICTIONARY
  5
2C7
330
32
100
AcDbDictionary
280
     1
281
     1
  3
ACAD_XREC_ROUNDTRIP
360
2C8
  0
DICTIONARY
  5
2CF
330
36
100
AcDbDictionary
280
     1
281
     1
  3
ACAD_XREC_ROUNDTRIP
360
2D0
  0
DICTIONARY
  5
2D7
330
3A
100
AcDbDictionary
280
     1
281
     1
  3
ACAD_XREC_ROUNDTRIP
360
2D8
  0
DICTIONARY
  5
2CB
330
34
100
AcDbDictionary
280
     1
281
     1
  3
ACAD_XREC_ROUNDTRIP
360
2CC
  0
DICTIONARY
  5
2CD
330
35
100
AcDbDictionary
280
     1
281
     1
  3
ACAD_XREC_ROUNDTRIP
360
2CE
  0
DICTIONARY
  5
2DD
330
3D
100
AcDbDictionary
280
     1
281
     1
  3
ACAD_XREC_ROUNDTRIP
360
2DE
  0
DICTIONARY
  5
2D5
330
39
100
AcDbDictionary
280
     1
281
     1
  3
ACAD_XREC_ROUNDTRIP
360
2D6
  0
DICTIONARY
  5
2B9
330
2B
100
AcDbDictionary
280
     1
281
     1
  3
ACAD_XREC_ROUNDTRIP
360
2BA
  0
DICTIONARY
  5
2BB
330
2C
100
AcDbDictionary
280
     1
281
     1
  3
ACAD_XREC_ROUNDTRIP
360
2BC
  0
DICTIONARY
  5
2BD
330
2D
100
AcDbDictionary
280
     1
281
     1
  3
ACAD_XREC_ROUNDTRIP
360
2BE
  0
DICTIONARY
  5
2BF
330
2E
100
AcDbDictionary
280
     1
281
     1
  3
ACAD_XREC_ROUNDTRIP
360
2C0
  0
DICTIONARY
  5
2C5
330
31
100
AcDbDictionary
280
     1
281
     1
  3
ACAD_XREC_ROUNDTRIP
360
2C6
  0
DICTIONARY
  5
2D9
330
3B
100
AcDbDictionary
280
     1
281
     1
  3
ACAD_XREC_ROUNDTRIP
360
2DA
  0
DICTIONARY
  5
2D3
330
38
100
AcDbDictionary
280
     1
281
     1
  3
ACAD_XREC_ROUNDTRIP
360
2D4
  0
DICTIONARY
  5
2DB
330
3C
100
AcDbDictionary
280
     1
281
     1
  3
ACAD_XREC_ROUNDTRIP
360
2DC
  0
DICTIONARY
  5
2C9
330
33
100
AcDbDictionary
280
     1
281
     1
  3
ACAD_XREC_ROUNDTRIP
360
2CA
  0
DICTIONARY
  5
2E7
330
42
100
AcDbDictionary
280
     1
281
     1
  3
ACAD_XREC_ROUNDTRIP
360
2E8
  0
DICTIONARY
  5
2E5
330
41
100
AcDbDictionary
280
     1
281
     1
  3
ACAD_XREC_ROUNDTRIP
360
2E6
  0
DICTIONARY
  5
2DF
330
3E
100
AcDbDictionary
280
     1
281
     1
  3
ACAD_XREC_ROUNDTRIP
360
2E0
  0
DICTIONARY
  5
2E1
330
3F
100
AcDbDictionary
280
     1
281
     1
  3
ACAD_XREC_ROUNDTRIP
360
2E2
  0
DICTIONARY
  5
2D1
330
37
100
AcDbDictionary
280
     1
281
     1
  3
ACAD_XREC_ROUNDTRIP
360
2D2
  0
DICTIONARY
  5
2C3
330
30
100
AcDbDictionary
280
     1
281
     1
  3
ACAD_XREC_ROUNDTRIP
360
2C4
  0
DICTIONARY
  5
2E3
330
40
100
AcDbDictionary
280
     1
281
     1
  3
ACAD_XREC_ROUNDTRIP
360
2E4
  0
XRECORD
  5
2EC
102
{ACAD_REACTORS
330
2EB
102
}
330
2EB
100
AcDbXrecord
280
     1
102
MATERIAL
148
0.0
149
0.0
149
0.0
 93
        0
 94
      127
282
     0
 72
     1
 77
     1
171
     1
175
     1
179
     1
273
     0
  0
XRECORD
  5
2EA
102
{ACAD_REACTORS
330
2E9
102
}
330
2E9
100
AcDbXrecord
280
     1
102
MATERIAL
148
0.0
149
0.0
149
0.0
 93
        0
 94
      127
282
     0
 72
     1
 77
     1
171
     1
175
     1
179
     1
273
     0
  0
XRECORD
  5
2EE
102
{ACAD_REACTORS
330
2ED
102
}
330
2ED
100
AcDbXrecord
280
     1
102
MATERIAL
148
0.0
149
0.0
149
0.0
 93
        0
 94
      127
282
     0
 72
     1
 77
     1
171
     1
175
     1
179
     1
273
     0
  0
XRECORD
  5
2C2
102
{ACAD_REACTORS
330
2C1
102
}
330
2C1
100
AcDbXrecord
280
     1
102
RTVSPropertyOp0
 70
     1
102
RTVSPropertyOp1
 70
     1
102
RTVSPropertyOp2
 70
     1
102
RTVSPropertyOp3
 70
     1
102
RTVSPropertyOp4
 70
     1
102
RTVSPropertyOp5
 70
     1
102
RTVSPropertyOp6
 70
     1
102
RTVSPropertyOp7
 70
     1
102
RTVSPropertyOp8
 70
     1
102
RTVSPropertyOp9
 70
     1
102
RTVSPropertyOp10
 70
     1
102
RTVSPropertyOp11
 70
     1
102
RTVSPropertyOp12
 70
     1
102
RTVSPropertyOp13
 70
     1
102
RTVSPropertyOp14
 70
     1
102
RTVSPropertyOp15
 70
     1
102
RTVSPropertyOp16
 70
     1
102
RTVSPropertyOp17
 70
     1
102
RTVSPropertyOp18
 70
     1
102
RTVSPropertyOp19
 70
     1
102
RTVSPropertyOp20
 70
     1
102
RTVSPropertyOp21
 70
     1
102
RTVSPropertyOp22
 70
     1
102
RTVSPropertyOp23
 70
     1
102
RTVSPropertyOp24
 70
     1
102
RTVSPropertyOp25
 70
     1
102
RTVSPropertyOp26
 70
     1
102
RTVSPropertyOp27
 70
     1
102
RTVSPropertyOp28
 70
     1
102
RTVSPropertyOp29
 70
     1
102
RTVSPropertyOp30
 70
     1
102
RTVSPropertyOp31
 70
     1
102
RTVSPropertyOp32
 70
     1
102
RTVSPropertyOp33
 70
     1
102
RTVSPropertyOp34
 70
     1
102
RTVSPropertyOp35
 70
     1
102
RTVSPropertyOp36
 70
     1
102
RTVSPropertyOp37
 70
     1
102
RTVSPropertyOp38
 70
     1
102
RTVSPropertyOp39
 70
     1
102
RTVSPropertyOp40
 70
     1
102
RTVSPropertyOp41
 70
     1
102
RTVSPropertyOp42
 70
     1
102
RTVSPropertyOp43
 70
     1
102
RTVSPropertyOp44
 70
     1
102
RTVSPropertyOp45
 70
     1
102
RTVSPropertyOp46
 70
     1
102
RTVSPropertyOp47
 70
     1
102
RTVSPropertyOp48
 70
     1
102
RTVSPropertyOp49
 70
     1
102
RTVSPropertyOp50
 70
     1
102
RTVSPropertyOp51
 70
     0
102
RTVSPropertyOp52
 70
     0
102
RTVSPropertyOp53
 70
     1
102
RTVSPropertyOp54
 70
     1
102
RTVSPropertyOp55
 70
     1
102
RTVSPropertyOp56
 70
     1
102
RTVSPropertyOp57
 70
     1
102
RTVSPost2010Prop28
280
     1
102
RTVSPost2010PropOp28
 70
     1
102
RTVSPost2010Prop29
280
     1
102
RTVSPost2010PropOp29
 70
     1
102
RTVSPost2010Prop30
280
     0
102
RTVSPost2010PropOp30
 70
     1
102
RTVSPost2010Prop31
280
     0
102
RTVSPost2010PropOp31
 70
     1
102
RTVSPost2010Prop32
280
     0
102
RTVSPost2010PropOp32
 70
     1
102
RTVSPost2010Prop33
280
     0
102
RTVSPost2010PropOp33
 70
     1
102
RTVSPost2010Prop34
280
     0
102
RTVSPost2010PropOp34
 70
     1
102
RTVSPost2010Prop35
280
     0
102
RTVSPost2010PropOp35
 70
     1
102
RTVSPost2010Prop36
280
     0
102
RTVSPost2010PropOp36
 70
     1
102
RTVSPost2010Prop37
 90
       50
102
RTVSPost2010PropOp37
 70
     1
102
RTVSPost2010Prop38
140
0.0
102
RTVSPost2010PropOp38
 70
     1
102
RTVSPost2010Prop39
140
1.0
102
RTVSPost2010PropOp39
 70
     1
102
RTVSPost2010Prop40
 90
        0
102
RTVSPost2010PropOp40
 70
     1
102
RTVSPost2010Prop41ColorIndex
 90
      178
102
RTVSPost2010Prop41ColorRGB
 90
        0
102
RTVSPost2010PropOp41
 70
     1
102
RTVSPost2010Prop42
 90
       50
102
RTVSPost2010PropOp42
 70
     1
102
RTVSPost2010Prop43
 90
        3
102
RTVSPost2010PropOp43
 70
     1
102
RTVSPost2010Prop44ColorIndex
 90
        5
102
RTVSPost2010Prop44ColorRGB
 90
      255
102
RTVSPost2010PropOp44
 70
     1
102
RTVSPost2010Prop45
280
     0
102
RTVSPost2010PropOp45
 70
     1
102
RTVSPost2010Prop46
 90
       50
102
RTVSPost2010PropOp46
 70
     1
102
RTVSPost2010Prop47
 90
       50
102
RTVSPost2010PropOp47
 70
     1
102
RTVSPost2010Prop48
 90
       50
102
RTVSPost2010PropOp48
 70
     1
102
RTVSPost2010Prop49
280
     0
102
RTVSPost2010PropOp49
 70
     1
102
RTVSPost2010Prop50
 90
       50
102
RTVSPost2010PropOp50
 70
     1
102
RTVSPost2010Prop51ColorIndex
 90
      256
102
RTVSPost2010Prop51ColorRGB
 90
-16777216
102
RTVSPost2010PropOp51
 70
     0
102
RTVSPost2010Prop52
140
1.0
102
RTVSPost2010PropOp52
 70
     0
102
RTVSPost2010Prop53
 90
        2
102
RTVSPost2010PropOp53
 70
     1
102
RTVSPost2010Prop54
  1
strokes_ogs.tif
102
RTVSPost2010PropOp54
 70
     1
102
RTVSPost2010Prop55
280
     0
102
RTVSPost2010PropOp55
 70
     1
102
RTVSPost2010Prop56
140
1.0
102
RTVSPost2010PropOp56
 70
     1
102
RTVSPost2010Prop57
140
1.0
102
RTVSPost2010PropOp57
 70
     1
  0
XRECORD
  5
2C8
102
{ACAD_REACTORS
330
2C7
102
}
330
2C7
100
AcDbXrecord
280
     1
102
RTVSPropertyOp0
 70
     1
102
RTVSPropertyOp1
 70
     1
102
RTVSPropertyOp2
 70
     1
102
RTVSPropertyOp3
 70
     1
102
RTVSPropertyOp4
 70
     1
102
RTVSPropertyOp5
 70
     1
102
RTVSPropertyOp6
 70
     1
102
RTVSPropertyOp7
 70
     1
102
RTVSPropertyOp8
 70
     1
102
RTVSPropertyOp9
 70
     1
102
RTVSPropertyOp10
 70
     1
102
RTVSPropertyOp11
 70
     1
102
RTVSPropertyOp12
 70
     1
102
RTVSPropertyOp13
 70
     1
102
RTVSPropertyOp14
 70
     1
102
RTVSPropertyOp15
 70
     1
102
RTVSPropertyOp16
 70
     1
102
RTVSPropertyOp17
 70
     1
102
RTVSPropertyOp18
 70
     1
102
RTVSPropertyOp19
 70
     1
102
RTVSPropertyOp20
 70
     1
102
RTVSPropertyOp21
 70
     1
102
RTVSPropertyOp22
 70
     1
102
RTVSPropertyOp23
 70
     1
102
RTVSPropertyOp24
 70
     1
102
RTVSPropertyOp25
 70
     1
102
RTVSPropertyOp26
 70
     1
102
RTVSPropertyOp27
 70
     1
102
RTVSPropertyOp28
 70
     1
102
RTVSPropertyOp29
 70
     1
102
RTVSPropertyOp30
 70
     1
102
RTVSPropertyOp31
 70
     1
102
RTVSPropertyOp32
 70
     1
102
RTVSPropertyOp33
 70
     1
102
RTVSPropertyOp34
 70
     1
102
RTVSPropertyOp35
 70
     1
102
RTVSPropertyOp36
 70
     1
102
RTVSPropertyOp37
 70
     1
102
RTVSPropertyOp38
 70
     1
102
RTVSPropertyOp39
 70
     1
102
RTVSPropertyOp40
 70
     1
102
RTVSPropertyOp41
 70
     1
102
RTVSPropertyOp42
 70
     1
102
RTVSPropertyOp43
 70
     1
102
RTVSPropertyOp44
 70
     1
102
RTVSPropertyOp45
 70
     1
102
RTVSPropertyOp46
 70
     1
102
RTVSPropertyOp47
 70
     1
102
RTVSPropertyOp48
 70
     1
102
RTVSPropertyOp49
 70
     1
102
RTVSPropertyOp50
 70
     1
102
RTVSPropertyOp51
 70
     0
102
RTVSPropertyOp52
 70
     0
102
RTVSPropertyOp53
 70
     1
102
RTVSPropertyOp54
 70
     1
102
RTVSPropertyOp55
 70
     1
102
RTVSPropertyOp56
 70
     1
102
RTVSPropertyOp57
 70
     1
102
RTVSPost2010Prop28
280
     0
102
RTVSPost2010PropOp28
 70
     1
102
RTVSPost2010Prop29
280
     1
102
RTVSPost2010PropOp29
 70
     1
102
RTVSPost2010Prop30
280
     1
102
RTVSPost2010PropOp30
 70
     1
102
RTVSPost2010Prop31
280
     0
102
RTVSPost2010PropOp31
 70
     1
102
RTVSPost2010Prop32
280
     0
102
RTVSPost2010PropOp32
 70
     1
102
RTVSPost2010Prop33
280
     0
102
RTVSPost2010PropOp33
 70
     1
102
RTVSPost2010Prop34
280
     0
102
RTVSPost2010PropOp34
 70
     1
102
RTVSPost2010Prop35
280
     0
102
RTVSPost2010PropOp35
 70
     1
102
RTVSPost2010Prop36
280
     0
102
RTVSPost2010PropOp36
 70
     1
102
RTVSPost2010Prop37
 90
       50
102
RTVSPost2010PropOp37
 70
     1
102
RTVSPost2010Prop38
140
0.0
102
RTVSPost2010PropOp38
 70
     1
102
RTVSPost2010Prop39
140
1.0
102
RTVSPost2010PropOp39
 70
     1
102
RTVSPost2010Prop40
 90
        0
102
RTVSPost2010PropOp40
 70
     1
102
RTVSPost2010Prop41ColorIndex
 90
      178
102
RTVSPost2010Prop41ColorRGB
 90
        0
102
RTVSPost2010PropOp41
 70
     1
102
RTVSPost2010Prop42
 90
       50
102
RTVSPost2010PropOp42
 70
     1
102
RTVSPost2010Prop43
 90
        3
102
RTVSPost2010PropOp43
 70
     1
102
RTVSPost2010Prop44ColorIndex
 90
        5
102
RTVSPost2010Prop44ColorRGB
 90
      255
102
RTVSPost2010PropOp44
 70
     1
102
RTVSPost2010Prop45
280
     0
102
RTVSPost2010PropOp45
 70
     1
102
RTVSPost2010Prop46
 90
       50
102
RTVSPost2010PropOp46
 70
     1
102
RTVSPost2010Prop47
 90
       50
102
RTVSPost2010PropOp47
 70
     1
102
RTVSPost2010Prop48
 90
       50
102
RTVSPost2010PropOp48
 70
     1
102
RTVSPost2010Prop49
280
     0
102
RTVSPost2010PropOp49
 70
     1
102
RTVSPost2010Prop50
 90
       50
102
RTVSPost2010PropOp50
 70
     1
102
RTVSPost2010Prop51ColorIndex
 90
      256
102
RTVSPost2010Prop51ColorRGB
 90
-16777216
102
RTVSPost2010PropOp51
 70
     0
102
RTVSPost2010Prop52
140
1.0
102
RTVSPost2010PropOp52
 70
     0
102
RTVSPost2010Prop53
 90
        2
102
RTVSPost2010PropOp53
 70
     1
102
RTVSPost2010Prop54
  1
strokes_ogs.tif
102
RTVSPost2010PropOp54
 70
     1
102
RTVSPost2010Prop55
280
     0
102
RTVSPost2010PropOp55
 70
     1
102
RTVSPost2010Prop56
140
1.0
102
RTVSPost2010PropOp56
 70
     1
102
RTVSPost2010Prop57
140
1.0
102
RTVSPost2010PropOp57
 70
     1
  0
XRECORD
  5
2D0
102
{ACAD_REACTORS
330
2CF
102
}
330
2CF
100
AcDbXrecord
280
     1
102
RTVSPropertyOp0
 70
     1
102
RTVSPropertyOp1
 70
     1
102
RTVSPropertyOp2
 70
     1
102
RTVSPropertyOp3
 70
     1
102
RTVSPropertyOp4
 70
     1
102
RTVSPropertyOp5
 70
     1
102
RTVSPropertyOp6
 70
     1
102
RTVSPropertyOp7
 70
     1
102
RTVSPropertyOp8
 70
     1
102
RTVSPropertyOp9
 70
     1
102
RTVSPropertyOp10
 70
     1
102
RTVSPropertyOp11
 70
     1
102
RTVSPropertyOp12
 70
     1
102
RTVSPropertyOp13
 70
     1
102
RTVSPropertyOp14
 70
     1
102
RTVSPropertyOp15
 70
     1
102
RTVSPropertyOp16
 70
     1
102
RTVSPropertyOp17
 70
     1
102
RTVSPropertyOp18
 70
     1
102
RTVSPropertyOp19
 70
     1
102
RTVSPropertyOp20
 70
     1
102
RTVSPropertyOp21
 70
     1
102
RTVSPropertyOp22
 70
     1
102
RTVSPropertyOp23
 70
     1
102
RTVSPropertyOp24
 70
     1
102
RTVSPropertyOp25
 70
     1
102
RTVSPropertyOp26
 70
     1
102
RTVSPropertyOp27
 70
     1
102
RTVSPropertyOp28
 70
     1
102
RTVSPropertyOp29
 70
     1
102
RTVSPropertyOp30
 70
     1
102
RTVSPropertyOp31
 70
     1
102
RTVSPropertyOp32
 70
     1
102
RTVSPropertyOp33
 70
     1
102
RTVSPropertyOp34
 70
     1
102
RTVSPropertyOp35
 70
     1
102
RTVSPropertyOp36
 70
     1
102
RTVSPropertyOp37
 70
     1
102
RTVSPropertyOp38
 70
     1
102
RTVSPropertyOp39
 70
     1
102
RTVSPropertyOp40
 70
     1
102
RTVSPropertyOp41
 70
     1
102
RTVSPropertyOp42
 70
     1
102
RTVSPropertyOp43
 70
     1
102
RTVSPropertyOp44
 70
     1
102
RTVSPropertyOp45
 70
     1
102
RTVSPropertyOp46
 70
     1
102
RTVSPropertyOp47
 70
     1
102
RTVSPropertyOp48
 70
     1
102
RTVSPropertyOp49
 70
     1
102
RTVSPropertyOp50
 70
     1
102
RTVSPropertyOp51
 70
     0
102
RTVSPropertyOp52
 70
     0
102
RTVSPropertyOp53
 70
     1
102
RTVSPropertyOp54
 70
     1
102
RTVSPropertyOp55
 70
     1
102
RTVSPropertyOp56
 70
     1
102
RTVSPropertyOp57
 70
     1
102
RTVSPost2010Prop28
280
     0
102
RTVSPost2010PropOp28
 70
     1
102
RTVSPost2010Prop29
280
     1
102
RTVSPost2010PropOp29
 70
     1
102
RTVSPost2010Prop30
280
     1
102
RTVSPost2010PropOp30
 70
     1
102
RTVSPost2010Prop31
280
     0
102
RTVSPost2010PropOp31
 70
     1
102
RTVSPost2010Prop32
280
     0
102
RTVSPost2010PropOp32
 70
     1
102
RTVSPost2010Prop33
280
     0
102
RTVSPost2010PropOp33
 70
     1
102
RTVSPost2010Prop34
280
     0
102
RTVSPost2010PropOp34
 70
     1
102
RTVSPost2010Prop35
280
     0
102
RTVSPost2010PropOp35
 70
     1
102
RTVSPost2010Prop36
280
     0
102
RTVSPost2010PropOp36
 70
     1
102
RTVSPost2010Prop37
 90
       50
102
RTVSPost2010PropOp37
 70
     1
102
RTVSPost2010Prop38
140
0.0
102
RTVSPost2010PropOp38
 70
     1
102
RTVSPost2010Prop39
140
1.0
102
RTVSPost2010PropOp39
 70
     1
102
RTVSPost2010Prop40
 90
        0
102
RTVSPost2010PropOp40
 70
     1
102
RTVSPost2010Prop41ColorIndex
 90
      178
102
RTVSPost2010Prop41ColorRGB
 90
        0
102
RTVSPost2010PropOp41
 70
     1
102
RTVSPost2010Prop42
 90
       50
102
RTVSPost2010PropOp42
 70
     1
102
RTVSPost2010Prop43
 90
        3
102
RTVSPost2010PropOp43
 70
     1
102
RTVSPost2010Prop44ColorIndex
 90
        5
102
RTVSPost2010Prop44ColorRGB
 90
      255
102
RTVSPost2010PropOp44
 70
     1
102
RTVSPost2010Prop45
280
     0
102
RTVSPost2010PropOp45
 70
     1
102
RTVSPost2010Prop46
 90
       50
102
RTVSPost2010PropOp46
 70
     1
102
RTVSPost2010Prop47
 90
       50
102
RTVSPost2010PropOp47
 70
     1
102
RTVSPost2010Prop48
 90
       50
102
RTVSPost2010PropOp48
 70
     1
102
RTVSPost2010Prop49
280
     0
102
RTVSPost2010PropOp49
 70
     1
102
RTVSPost2010Prop50
 90
       50
102
RTVSPost2010PropOp50
 70
     1
102
RTVSPost2010Prop51ColorIndex
 90
      256
102
RTVSPost2010Prop51ColorRGB
 90
-16777216
102
RTVSPost2010PropOp51
 70
     0
102
RTVSPost2010Prop52
140
1.0
102
RTVSPost2010PropOp52
 70
     0
102
RTVSPost2010Prop53
 90
        2
102
RTVSPost2010PropOp53
 70
     1
102
RTVSPost2010Prop54
  1
strokes_ogs.tif
102
RTVSPost2010PropOp54
 70
     1
102
RTVSPost2010Prop55
280
     0
102
RTVSPost2010PropOp55
 70
     1
102
RTVSPost2010Prop56
140
1.0
102
RTVSPost2010PropOp56
 70
     1
102
RTVSPost2010Prop57
140
1.0
102
RTVSPost2010PropOp57
 70
     1
  0
XRECORD
  5
2D8
102
{ACAD_REACTORS
330
2D7
102
}
330
2D7
100
AcDbXrecord
280
     1
102
RTVSPropertyOp0
 70
     1
102
RTVSPropertyOp1
 70
     1
102
RTVSPropertyOp2
 70
     1
102
RTVSPropertyOp3
 70
     1
102
RTVSPropertyOp4
 70
     1
102
RTVSPropertyOp5
 70
     1
102
RTVSPropertyOp6
 70
     1
102
RTVSPropertyOp7
 70
     1
102
RTVSPropertyOp8
 70
     1
102
RTVSPropertyOp9
 70
     1
102
RTVSPropertyOp10
 70
     1
102
RTVSPropertyOp11
 70
     1
102
RTVSPropertyOp12
 70
     1
102
RTVSPropertyOp13
 70
     1
102
RTVSPropertyOp14
 70
     1
102
RTVSPropertyOp15
 70
     1
102
RTVSPropertyOp16
 70
     1
102
RTVSPropertyOp17
 70
     1
102
RTVSPropertyOp18
 70
     1
102
RTVSPropertyOp19
 70
     1
102
RTVSPropertyOp20
 70
     1
102
RTVSPropertyOp21
 70
     1
102
RTVSPropertyOp22
 70
     1
102
RTVSPropertyOp23
 70
     1
102
RTVSPropertyOp24
 70
     1
102
RTVSPropertyOp25
 70
     1
102
RTVSPropertyOp26
 70
     1
102
RTVSPropertyOp27
 70
     1
102
RTVSPropertyOp28
 70
     1
102
RTVSPropertyOp29
 70
     1
102
RTVSPropertyOp30
 70
     1
102
RTVSPropertyOp31
 70
     1
102
RTVSPropertyOp32
 70
     1
102
RTVSPropertyOp33
 70
     1
102
RTVSPropertyOp34
 70
     1
102
RTVSPropertyOp35
 70
     1
102
RTVSPropertyOp36
 70
     1
102
RTVSPropertyOp37
 70
     1
102
RTVSPropertyOp38
 70
     1
102
RTVSPropertyOp39
 70
     1
102
RTVSPropertyOp40
 70
     1
102
RTVSPropertyOp41
 70
     1
102
RTVSPropertyOp42
 70
     1
102
RTVSPropertyOp43
 70
     1
102
RTVSPropertyOp44
 70
     1
102
RTVSPropertyOp45
 70
     1
102
RTVSPropertyOp46
 70
     1
102
RTVSPropertyOp47
 70
     1
102
RTVSPropertyOp48
 70
     1
102
RTVSPropertyOp49
 70
     1
102
RTVSPropertyOp50
 70
     1
102
RTVSPropertyOp51
 70
     0
102
RTVSPropertyOp52
 70
     0
102
RTVSPropertyOp53
 70
     1
102
RTVSPropertyOp54
 70
     1
102
RTVSPropertyOp55
 70
     1
102
RTVSPropertyOp56
 70
     1
102
RTVSPropertyOp57
 70
     1
102
RTVSPost2010Prop28
280
     0
102
RTVSPost2010PropOp28
 70
     1
102
RTVSPost2010Prop29
280
     1
102
RTVSPost2010PropOp29
 70
     1
102
RTVSPost2010Prop30
280
     1
102
RTVSPost2010PropOp30
 70
     1
102
RTVSPost2010Prop31
280
     0
102
RTVSPost2010PropOp31
 70
     1
102
RTVSPost2010Prop32
280
     0
102
RTVSPost2010PropOp32
 70
     1
102
RTVSPost2010Prop33
280
     0
102
RTVSPost2010PropOp33
 70
     1
102
RTVSPost2010Prop34
280
     0
102
RTVSPost2010PropOp34
 70
     1
102
RTVSPost2010Prop35
280
     0
102
RTVSPost2010PropOp35
 70
     1
102
RTVSPost2010Prop36
280
     0
102
RTVSPost2010PropOp36
 70
     1
102
RTVSPost2010Prop37
 90
       50
102
RTVSPost2010PropOp37
 70
     1
102
RTVSPost2010Prop38
140
0.0
102
RTVSPost2010PropOp38
 70
     1
102
RTVSPost2010Prop39
140
1.0
102
RTVSPost2010PropOp39
 70
     1
102
RTVSPost2010Prop40
 90
        0
102
RTVSPost2010PropOp40
 70
     1
102
RTVSPost2010Prop41ColorIndex
 90
      178
102
RTVSPost2010Prop41ColorRGB
 90
        0
102
RTVSPost2010PropOp41
 70
     1
102
RTVSPost2010Prop42
 90
       50
102
RTVSPost2010PropOp42
 70
     1
102
RTVSPost2010Prop43
 90
        3
102
RTVSPost2010PropOp43
 70
     1
102
RTVSPost2010Prop44ColorIndex
 90
        5
102
RTVSPost2010Prop44ColorRGB
 90
      255
102
RTVSPost2010PropOp44
 70
     1
102
RTVSPost2010Prop45
280
     0
102
RTVSPost2010PropOp45
 70
     1
102
RTVSPost2010Prop46
 90
       50
102
RTVSPost2010PropOp46
 70
     1
102
RTVSPost2010Prop47
 90
       50
102
RTVSPost2010PropOp47
 70
     1
102
RTVSPost2010Prop48
 90
       50
102
RTVSPost2010PropOp48
 70
     1
102
RTVSPost2010Prop49
280
     0
102
RTVSPost2010PropOp49
 70
     1
102
RTVSPost2010Prop50
 90
       50
102
RTVSPost2010PropOp50
 70
     1
102
RTVSPost2010Prop51ColorIndex
 90
      256
102
RTVSPost2010Prop51ColorRGB
 90
-16777216
102
RTVSPost2010PropOp51
 70
     0
102
RTVSPost2010Prop52
140
1.0
102
RTVSPost2010PropOp52
 70
     0
102
RTVSPost2010Prop53
 90
        2
102
RTVSPost2010PropOp53
 70
     1
102
RTVSPost2010Prop54
  1
strokes_ogs.tif
102
RTVSPost2010PropOp54
 70
     1
102
RTVSPost2010Prop55
280
     0
102
RTVSPost2010PropOp55
 70
     1
102
RTVSPost2010Prop56
140
1.0
102
RTVSPost2010PropOp56
 70
     1
102
RTVSPost2010Prop57
140
1.0
102
RTVSPost2010PropOp57
 70
     1
  0
XRECORD
  5
2CC
102
{ACAD_REACTORS
330
2CB
102
}
330
2CB
100
AcDbXrecord
280
     1
102
RTVSPropertyOp0
 70
     1
102
RTVSPropertyOp1
 70
     1
102
RTVSPropertyOp2
 70
     1
102
RTVSPropertyOp3
 70
     1
102
RTVSPropertyOp4
 70
     1
102
RTVSPropertyOp5
 70
     1
102
RTVSPropertyOp6
 70
     1
102
RTVSPropertyOp7
 70
     1
102
RTVSPropertyOp8
 70
     1
102
RTVSPropertyOp9
 70
     1
102
RTVSPropertyOp10
 70
     1
102
RTVSPropertyOp11
 70
     1
102
RTVSPropertyOp12
 70
     1
102
RTVSPropertyOp13
 70
     1
102
RTVSPropertyOp14
 70
     1
102
RTVSPropertyOp15
 70
     1
102
RTVSPropertyOp16
 70
     1
102
RTVSPropertyOp17
 70
     1
102
RTVSPropertyOp18
 70
     1
102
RTVSPropertyOp19
 70
     1
102
RTVSPropertyOp20
 70
     1
102
RTVSPropertyOp21
 70
     1
102
RTVSPropertyOp22
 70
     1
102
RTVSPropertyOp23
 70
     1
102
RTVSPropertyOp24
 70
     1
102
RTVSPropertyOp25
 70
     1
102
RTVSPropertyOp26
 70
     1
102
RTVSPropertyOp27
 70
     1
102
RTVSPropertyOp28
 70
     1
102
RTVSPropertyOp29
 70
     1
102
RTVSPropertyOp30
 70
     1
102
RTVSPropertyOp31
 70
     1
102
RTVSPropertyOp32
 70
     1
102
RTVSPropertyOp33
 70
     1
102
RTVSPropertyOp34
 70
     1
102
RTVSPropertyOp35
 70
     1
102
RTVSPropertyOp36
 70
     1
102
RTVSPropertyOp37
 70
     1
102
RTVSPropertyOp38
 70
     1
102
RTVSPropertyOp39
 70
     1
102
RTVSPropertyOp40
 70
     1
102
RTVSPropertyOp41
 70
     1
102
RTVSPropertyOp42
 70
     1
102
RTVSPropertyOp43
 70
     1
102
RTVSPropertyOp44
 70
     1
102
RTVSPropertyOp45
 70
     1
102
RTVSPropertyOp46
 70
     1
102
RTVSPropertyOp47
 70
     1
102
RTVSPropertyOp48
 70
     1
102
RTVSPropertyOp49
 70
     1
102
RTVSPropertyOp50
 70
     1
102
RTVSPropertyOp51
 70
     0
102
RTVSPropertyOp52
 70
     0
102
RTVSPropertyOp53
 70
     1
102
RTVSPropertyOp54
 70
     1
102
RTVSPropertyOp55
 70
     1
102
RTVSPropertyOp56
 70
     1
102
RTVSPropertyOp57
 70
     1
102
RTVSPost2010Prop28
280
     0
102
RTVSPost2010PropOp28
 70
     1
102
RTVSPost2010Prop29
280
     1
102
RTVSPost2010PropOp29
 70
     1
102
RTVSPost2010Prop30
280
     1
102
RTVSPost2010PropOp30
 70
     1
102
RTVSPost2010Prop31
280
     0
102
RTVSPost2010PropOp31
 70
     1
102
RTVSPost2010Prop32
280
     0
102
RTVSPost2010PropOp32
 70
     1
102
RTVSPost2010Prop33
280
     0
102
RTVSPost2010PropOp33
 70
     1
102
RTVSPost2010Prop34
280
     0
102
RTVSPost2010PropOp34
 70
     1
102
RTVSPost2010Prop35
280
     0
102
RTVSPost2010PropOp35
 70
     1
102
RTVSPost2010Prop36
280
     0
102
RTVSPost2010PropOp36
 70
     1
102
RTVSPost2010Prop37
 90
       50
102
RTVSPost2010PropOp37
 70
     1
102
RTVSPost2010Prop38
140
0.0
102
RTVSPost2010PropOp38
 70
     1
102
RTVSPost2010Prop39
140
1.0
102
RTVSPost2010PropOp39
 70
     1
102
RTVSPost2010Prop40
 90
        0
102
RTVSPost2010PropOp40
 70
     1
102
RTVSPost2010Prop41ColorIndex
 90
      178
102
RTVSPost2010Prop41ColorRGB
 90
        0
102
RTVSPost2010PropOp41
 70
     1
102
RTVSPost2010Prop42
 90
       50
102
RTVSPost2010PropOp42
 70
     1
102
RTVSPost2010Prop43
 90
        3
102
RTVSPost2010PropOp43
 70
     1
102
RTVSPost2010Prop44ColorIndex
 90
        5
102
RTVSPost2010Prop44ColorRGB
 90
      255
102
RTVSPost2010PropOp44
 70
     1
102
RTVSPost2010Prop45
280
     0
102
RTVSPost2010PropOp45
 70
     1
102
RTVSPost2010Prop46
 90
       50
102
RTVSPost2010PropOp46
 70
     1
102
RTVSPost2010Prop47
 90
       50
102
RTVSPost2010PropOp47
 70
     1
102
RTVSPost2010Prop48
 90
       50
102
RTVSPost2010PropOp48
 70
     1
102
RTVSPost2010Prop49
280
     0
102
RTVSPost2010PropOp49
 70
     1
102
RTVSPost2010Prop50
 90
       50
102
RTVSPost2010PropOp50
 70
     1
102
RTVSPost2010Prop51ColorIndex
 90
      256
102
RTVSPost2010Prop51ColorRGB
 90
-16777216
102
RTVSPost2010PropOp51
 70
     0
102
RTVSPost2010Prop52
140
1.0
102
RTVSPost2010PropOp52
 70
     0
102
RTVSPost2010Prop53
 90
        2
102
RTVSPost2010PropOp53
 70
     1
102
RTVSPost2010Prop54
  1
strokes_ogs.tif
102
RTVSPost2010PropOp54
 70
     1
102
RTVSPost2010Prop55
280
     0
102
RTVSPost2010PropOp55
 70
     1
102
RTVSPost2010Prop56
140
1.0
102
RTVSPost2010PropOp56
 70
     1
102
RTVSPost2010Prop57
140
1.0
102
RTVSPost2010PropOp57
 70
     1
  0
XRECORD
  5
2CE
102
{ACAD_REACTORS
330
2CD
102
}
330
2CD
100
AcDbXrecord
280
     1
102
RTVSPropertyOp0
 70
     1
102
RTVSPropertyOp1
 70
     1
102
RTVSPropertyOp2
 70
     1
102
RTVSPropertyOp3
 70
     1
102
RTVSPropertyOp4
 70
     1
102
RTVSPropertyOp5
 70
     1
102
RTVSPropertyOp6
 70
     1
102
RTVSPropertyOp7
 70
     1
102
RTVSPropertyOp8
 70
     1
102
RTVSPropertyOp9
 70
     1
102
RTVSPropertyOp10
 70
     1
102
RTVSPropertyOp11
 70
     1
102
RTVSPropertyOp12
 70
     1
102
RTVSPropertyOp13
 70
     1
102
RTVSPropertyOp14
 70
     1
102
RTVSPropertyOp15
 70
     1
102
RTVSPropertyOp16
 70
     1
102
RTVSPropertyOp17
 70
     1
102
RTVSPropertyOp18
 70
     1
102
RTVSPropertyOp19
 70
     1
102
RTVSPropertyOp20
 70
     1
102
RTVSPropertyOp21
 70
     1
102
RTVSPropertyOp22
 70
     1
102
RTVSPropertyOp23
 70
     1
102
RTVSPropertyOp24
 70
     1
102
RTVSPropertyOp25
 70
     1
102
RTVSPropertyOp26
 70
     1
102
RTVSPropertyOp27
 70
     1
102
RTVSPropertyOp28
 70
     1
102
RTVSPropertyOp29
 70
     1
102
RTVSPropertyOp30
 70
     1
102
RTVSPropertyOp31
 70
     1
102
RTVSPropertyOp32
 70
     1
102
RTVSPropertyOp33
 70
     1
102
RTVSPropertyOp34
 70
     1
102
RTVSPropertyOp35
 70
     1
102
RTVSPropertyOp36
 70
     1
102
RTVSPropertyOp37
 70
     1
102
RTVSPropertyOp38
 70
     1
102
RTVSPropertyOp39
 70
     1
102
RTVSPropertyOp40
 70
     1
102
RTVSPropertyOp41
 70
     1
102
RTVSPropertyOp42
 70
     1
102
RTVSPropertyOp43
 70
     1
102
RTVSPropertyOp44
 70
     1
102
RTVSPropertyOp45
 70
     1
102
RTVSPropertyOp46
 70
     1
102
RTVSPropertyOp47
 70
     1
102
RTVSPropertyOp48
 70
     1
102
RTVSPropertyOp49
 70
     1
102
RTVSPropertyOp50
 70
     1
102
RTVSPropertyOp51
 70
     0
102
RTVSPropertyOp52
 70
     0
102
RTVSPropertyOp53
 70
     1
102
RTVSPropertyOp54
 70
     1
102
RTVSPropertyOp55
 70
     1
102
RTVSPropertyOp56
 70
     1
102
RTVSPropertyOp57
 70
     1
102
RTVSPost2010Prop28
280
     0
102
RTVSPost2010PropOp28
 70
     1
102
RTVSPost2010Prop29
280
     1
102
RTVSPost2010PropOp29
 70
     1
102
RTVSPost2010Prop30
280
     1
102
RTVSPost2010PropOp30
 70
     1
102
RTVSPost2010Prop31
280
     0
102
RTVSPost2010PropOp31
 70
     1
102
RTVSPost2010Prop32
280
     0
102
RTVSPost2010PropOp32
 70
     1
102
RTVSPost2010Prop33
280
     0
102
RTVSPost2010PropOp33
 70
     1
102
RTVSPost2010Prop34
280
     0
102
RTVSPost2010PropOp34
 70
     1
102
RTVSPost2010Prop35
280
     0
102
RTVSPost2010PropOp35
 70
     1
102
RTVSPost2010Prop36
280
     0
102
RTVSPost2010PropOp36
 70
     1
102
RTVSPost2010Prop37
 90
       50
102
RTVSPost2010PropOp37
 70
     1
102
RTVSPost2010Prop38
140
0.0
102
RTVSPost2010PropOp38
 70
     1
102
RTVSPost2010Prop39
140
1.0
102
RTVSPost2010PropOp39
 70
     1
102
RTVSPost2010Prop40
 90
        0
102
RTVSPost2010PropOp40
 70
     1
102
RTVSPost2010Prop41ColorIndex
 90
      178
102
RTVSPost2010Prop41ColorRGB
 90
        0
102
RTVSPost2010PropOp41
 70
     1
102
RTVSPost2010Prop42
 90
       50
102
RTVSPost2010PropOp42
 70
     1
102
RTVSPost2010Prop43
 90
        3
102
RTVSPost2010PropOp43
 70
     1
102
RTVSPost2010Prop44ColorIndex
 90
        5
102
RTVSPost2010Prop44ColorRGB
 90
      255
102
RTVSPost2010PropOp44
 70
     1
102
RTVSPost2010Prop45
280
     0
102
RTVSPost2010PropOp45
 70
     1
102
RTVSPost2010Prop46
 90
       50
102
RTVSPost2010PropOp46
 70
     1
102
RTVSPost2010Prop47
 90
       50
102
RTVSPost2010PropOp47
 70
     1
102
RTVSPost2010Prop48
 90
       50
102
RTVSPost2010PropOp48
 70
     1
102
RTVSPost2010Prop49
280
     0
102
RTVSPost2010PropOp49
 70
     1
102
RTVSPost2010Prop50
 90
       50
102
RTVSPost2010PropOp50
 70
     1
102
RTVSPost2010Prop51ColorIndex
 90
      256
102
RTVSPost2010Prop51ColorRGB
 90
-16777216
102
RTVSPost2010PropOp51
 70
     0
102
RTVSPost2010Prop52
140
1.0
102
RTVSPost2010PropOp52
 70
     0
102
RTVSPost2010Prop53
 90
        2
102
RTVSPost2010PropOp53
 70
     1
102
RTVSPost2010Prop54
  1
strokes_ogs.tif
102
RTVSPost2010PropOp54
 70
     1
102
RTVSPost2010Prop55
280
     0
102
RTVSPost2010PropOp55
 70
     1
102
RTVSPost2010Prop56
140
1.0
102
RTVSPost2010PropOp56
 70
     1
102
RTVSPost2010Prop57
140
1.0
102
RTVSPost2010PropOp57
 70
     1
  0
XRECORD
  5
2DE
102
{ACAD_REACTORS
330
2DD
102
}
330
2DD
100
AcDbXrecord
280
     1
102
RTVSPropertyOp0
 70
     0
102
RTVSPropertyOp1
 70
     0
102
RTVSPropertyOp2
 70
     0
102
RTVSPropertyOp3
 70
     0
102
RTVSPropertyOp4
 70
     0
102
RTVSPropertyOp5
 70
     0
102
RTVSPropertyOp6
 70
     0
102
RTVSPropertyOp7
 70
     0
102
RTVSPropertyOp8
 70
     0
102
RTVSPropertyOp9
 70
     0
102
RTVSPropertyOp10
 70
     0
102
RTVSPropertyOp11
 70
     0
102
RTVSPropertyOp12
 70
     0
102
RTVSPropertyOp13
 70
     0
102
RTVSPropertyOp14
 70
     2
102
RTVSPropertyOp15
 70
     0
102
RTVSPropertyOp16
 70
     0
102
RTVSPropertyOp17
 70
     0
102
RTVSPropertyOp18
 70
     0
102
RTVSPropertyOp19
 70
     0
102
RTVSPropertyOp20
 70
     0
102
RTVSPropertyOp21
 70
     0
102
RTVSPropertyOp22
 70
     0
102
RTVSPropertyOp23
 70
     0
102
RTVSPropertyOp24
 70
     0
102
RTVSPropertyOp25
 70
     0
102
RTVSPropertyOp26
 70
     0
102
RTVSPropertyOp27
 70
     0
102
RTVSPropertyOp28
 70
     0
102
RTVSPropertyOp29
 70
     0
102
RTVSPropertyOp30
 70
     0
102
RTVSPropertyOp31
 70
     0
102
RTVSPropertyOp32
 70
     0
102
RTVSPropertyOp33
 70
     0
102
RTVSPropertyOp34
 70
     0
102
RTVSPropertyOp35
 70
     0
102
RTVSPropertyOp36
 70
     0
102
RTVSPropertyOp37
 70
     0
102
RTVSPropertyOp38
 70
     0
102
RTVSPropertyOp39
 70
     0
102
RTVSPropertyOp40
 70
     0
102
RTVSPropertyOp41
 70
     0
102
RTVSPropertyOp42
 70
     0
102
RTVSPropertyOp43
 70
     0
102
RTVSPropertyOp44
 70
     0
102
RTVSPropertyOp45
 70
     0
102
RTVSPropertyOp46
 70
     0
102
RTVSPropertyOp47
 70
     0
102
RTVSPropertyOp48
 70
     0
102
RTVSPropertyOp49
 70
     0
102
RTVSPropertyOp50
 70
     0
102
RTVSPropertyOp51
 70
     0
102
RTVSPropertyOp52
 70
     0
102
RTVSPropertyOp53
 70
     0
102
RTVSPropertyOp54
 70
     0
102
RTVSPropertyOp55
 70
     0
102
RTVSPropertyOp56
 70
     0
102
RTVSPropertyOp57
 70
     0
102
RTVSPost2010Prop28
280
     0
102
RTVSPost2010PropOp28
 70
     0
102
RTVSPost2010Prop29
280
     1
102
RTVSPost2010PropOp29
 70
     0
102
RTVSPost2010Prop30
280
     1
102
RTVSPost2010PropOp30
 70
     0
102
RTVSPost2010Prop31
280
     0
102
RTVSPost2010PropOp31
 70
     0
102
RTVSPost2010Prop32
280
     0
102
RTVSPost2010PropOp32
 70
     0
102
RTVSPost2010Prop33
280
     0
102
RTVSPost2010PropOp33
 70
     0
102
RTVSPost2010Prop34
280
     0
102
RTVSPost2010PropOp34
 70
     0
102
RTVSPost2010Prop35
280
     0
102
RTVSPost2010PropOp35
 70
     0
102
RTVSPost2010Prop36
280
     0
102
RTVSPost2010PropOp36
 70
     0
102
RTVSPost2010Prop37
 90
       50
102
RTVSPost2010PropOp37
 70
     0
102
RTVSPost2010Prop38
140
0.0
102
RTVSPost2010PropOp38
 70
     0
102
RTVSPost2010Prop39
140
1.0
102
RTVSPost2010PropOp39
 70
     0
102
RTVSPost2010Prop40
 90
        0
102
RTVSPost2010PropOp40
 70
     0
102
RTVSPost2010Prop41ColorIndex
 90
      178
102
RTVSPost2010Prop41ColorRGB
 90
        0
102
RTVSPost2010PropOp41
 70
     0
102
RTVSPost2010Prop42
 90
       50
102
RTVSPost2010PropOp42
 70
     0
102
RTVSPost2010Prop43
 90
        3
102
RTVSPost2010PropOp43
 70
     0
102
RTVSPost2010Prop44ColorIndex
 90
        5
102
RTVSPost2010Prop44ColorRGB
 90
      255
102
RTVSPost2010PropOp44
 70
     0
102
RTVSPost2010Prop45
280
     0
102
RTVSPost2010PropOp45
 70
     0
102
RTVSPost2010Prop46
 90
       50
102
RTVSPost2010PropOp46
 70
     0
102
RTVSPost2010Prop47
 90
       50
102
RTVSPost2010PropOp47
 70
     0
102
RTVSPost2010Prop48
 90
       50
102
RTVSPost2010PropOp48
 70
     0
102
RTVSPost2010Prop49
280
     0
102
RTVSPost2010PropOp49
 70
     0
102
RTVSPost2010Prop50
 90
       50
102
RTVSPost2010PropOp50
 70
     0
102
RTVSPost2010Prop51ColorIndex
 90
      256
102
RTVSPost2010Prop51ColorRGB
 90
-16777216
102
RTVSPost2010PropOp51
 70
     0
102
RTVSPost2010Prop52
140
1.0
102
RTVSPost2010PropOp52
 70
     0
102
RTVSPost2010Prop53
 90
        2
102
RTVSPost2010PropOp53
 70
     0
102
RTVSPost2010Prop54
  1
strokes_ogs.tif
102
RTVSPost2010PropOp54
 70
     0
102
RTVSPost2010Prop55
280
     0
102
RTVSPost2010PropOp55
 70
     0
102
RTVSPost2010Prop56
140
1.0
102
RTVSPost2010PropOp56
 70
     0
102
RTVSPost2010Prop57
140
1.0
102
RTVSPost2010PropOp57
 70
     0
  0
XRECORD
  5
2D6
102
{ACAD_REACTORS
330
2D5
102
}
330
2D5
100
AcDbXrecord
280
     1
102
RTVSPropertyOp0
 70
     1
102
RTVSPropertyOp1
 70
     1
102
RTVSPropertyOp2
 70
     1
102
RTVSPropertyOp3
 70
     1
102
RTVSPropertyOp4
 70
     1
102
RTVSPropertyOp5
 70
     1
102
RTVSPropertyOp6
 70
     1
102
RTVSPropertyOp7
 70
     1
102
RTVSPropertyOp8
 70
     1
102
RTVSPropertyOp9
 70
     1
102
RTVSPropertyOp10
 70
     1
102
RTVSPropertyOp11
 70
     1
102
RTVSPropertyOp12
 70
     1
102
RTVSPropertyOp13
 70
     1
102
RTVSPropertyOp14
 70
     1
102
RTVSPropertyOp15
 70
     1
102
RTVSPropertyOp16
 70
     1
102
RTVSPropertyOp17
 70
     1
102
RTVSPropertyOp18
 70
     1
102
RTVSPropertyOp19
 70
     1
102
RTVSPropertyOp20
 70
     1
102
RTVSPropertyOp21
 70
     1
102
RTVSPropertyOp22
 70
     1
102
RTVSPropertyOp23
 70
     1
102
RTVSPropertyOp24
 70
     1
102
RTVSPropertyOp25
 70
     1
102
RTVSPropertyOp26
 70
     1
102
RTVSPropertyOp27
 70
     1
102
RTVSPropertyOp28
 70
     1
102
RTVSPropertyOp29
 70
     1
102
RTVSPropertyOp30
 70
     1
102
RTVSPropertyOp31
 70
     1
102
RTVSPropertyOp32
 70
     1
102
RTVSPropertyOp33
 70
     1
102
RTVSPropertyOp34
 70
     1
102
RTVSPropertyOp35
 70
     1
102
RTVSPropertyOp36
 70
     1
102
RTVSPropertyOp37
 70
     1
102
RTVSPropertyOp38
 70
     1
102
RTVSPropertyOp39
 70
     1
102
RTVSPropertyOp40
 70
     1
102
RTVSPropertyOp41
 70
     1
102
RTVSPropertyOp42
 70
     1
102
RTVSPropertyOp43
 70
     1
102
RTVSPropertyOp44
 70
     1
102
RTVSPropertyOp45
 70
     1
102
RTVSPropertyOp46
 70
     1
102
RTVSPropertyOp47
 70
     1
102
RTVSPropertyOp48
 70
     1
102
RTVSPropertyOp49
 70
     1
102
RTVSPropertyOp50
 70
     1
102
RTVSPropertyOp51
 70
     0
102
RTVSPropertyOp52
 70
     0
102
RTVSPropertyOp53
 70
     1
102
RTVSPropertyOp54
 70
     1
102
RTVSPropertyOp55
 70
     1
102
RTVSPropertyOp56
 70
     1
102
RTVSPropertyOp57
 70
     1
102
RTVSPost2010Prop28
280
     0
102
RTVSPost2010PropOp28
 70
     1
102
RTVSPost2010Prop29
280
     1
102
RTVSPost2010PropOp29
 70
     1
102
RTVSPost2010Prop30
280
     1
102
RTVSPost2010PropOp30
 70
     1
102
RTVSPost2010Prop31
280
     0
102
RTVSPost2010PropOp31
 70
     1
102
RTVSPost2010Prop32
280
     0
102
RTVSPost2010PropOp32
 70
     1
102
RTVSPost2010Prop33
280
     0
102
RTVSPost2010PropOp33
 70
     1
102
RTVSPost2010Prop34
280
     0
102
RTVSPost2010PropOp34
 70
     1
102
RTVSPost2010Prop35
280
     0
102
RTVSPost2010PropOp35
 70
     1
102
RTVSPost2010Prop36
280
     0
102
RTVSPost2010PropOp36
 70
     1
102
RTVSPost2010Prop37
 90
       50
102
RTVSPost2010PropOp37
 70
     1
102
RTVSPost2010Prop38
140
0.0
102
RTVSPost2010PropOp38
 70
     1
102
RTVSPost2010Prop39
140
1.0
102
RTVSPost2010PropOp39
 70
     1
102
RTVSPost2010Prop40
 90
        0
102
RTVSPost2010PropOp40
 70
     1
102
RTVSPost2010Prop41ColorIndex
 90
      178
102
RTVSPost2010Prop41ColorRGB
 90
        0
102
RTVSPost2010PropOp41
 70
     1
102
RTVSPost2010Prop42
 90
       50
102
RTVSPost2010PropOp42
 70
     1
102
RTVSPost2010Prop43
 90
        3
102
RTVSPost2010PropOp43
 70
     1
102
RTVSPost2010Prop44ColorIndex
 90
        5
102
RTVSPost2010Prop44ColorRGB
 90
      255
102
RTVSPost2010PropOp44
 70
     1
102
RTVSPost2010Prop45
280
     0
102
RTVSPost2010PropOp45
 70
     1
102
RTVSPost2010Prop46
 90
       50
102
RTVSPost2010PropOp46
 70
     1
102
RTVSPost2010Prop47
 90
       50
102
RTVSPost2010PropOp47
 70
     1
102
RTVSPost2010Prop48
 90
       50
102
RTVSPost2010PropOp48
 70
     1
102
RTVSPost2010Prop49
280
     0
102
RTVSPost2010PropOp49
 70
     1
102
RTVSPost2010Prop50
 90
       50
102
RTVSPost2010PropOp50
 70
     1
102
RTVSPost2010Prop51ColorIndex
 90
      256
102
RTVSPost2010Prop51ColorRGB
 90
-16777216
102
RTVSPost2010PropOp51
 70
     0
102
RTVSPost2010Prop52
140
1.0
102
RTVSPost2010PropOp52
 70
     0
102
RTVSPost2010Prop53
 90
        2
102
RTVSPost2010PropOp53
 70
     1
102
RTVSPost2010Prop54
  1
strokes_ogs.tif
102
RTVSPost2010PropOp54
 70
     1
102
RTVSPost2010Prop55
280
     0
102
RTVSPost2010PropOp55
 70
     1
102
RTVSPost2010Prop56
140
1.0
102
RTVSPost2010PropOp56
 70
     1
102
RTVSPost2010Prop57
140
1.0
102
RTVSPost2010PropOp57
 70
     1
  0
XRECORD
  5
2BA
102
{ACAD_REACTORS
330
2B9
102
}
330
2B9
100
AcDbXrecord
280
     1
102
RTVSPropertyOp0
 70
     1
102
RTVSPropertyOp1
 70
     1
102
RTVSPropertyOp2
 70
     1
102
RTVSPropertyOp3
 70
     1
102
RTVSPropertyOp4
 70
     1
102
RTVSPropertyOp5
 70
     1
102
RTVSPropertyOp6
 70
     1
102
RTVSPropertyOp7
 70
     1
102
RTVSPropertyOp8
 70
     1
102
RTVSPropertyOp9
 70
     1
102
RTVSPropertyOp10
 70
     1
102
RTVSPropertyOp11
 70
     1
102
RTVSPropertyOp12
 70
     1
102
RTVSPropertyOp13
 70
     1
102
RTVSPropertyOp14
 70
     1
102
RTVSPropertyOp15
 70
     1
102
RTVSPropertyOp16
 70
     1
102
RTVSPropertyOp17
 70
     1
102
RTVSPropertyOp18
 70
     1
102
RTVSPropertyOp19
 70
     1
102
RTVSPropertyOp20
 70
     1
102
RTVSPropertyOp21
 70
     1
102
RTVSPropertyOp22
 70
     1
102
RTVSPropertyOp23
 70
     1
102
RTVSPropertyOp24
 70
     1
102
RTVSPropertyOp25
 70
     1
102
RTVSPropertyOp26
 70
     1
102
RTVSPropertyOp27
 70
     1
102
RTVSPropertyOp28
 70
     1
102
RTVSPropertyOp29
 70
     1
102
RTVSPropertyOp30
 70
     1
102
RTVSPropertyOp31
 70
     1
102
RTVSPropertyOp32
 70
     1
102
RTVSPropertyOp33
 70
     1
102
RTVSPropertyOp34
 70
     1
102
RTVSPropertyOp35
 70
     1
102
RTVSPropertyOp36
 70
     1
102
RTVSPropertyOp37
 70
     1
102
RTVSPropertyOp38
 70
     1
102
RTVSPropertyOp39
 70
     1
102
RTVSPropertyOp40
 70
     1
102
RTVSPropertyOp41
 70
     1
102
RTVSPropertyOp42
 70
     1
102
RTVSPropertyOp43
 70
     1
102
RTVSPropertyOp44
 70
     1
102
RTVSPropertyOp45
 70
     1
102
RTVSPropertyOp46
 70
     1
102
RTVSPropertyOp47
 70
     1
102
RTVSPropertyOp48
 70
     1
102
RTVSPropertyOp49
 70
     1
102
RTVSPropertyOp50
 70
     1
102
RTVSPropertyOp51
 70
     0
102
RTVSPropertyOp52
 70
     0
102
RTVSPropertyOp53
 70
     1
102
RTVSPropertyOp54
 70
     1
102
RTVSPropertyOp55
 70
     1
102
RTVSPropertyOp56
 70
     1
102
RTVSPropertyOp57
 70
     1
102
RTVSPost2010Prop28
280
     0
102
RTVSPost2010PropOp28
 70
     1
102
RTVSPost2010Prop29
280
     1
102
RTVSPost2010PropOp29
 70
     1
102
RTVSPost2010Prop30
280
     1
102
RTVSPost2010PropOp30
 70
     1
102
RTVSPost2010Prop31
280
     0
102
RTVSPost2010PropOp31
 70
     1
102
RTVSPost2010Prop32
280
     0
102
RTVSPost2010PropOp32
 70
     1
102
RTVSPost2010Prop33
280
     0
102
RTVSPost2010PropOp33
 70
     1
102
RTVSPost2010Prop34
280
     0
102
RTVSPost2010PropOp34
 70
     1
102
RTVSPost2010Prop35
280
     0
102
RTVSPost2010PropOp35
 70
     1
102
RTVSPost2010Prop36
280
     0
102
RTVSPost2010PropOp36
 70
     1
102
RTVSPost2010Prop37
 90
       50
102
RTVSPost2010PropOp37
 70
     1
102
RTVSPost2010Prop38
140
0.0
102
RTVSPost2010PropOp38
 70
     1
102
RTVSPost2010Prop39
140
1.0
102
RTVSPost2010PropOp39
 70
     1
102
RTVSPost2010Prop40
 90
        0
102
RTVSPost2010PropOp40
 70
     1
102
RTVSPost2010Prop41ColorIndex
 90
      178
102
RTVSPost2010Prop41ColorRGB
 90
        0
102
RTVSPost2010PropOp41
 70
     1
102
RTVSPost2010Prop42
 90
       50
102
RTVSPost2010PropOp42
 70
     1
102
RTVSPost2010Prop43
 90
        3
102
RTVSPost2010PropOp43
 70
     1
102
RTVSPost2010Prop44ColorIndex
 90
        5
102
RTVSPost2010Prop44ColorRGB
 90
      255
102
RTVSPost2010PropOp44
 70
     1
102
RTVSPost2010Prop45
280
     0
102
RTVSPost2010PropOp45
 70
     1
102
RTVSPost2010Prop46
 90
       50
102
RTVSPost2010PropOp46
 70
     1
102
RTVSPost2010Prop47
 90
       50
102
RTVSPost2010PropOp47
 70
     1
102
RTVSPost2010Prop48
 90
       50
102
RTVSPost2010PropOp48
 70
     1
102
RTVSPost2010Prop49
280
     0
102
RTVSPost2010PropOp49
 70
     1
102
RTVSPost2010Prop50
 90
       50
102
RTVSPost2010PropOp50
 70
     1
102
RTVSPost2010Prop51ColorIndex
 90
      256
102
RTVSPost2010Prop51ColorRGB
 90
-16777216
102
RTVSPost2010PropOp51
 70
     0
102
RTVSPost2010Prop52
140
1.0
102
RTVSPost2010PropOp52
 70
     0
102
RTVSPost2010Prop53
 90
        2
102
RTVSPost2010PropOp53
 70
     1
102
RTVSPost2010Prop54
  1
strokes_ogs.tif
102
RTVSPost2010PropOp54
 70
     1
102
RTVSPost2010Prop55
280
     0
102
RTVSPost2010PropOp55
 70
     1
102
RTVSPost2010Prop56
140
1.0
102
RTVSPost2010PropOp56
 70
     1
102
RTVSPost2010Prop57
140
1.0
102
RTVSPost2010PropOp57
 70
     1
  0
XRECORD
  5
2BC
102
{ACAD_REACTORS
330
2BB
102
}
330
2BB
100
AcDbXrecord
280
     1
102
RTVSPropertyOp0
 70
     1
102
RTVSPropertyOp1
 70
     1
102
RTVSPropertyOp2
 70
     1
102
RTVSPropertyOp3
 70
     1
102
RTVSPropertyOp4
 70
     1
102
RTVSPropertyOp5
 70
     1
102
RTVSPropertyOp6
 70
     1
102
RTVSPropertyOp7
 70
     1
102
RTVSPropertyOp8
 70
     1
102
RTVSPropertyOp9
 70
     1
102
RTVSPropertyOp10
 70
     1
102
RTVSPropertyOp11
 70
     1
102
RTVSPropertyOp12
 70
     1
102
RTVSPropertyOp13
 70
     1
102
RTVSPropertyOp14
 70
     1
102
RTVSPropertyOp15
 70
     1
102
RTVSPropertyOp16
 70
     1
102
RTVSPropertyOp17
 70
     1
102
RTVSPropertyOp18
 70
     1
102
RTVSPropertyOp19
 70
     1
102
RTVSPropertyOp20
 70
     1
102
RTVSPropertyOp21
 70
     1
102
RTVSPropertyOp22
 70
     1
102
RTVSPropertyOp23
 70
     1
102
RTVSPropertyOp24
 70
     1
102
RTVSPropertyOp25
 70
     1
102
RTVSPropertyOp26
 70
     1
102
RTVSPropertyOp27
 70
     1
102
RTVSPropertyOp28
 70
     1
102
RTVSPropertyOp29
 70
     1
102
RTVSPropertyOp30
 70
     1
102
RTVSPropertyOp31
 70
     1
102
RTVSPropertyOp32
 70
     1
102
RTVSPropertyOp33
 70
     1
102
RTVSPropertyOp34
 70
     1
102
RTVSPropertyOp35
 70
     1
102
RTVSPropertyOp36
 70
     1
102
RTVSPropertyOp37
 70
     1
102
RTVSPropertyOp38
 70
     1
102
RTVSPropertyOp39
 70
     1
102
RTVSPropertyOp40
 70
     1
102
RTVSPropertyOp41
 70
     1
102
RTVSPropertyOp42
 70
     1
102
RTVSPropertyOp43
 70
     1
102
RTVSPropertyOp44
 70
     1
102
RTVSPropertyOp45
 70
     1
102
RTVSPropertyOp46
 70
     1
102
RTVSPropertyOp47
 70
     1
102
RTVSPropertyOp48
 70
     1
102
RTVSPropertyOp49
 70
     1
102
RTVSPropertyOp50
 70
     1
102
RTVSPropertyOp51
 70
     0
102
RTVSPropertyOp52
 70
     0
102
RTVSPropertyOp53
 70
     1
102
RTVSPropertyOp54
 70
     1
102
RTVSPropertyOp55
 70
     1
102
RTVSPropertyOp56
 70
     1
102
RTVSPropertyOp57
 70
     1
102
RTVSPost2010Prop28
280
     0
102
RTVSPost2010PropOp28
 70
     1
102
RTVSPost2010Prop29
280
     1
102
RTVSPost2010PropOp29
 70
     1
102
RTVSPost2010Prop30
280
     1
102
RTVSPost2010PropOp30
 70
     1
102
RTVSPost2010Prop31
280
     0
102
RTVSPost2010PropOp31
 70
     1
102
RTVSPost2010Prop32
280
     0
102
RTVSPost2010PropOp32
 70
     1
102
RTVSPost2010Prop33
280
     0
102
RTVSPost2010PropOp33
 70
     1
102
RTVSPost2010Prop34
280
     0
102
RTVSPost2010PropOp34
 70
     1
102
RTVSPost2010Prop35
280
     0
102
RTVSPost2010PropOp35
 70
     1
102
RTVSPost2010Prop36
280
     0
102
RTVSPost2010PropOp36
 70
     1
102
RTVSPost2010Prop37
 90
       50
102
RTVSPost2010PropOp37
 70
     1
102
RTVSPost2010Prop38
140
0.0
102
RTVSPost2010PropOp38
 70
     1
102
RTVSPost2010Prop39
140
1.0
102
RTVSPost2010PropOp39
 70
     1
102
RTVSPost2010Prop40
 90
        0
102
RTVSPost2010PropOp40
 70
     1
102
RTVSPost2010Prop41ColorIndex
 90
      178
102
RTVSPost2010Prop41ColorRGB
 90
        0
102
RTVSPost2010PropOp41
 70
     1
102
RTVSPost2010Prop42
 90
       50
102
RTVSPost2010PropOp42
 70
     1
102
RTVSPost2010Prop43
 90
        3
102
RTVSPost2010PropOp43
 70
     1
102
RTVSPost2010Prop44ColorIndex
 90
        5
102
RTVSPost2010Prop44ColorRGB
 90
      255
102
RTVSPost2010PropOp44
 70
     1
102
RTVSPost2010Prop45
280
     0
102
RTVSPost2010PropOp45
 70
     1
102
RTVSPost2010Prop46
 90
       50
102
RTVSPost2010PropOp46
 70
     1
102
RTVSPost2010Prop47
 90
       50
102
RTVSPost2010PropOp47
 70
     1
102
RTVSPost2010Prop48
 90
       50
102
RTVSPost2010PropOp48
 70
     1
102
RTVSPost2010Prop49
280
     0
102
RTVSPost2010PropOp49
 70
     1
102
RTVSPost2010Prop50
 90
       50
102
RTVSPost2010PropOp50
 70
     1
102
RTVSPost2010Prop51ColorIndex
 90
      256
102
RTVSPost2010Prop51ColorRGB
 90
-16777216
102
RTVSPost2010PropOp51
 70
     0
102
RTVSPost2010Prop52
140
1.0
102
RTVSPost2010PropOp52
 70
     0
102
RTVSPost2010Prop53
 90
        2
102
RTVSPost2010PropOp53
 70
     1
102
RTVSPost2010Prop54
  1
strokes_ogs.tif
102
RTVSPost2010PropOp54
 70
     1
102
RTVSPost2010Prop55
280
     0
102
RTVSPost2010PropOp55
 70
     1
102
RTVSPost2010Prop56
140
1.0
102
RTVSPost2010PropOp56
 70
     1
102
RTVSPost2010Prop57
140
1.0
102
RTVSPost2010PropOp57
 70
     1
  0
XRECORD
  5
2BE
102
{ACAD_REACTORS
330
2BD
102
}
330
2BD
100
AcDbXrecord
280
     1
102
RTVSPropertyOp0
 70
     1
102
RTVSPropertyOp1
 70
     1
102
RTVSPropertyOp2
 70
     1
102
RTVSPropertyOp3
 70
     1
102
RTVSPropertyOp4
 70
     1
102
RTVSPropertyOp5
 70
     1
102
RTVSPropertyOp6
 70
     1
102
RTVSPropertyOp7
 70
     1
102
RTVSPropertyOp8
 70
     1
102
RTVSPropertyOp9
 70
     1
102
RTVSPropertyOp10
 70
     1
102
RTVSPropertyOp11
 70
     1
102
RTVSPropertyOp12
 70
     1
102
RTVSPropertyOp13
 70
     1
102
RTVSPropertyOp14
 70
     1
102
RTVSPropertyOp15
 70
     1
102
RTVSPropertyOp16
 70
     1
102
RTVSPropertyOp17
 70
     1
102
RTVSPropertyOp18
 70
     1
102
RTVSPropertyOp19
 70
     1
102
RTVSPropertyOp20
 70
     1
102
RTVSPropertyOp21
 70
     1
102
RTVSPropertyOp22
 70
     1
102
RTVSPropertyOp23
 70
     1
102
RTVSPropertyOp24
 70
     1
102
RTVSPropertyOp25
 70
     1
102
RTVSPropertyOp26
 70
     1
102
RTVSPropertyOp27
 70
     1
102
RTVSPropertyOp28
 70
     1
102
RTVSPropertyOp29
 70
     1
102
RTVSPropertyOp30
 70
     1
102
RTVSPropertyOp31
 70
     1
102
RTVSPropertyOp32
 70
     1
102
RTVSPropertyOp33
 70
     1
102
RTVSPropertyOp34
 70
     1
102
RTVSPropertyOp35
 70
     1
102
RTVSPropertyOp36
 70
     1
102
RTVSPropertyOp37
 70
     1
102
RTVSPropertyOp38
 70
     1
102
RTVSPropertyOp39
 70
     1
102
RTVSPropertyOp40
 70
     1
102
RTVSPropertyOp41
 70
     1
102
RTVSPropertyOp42
 70
     1
102
RTVSPropertyOp43
 70
     1
102
RTVSPropertyOp44
 70
     1
102
RTVSPropertyOp45
 70
     1
102
RTVSPropertyOp46
 70
     1
102
RTVSPropertyOp47
 70
     1
102
RTVSPropertyOp48
 70
     1
102
RTVSPropertyOp49
 70
     1
102
RTVSPropertyOp50
 70
     1
102
RTVSPropertyOp51
 70
     0
102
RTVSPropertyOp52
 70
     0
102
RTVSPropertyOp53
 70
     1
102
RTVSPropertyOp54
 70
     1
102
RTVSPropertyOp55
 70
     1
102
RTVSPropertyOp56
 70
     1
102
RTVSPropertyOp57
 70
     1
102
RTVSPost2010Prop28
280
     0
102
RTVSPost2010PropOp28
 70
     1
102
RTVSPost2010Prop29
280
     1
102
RTVSPost2010PropOp29
 70
     1
102
RTVSPost2010Prop30
280
     1
102
RTVSPost2010PropOp30
 70
     1
102
RTVSPost2010Prop31
280
     0
102
RTVSPost2010PropOp31
 70
     1
102
RTVSPost2010Prop32
280
     0
102
RTVSPost2010PropOp32
 70
     1
102
RTVSPost2010Prop33
280
     0
102
RTVSPost2010PropOp33
 70
     1
102
RTVSPost2010Prop34
280
     0
102
RTVSPost2010PropOp34
 70
     1
102
RTVSPost2010Prop35
280
     0
102
RTVSPost2010PropOp35
 70
     1
102
RTVSPost2010Prop36
280
     0
102
RTVSPost2010PropOp36
 70
     1
102
RTVSPost2010Prop37
 90
       50
102
RTVSPost2010PropOp37
 70
     1
102
RTVSPost2010Prop38
140
0.0
102
RTVSPost2010PropOp38
 70
     1
102
RTVSPost2010Prop39
140
1.0
102
RTVSPost2010PropOp39
 70
     1
102
RTVSPost2010Prop40
 90
        0
102
RTVSPost2010PropOp40
 70
     1
102
RTVSPost2010Prop41ColorIndex
 90
      178
102
RTVSPost2010Prop41ColorRGB
 90
        0
102
RTVSPost2010PropOp41
 70
     1
102
RTVSPost2010Prop42
 90
       50
102
RTVSPost2010PropOp42
 70
     1
102
RTVSPost2010Prop43
 90
        3
102
RTVSPost2010PropOp43
 70
     1
102
RTVSPost2010Prop44ColorIndex
 90
        5
102
RTVSPost2010Prop44ColorRGB
 90
      255
102
RTVSPost2010PropOp44
 70
     1
102
RTVSPost2010Prop45
280
     0
102
RTVSPost2010PropOp45
 70
     1
102
RTVSPost2010Prop46
 90
       50
102
RTVSPost2010PropOp46
 70
     1
102
RTVSPost2010Prop47
 90
       50
102
RTVSPost2010PropOp47
 70
     1
102
RTVSPost2010Prop48
 90
       50
102
RTVSPost2010PropOp48
 70
     1
102
RTVSPost2010Prop49
280
     0
102
RTVSPost2010PropOp49
 70
     1
102
RTVSPost2010Prop50
 90
       50
102
RTVSPost2010PropOp50
 70
     1
102
RTVSPost2010Prop51ColorIndex
 90
      256
102
RTVSPost2010Prop51ColorRGB
 90
-16777216
102
RTVSPost2010PropOp51
 70
     0
102
RTVSPost2010Prop52
140
1.0
102
RTVSPost2010PropOp52
 70
     0
102
RTVSPost2010Prop53
 90
        2
102
RTVSPost2010PropOp53
 70
     1
102
RTVSPost2010Prop54
  1
strokes_ogs.tif
102
RTVSPost2010PropOp54
 70
     1
102
RTVSPost2010Prop55
280
     0
102
RTVSPost2010PropOp55
 70
     1
102
RTVSPost2010Prop56
140
1.0
102
RTVSPost2010PropOp56
 70
     1
102
RTVSPost2010Prop57
140
1.0
102
RTVSPost2010PropOp57
 70
     1
  0
XRECORD
  5
2C0
102
{ACAD_REACTORS
330
2BF
102
}
330
2BF
100
AcDbXrecord
280
     1
102
RTVSPropertyOp0
 70
     1
102
RTVSPropertyOp1
 70
     1
102
RTVSPropertyOp2
 70
     1
102
RTVSPropertyOp3
 70
     1
102
RTVSPropertyOp4
 70
     1
102
RTVSPropertyOp5
 70
     1
102
RTVSPropertyOp6
 70
     1
102
RTVSPropertyOp7
 70
     1
102
RTVSPropertyOp8
 70
     1
102
RTVSPropertyOp9
 70
     1
102
RTVSPropertyOp10
 70
     1
102
RTVSPropertyOp11
 70
     1
102
RTVSPropertyOp12
 70
     1
102
RTVSPropertyOp13
 70
     1
102
RTVSPropertyOp14
 70
     1
102
RTVSPropertyOp15
 70
     1
102
RTVSPropertyOp16
 70
     1
102
RTVSPropertyOp17
 70
     1
102
RTVSPropertyOp18
 70
     1
102
RTVSPropertyOp19
 70
     1
102
RTVSPropertyOp20
 70
     1
102
RTVSPropertyOp21
 70
     1
102
RTVSPropertyOp22
 70
     1
102
RTVSPropertyOp23
 70
     1
102
RTVSPropertyOp24
 70
     1
102
RTVSPropertyOp25
 70
     1
102
RTVSPropertyOp26
 70
     1
102
RTVSPropertyOp27
 70
     1
102
RTVSPropertyOp28
 70
     1
102
RTVSPropertyOp29
 70
     1
102
RTVSPropertyOp30
 70
     1
102
RTVSPropertyOp31
 70
     1
102
RTVSPropertyOp32
 70
     1
102
RTVSPropertyOp33
 70
     1
102
RTVSPropertyOp34
 70
     1
102
RTVSPropertyOp35
 70
     1
102
RTVSPropertyOp36
 70
     1
102
RTVSPropertyOp37
 70
     1
102
RTVSPropertyOp38
 70
     1
102
RTVSPropertyOp39
 70
     1
102
RTVSPropertyOp40
 70
     1
102
RTVSPropertyOp41
 70
     1
102
RTVSPropertyOp42
 70
     1
102
RTVSPropertyOp43
 70
     1
102
RTVSPropertyOp44
 70
     1
102
RTVSPropertyOp45
 70
     1
102
RTVSPropertyOp46
 70
     1
102
RTVSPropertyOp47
 70
     1
102
RTVSPropertyOp48
 70
     1
102
RTVSPropertyOp49
 70
     1
102
RTVSPropertyOp50
 70
     1
102
RTVSPropertyOp51
 70
     0
102
RTVSPropertyOp52
 70
     0
102
RTVSPropertyOp53
 70
     1
102
RTVSPropertyOp54
 70
     1
102
RTVSPropertyOp55
 70
     1
102
RTVSPropertyOp56
 70
     1
102
RTVSPropertyOp57
 70
     1
102
RTVSPost2010Prop28
280
     0
102
RTVSPost2010PropOp28
 70
     1
102
RTVSPost2010Prop29
280
     1
102
RTVSPost2010PropOp29
 70
     1
102
RTVSPost2010Prop30
280
     1
102
RTVSPost2010PropOp30
 70
     1
102
RTVSPost2010Prop31
280
     0
102
RTVSPost2010PropOp31
 70
     1
102
RTVSPost2010Prop32
280
     0
102
RTVSPost2010PropOp32
 70
     1
102
RTVSPost2010Prop33
280
     0
102
RTVSPost2010PropOp33
 70
     1
102
RTVSPost2010Prop34
280
     0
102
RTVSPost2010PropOp34
 70
     1
102
RTVSPost2010Prop35
280
     0
102
RTVSPost2010PropOp35
 70
     1
102
RTVSPost2010Prop36
280
     0
102
RTVSPost2010PropOp36
 70
     1
102
RTVSPost2010Prop37
 90
       50
102
RTVSPost2010PropOp37
 70
     1
102
RTVSPost2010Prop38
140
0.0
102
RTVSPost2010PropOp38
 70
     1
102
RTVSPost2010Prop39
140
1.0
102
RTVSPost2010PropOp39
 70
     1
102
RTVSPost2010Prop40
 90
        0
102
RTVSPost2010PropOp40
 70
     1
102
RTVSPost2010Prop41ColorIndex
 90
      178
102
RTVSPost2010Prop41ColorRGB
 90
        0
102
RTVSPost2010PropOp41
 70
     1
102
RTVSPost2010Prop42
 90
       50
102
RTVSPost2010PropOp42
 70
     1
102
RTVSPost2010Prop43
 90
        3
102
RTVSPost2010PropOp43
 70
     1
102
RTVSPost2010Prop44ColorIndex
 90
        5
102
RTVSPost2010Prop44ColorRGB
 90
      255
102
RTVSPost2010PropOp44
 70
     1
102
RTVSPost2010Prop45
280
     0
102
RTVSPost2010PropOp45
 70
     1
102
RTVSPost2010Prop46
 90
       50
102
RTVSPost2010PropOp46
 70
     1
102
RTVSPost2010Prop47
 90
       50
102
RTVSPost2010PropOp47
 70
     1
102
RTVSPost2010Prop48
 90
       50
102
RTVSPost2010PropOp48
 70
     1
102
RTVSPost2010Prop49
280
     0
102
RTVSPost2010PropOp49
 70
     1
102
RTVSPost2010Prop50
 90
       50
102
RTVSPost2010PropOp50
 70
     1
102
RTVSPost2010Prop51ColorIndex
 90
      256
102
RTVSPost2010Prop51ColorRGB
 90
-16777216
102
RTVSPost2010PropOp51
 70
     0
102
RTVSPost2010Prop52
140
1.0
102
RTVSPost2010PropOp52
 70
     0
102
RTVSPost2010Prop53
 90
        2
102
RTVSPost2010PropOp53
 70
     1
102
RTVSPost2010Prop54
  1
strokes_ogs.tif
102
RTVSPost2010PropOp54
 70
     1
102
RTVSPost2010Prop55
280
     0
102
RTVSPost2010PropOp55
 70
     1
102
RTVSPost2010Prop56
140
1.0
102
RTVSPost2010PropOp56
 70
     1
102
RTVSPost2010Prop57
140
1.0
102
RTVSPost2010PropOp57
 70
     1
  0
XRECORD
  5
2C6
102
{ACAD_REACTORS
330
2C5
102
}
330
2C5
100
AcDbXrecord
280
     1
102
RTVSPropertyOp0
 70
     1
102
RTVSPropertyOp1
 70
     1
102
RTVSPropertyOp2
 70
     1
102
RTVSPropertyOp3
 70
     1
102
RTVSPropertyOp4
 70
     1
102
RTVSPropertyOp5
 70
     1
102
RTVSPropertyOp6
 70
     1
102
RTVSPropertyOp7
 70
     1
102
RTVSPropertyOp8
 70
     1
102
RTVSPropertyOp9
 70
     1
102
RTVSPropertyOp10
 70
     1
102
RTVSPropertyOp11
 70
     1
102
RTVSPropertyOp12
 70
     1
102
RTVSPropertyOp13
 70
     1
102
RTVSPropertyOp14
 70
     1
102
RTVSPropertyOp15
 70
     1
102
RTVSPropertyOp16
 70
     1
102
RTVSPropertyOp17
 70
     1
102
RTVSPropertyOp18
 70
     1
102
RTVSPropertyOp19
 70
     1
102
RTVSPropertyOp20
 70
     1
102
RTVSPropertyOp21
 70
     1
102
RTVSPropertyOp22
 70
     1
102
RTVSPropertyOp23
 70
     1
102
RTVSPropertyOp24
 70
     1
102
RTVSPropertyOp25
 70
     1
102
RTVSPropertyOp26
 70
     1
102
RTVSPropertyOp27
 70
     1
102
RTVSPropertyOp28
 70
     1
102
RTVSPropertyOp29
 70
     1
102
RTVSPropertyOp30
 70
     1
102
RTVSPropertyOp31
 70
     1
102
RTVSPropertyOp32
 70
     1
102
RTVSPropertyOp33
 70
     1
102
RTVSPropertyOp34
 70
     1
102
RTVSPropertyOp35
 70
     1
102
RTVSPropertyOp36
 70
     1
102
RTVSPropertyOp37
 70
     1
102
RTVSPropertyOp38
 70
     1
102
RTVSPropertyOp39
 70
     1
102
RTVSPropertyOp40
 70
     1
102
RTVSPropertyOp41
 70
     1
102
RTVSPropertyOp42
 70
     1
102
RTVSPropertyOp43
 70
     1
102
RTVSPropertyOp44
 70
     1
102
RTVSPropertyOp45
 70
     1
102
RTVSPropertyOp46
 70
     1
102
RTVSPropertyOp47
 70
     1
102
RTVSPropertyOp48
 70
     1
102
RTVSPropertyOp49
 70
     1
102
RTVSPropertyOp50
 70
     1
102
RTVSPropertyOp51
 70
     0
102
RTVSPropertyOp52
 70
     0
102
RTVSPropertyOp53
 70
     1
102
RTVSPropertyOp54
 70
     1
102
RTVSPropertyOp55
 70
     1
102
RTVSPropertyOp56
 70
     1
102
RTVSPropertyOp57
 70
     1
102
RTVSPost2010Prop28
280
     0
102
RTVSPost2010PropOp28
 70
     1
102
RTVSPost2010Prop29
280
     1
102
RTVSPost2010PropOp29
 70
     1
102
RTVSPost2010Prop30
280
     1
102
RTVSPost2010PropOp30
 70
     1
102
RTVSPost2010Prop31
280
     0
102
RTVSPost2010PropOp31
 70
     1
102
RTVSPost2010Prop32
280
     0
102
RTVSPost2010PropOp32
 70
     1
102
RTVSPost2010Prop33
280
     0
102
RTVSPost2010PropOp33
 70
     1
102
RTVSPost2010Prop34
280
     0
102
RTVSPost2010PropOp34
 70
     1
102
RTVSPost2010Prop35
280
     0
102
RTVSPost2010PropOp35
 70
     1
102
RTVSPost2010Prop36
280
     0
102
RTVSPost2010PropOp36
 70
     1
102
RTVSPost2010Prop37
 90
       50
102
RTVSPost2010PropOp37
 70
     1
102
RTVSPost2010Prop38
140
0.0
102
RTVSPost2010PropOp38
 70
     1
102
RTVSPost2010Prop39
140
1.0
102
RTVSPost2010PropOp39
 70
     1
102
RTVSPost2010Prop40
 90
        0
102
RTVSPost2010PropOp40
 70
     1
102
RTVSPost2010Prop41ColorIndex
 90
      178
102
RTVSPost2010Prop41ColorRGB
 90
        0
102
RTVSPost2010PropOp41
 70
     1
102
RTVSPost2010Prop42
 90
       50
102
RTVSPost2010PropOp42
 70
     1
102
RTVSPost2010Prop43
 90
        3
102
RTVSPost2010PropOp43
 70
     1
102
RTVSPost2010Prop44ColorIndex
 90
        5
102
RTVSPost2010Prop44ColorRGB
 90
      255
102
RTVSPost2010PropOp44
 70
     1
102
RTVSPost2010Prop45
280
     0
102
RTVSPost2010PropOp45
 70
     1
102
RTVSPost2010Prop46
 90
       50
102
RTVSPost2010PropOp46
 70
     1
102
RTVSPost2010Prop47
 90
       50
102
RTVSPost2010PropOp47
 70
     1
102
RTVSPost2010Prop48
 90
       50
102
RTVSPost2010PropOp48
 70
     1
102
RTVSPost2010Prop49
280
     0
102
RTVSPost2010PropOp49
 70
     1
102
RTVSPost2010Prop50
 90
       50
102
RTVSPost2010PropOp50
 70
     1
102
RTVSPost2010Prop51ColorIndex
 90
      256
102
RTVSPost2010Prop51ColorRGB
 90
-16777216
102
RTVSPost2010PropOp51
 70
     0
102
RTVSPost2010Prop52
140
1.0
102
RTVSPost2010PropOp52
 70
     0
102
RTVSPost2010Prop53
 90
        2
102
RTVSPost2010PropOp53
 70
     1
102
RTVSPost2010Prop54
  1
strokes_ogs.tif
102
RTVSPost2010PropOp54
 70
     1
102
RTVSPost2010Prop55
280
     0
102
RTVSPost2010PropOp55
 70
     1
102
RTVSPost2010Prop56
140
1.0
102
RTVSPost2010PropOp56
 70
     1
102
RTVSPost2010Prop57
140
1.0
102
RTVSPost2010PropOp57
 70
     1
  0
XRECORD
  5
2DA
102
{ACAD_REACTORS
330
2D9
102
}
330
2D9
100
AcDbXrecord
280
     1
102
RTVSPropertyOp0
 70
     0
102
RTVSPropertyOp1
 70
     0
102
RTVSPropertyOp2
 70
     0
102
RTVSPropertyOp3
 70
     0
102
RTVSPropertyOp4
 70
     0
102
RTVSPropertyOp5
 70
     0
102
RTVSPropertyOp6
 70
     0
102
RTVSPropertyOp7
 70
     0
102
RTVSPropertyOp8
 70
     0
102
RTVSPropertyOp9
 70
     0
102
RTVSPropertyOp10
 70
     0
102
RTVSPropertyOp11
 70
     0
102
RTVSPropertyOp12
 70
     0
102
RTVSPropertyOp13
 70
     0
102
RTVSPropertyOp14
 70
     2
102
RTVSPropertyOp15
 70
     0
102
RTVSPropertyOp16
 70
     0
102
RTVSPropertyOp17
 70
     0
102
RTVSPropertyOp18
 70
     0
102
RTVSPropertyOp19
 70
     0
102
RTVSPropertyOp20
 70
     0
102
RTVSPropertyOp21
 70
     0
102
RTVSPropertyOp22
 70
     0
102
RTVSPropertyOp23
 70
     0
102
RTVSPropertyOp24
 70
     0
102
RTVSPropertyOp25
 70
     0
102
RTVSPropertyOp26
 70
     0
102
RTVSPropertyOp27
 70
     0
102
RTVSPropertyOp28
 70
     0
102
RTVSPropertyOp29
 70
     0
102
RTVSPropertyOp30
 70
     0
102
RTVSPropertyOp31
 70
     0
102
RTVSPropertyOp32
 70
     0
102
RTVSPropertyOp33
 70
     0
102
RTVSPropertyOp34
 70
     0
102
RTVSPropertyOp35
 70
     0
102
RTVSPropertyOp36
 70
     0
102
RTVSPropertyOp37
 70
     0
102
RTVSPropertyOp38
 70
     0
102
RTVSPropertyOp39
 70
     0
102
RTVSPropertyOp40
 70
     0
102
RTVSPropertyOp41
 70
     0
102
RTVSPropertyOp42
 70
     0
102
RTVSPropertyOp43
 70
     0
102
RTVSPropertyOp44
 70
     0
102
RTVSPropertyOp45
 70
     0
102
RTVSPropertyOp46
 70
     0
102
RTVSPropertyOp47
 70
     0
102
RTVSPropertyOp48
 70
     0
102
RTVSPropertyOp49
 70
     0
102
RTVSPropertyOp50
 70
     0
102
RTVSPropertyOp51
 70
     0
102
RTVSPropertyOp52
 70
     0
102
RTVSPropertyOp53
 70
     0
102
RTVSPropertyOp54
 70
     0
102
RTVSPropertyOp55
 70
     0
102
RTVSPropertyOp56
 70
     0
102
RTVSPropertyOp57
 70
     0
102
RTVSPost2010Prop28
280
     0
102
RTVSPost2010PropOp28
 70
     0
102
RTVSPost2010Prop29
280
     1
102
RTVSPost2010PropOp29
 70
     0
102
RTVSPost2010Prop30
280
     1
102
RTVSPost2010PropOp30
 70
     0
102
RTVSPost2010Prop31
280
     0
102
RTVSPost2010PropOp31
 70
     0
102
RTVSPost2010Prop32
280
     0
102
RTVSPost2010PropOp32
 70
     0
102
RTVSPost2010Prop33
280
     0
102
RTVSPost2010PropOp33
 70
     0
102
RTVSPost2010Prop34
280
     0
102
RTVSPost2010PropOp34
 70
     0
102
RTVSPost2010Prop35
280
     0
102
RTVSPost2010PropOp35
 70
     0
102
RTVSPost2010Prop36
280
     0
102
RTVSPost2010PropOp36
 70
     0
102
RTVSPost2010Prop37
 90
       50
102
RTVSPost2010PropOp37
 70
     0
102
RTVSPost2010Prop38
140
0.0
102
RTVSPost2010PropOp38
 70
     0
102
RTVSPost2010Prop39
140
1.0
102
RTVSPost2010PropOp39
 70
     0
102
RTVSPost2010Prop40
 90
        0
102
RTVSPost2010PropOp40
 70
     0
102
RTVSPost2010Prop41ColorIndex
 90
      178
102
RTVSPost2010Prop41ColorRGB
 90
        0
102
RTVSPost2010PropOp41
 70
     0
102
RTVSPost2010Prop42
 90
       50
102
RTVSPost2010PropOp42
 70
     0
102
RTVSPost2010Prop43
 90
        3
102
RTVSPost2010PropOp43
 70
     0
102
RTVSPost2010Prop44ColorIndex
 90
        5
102
RTVSPost2010Prop44ColorRGB
 90
      255
102
RTVSPost2010PropOp44
 70
     0
102
RTVSPost2010Prop45
280
     0
102
RTVSPost2010PropOp45
 70
     0
102
RTVSPost2010Prop46
 90
       50
102
RTVSPost2010PropOp46
 70
     0
102
RTVSPost2010Prop47
 90
       50
102
RTVSPost2010PropOp47
 70
     0
102
RTVSPost2010Prop48
 90
       50
102
RTVSPost2010PropOp48
 70
     0
102
RTVSPost2010Prop49
280
     0
102
RTVSPost2010PropOp49
 70
     0
102
RTVSPost2010Prop50
 90
       50
102
RTVSPost2010PropOp50
 70
     0
102
RTVSPost2010Prop51ColorIndex
 90
      256
102
RTVSPost2010Prop51ColorRGB
 90
-16777216
102
RTVSPost2010PropOp51
 70
     0
102
RTVSPost2010Prop52
140
1.0
102
RTVSPost2010PropOp52
 70
     0
102
RTVSPost2010Prop53
 90
        2
102
RTVSPost2010PropOp53
 70
     0
102
RTVSPost2010Prop54
  1
strokes_ogs.tif
102
RTVSPost2010PropOp54
 70
     0
102
RTVSPost2010Prop55
280
     0
102
RTVSPost2010PropOp55
 70
     0
102
RTVSPost2010Prop56
140
1.0
102
RTVSPost2010PropOp56
 70
     0
102
RTVSPost2010Prop57
140
1.0
102
RTVSPost2010PropOp57
 70
     0
  0
XRECORD
  5
2D4
102
{ACAD_REACTORS
330
2D3
102
}
330
2D3
100
AcDbXrecord
280
     1
102
RTVSPropertyOp0
 70
     1
102
RTVSPropertyOp1
 70
     1
102
RTVSPropertyOp2
 70
     1
102
RTVSPropertyOp3
 70
     1
102
RTVSPropertyOp4
 70
     1
102
RTVSPropertyOp5
 70
     1
102
RTVSPropertyOp6
 70
     1
102
RTVSPropertyOp7
 70
     1
102
RTVSPropertyOp8
 70
     1
102
RTVSPropertyOp9
 70
     1
102
RTVSPropertyOp10
 70
     1
102
RTVSPropertyOp11
 70
     1
102
RTVSPropertyOp12
 70
     1
102
RTVSPropertyOp13
 70
     1
102
RTVSPropertyOp14
 70
     1
102
RTVSPropertyOp15
 70
     1
102
RTVSPropertyOp16
 70
     1
102
RTVSPropertyOp17
 70
     1
102
RTVSPropertyOp18
 70
     1
102
RTVSPropertyOp19
 70
     1
102
RTVSPropertyOp20
 70
     1
102
RTVSPropertyOp21
 70
     1
102
RTVSPropertyOp22
 70
     1
102
RTVSPropertyOp23
 70
     1
102
RTVSPropertyOp24
 70
     1
102
RTVSPropertyOp25
 70
     1
102
RTVSPropertyOp26
 70
     1
102
RTVSPropertyOp27
 70
     1
102
RTVSPropertyOp28
 70
     1
102
RTVSPropertyOp29
 70
     1
102
RTVSPropertyOp30
 70
     1
102
RTVSPropertyOp31
 70
     1
102
RTVSPropertyOp32
 70
     1
102
RTVSPropertyOp33
 70
     1
102
RTVSPropertyOp34
 70
     1
102
RTVSPropertyOp35
 70
     1
102
RTVSPropertyOp36
 70
     1
102
RTVSPropertyOp37
 70
     1
102
RTVSPropertyOp38
 70
     1
102
RTVSPropertyOp39
 70
     1
102
RTVSPropertyOp40
 70
     1
102
RTVSPropertyOp41
 70
     1
102
RTVSPropertyOp42
 70
     1
102
RTVSPropertyOp43
 70
     1
102
RTVSPropertyOp44
 70
     1
102
RTVSPropertyOp45
 70
     1
102
RTVSPropertyOp46
 70
     1
102
RTVSPropertyOp47
 70
     1
102
RTVSPropertyOp48
 70
     1
102
RTVSPropertyOp49
 70
     1
102
RTVSPropertyOp50
 70
     1
102
RTVSPropertyOp51
 70
     0
102
RTVSPropertyOp52
 70
     0
102
RTVSPropertyOp53
 70
     1
102
RTVSPropertyOp54
 70
     1
102
RTVSPropertyOp55
 70
     1
102
RTVSPropertyOp56
 70
     1
102
RTVSPropertyOp57
 70
     1
102
RTVSPost2010Prop28
280
     0
102
RTVSPost2010PropOp28
 70
     1
102
RTVSPost2010Prop29
280
     1
102
RTVSPost2010PropOp29
 70
     1
102
RTVSPost2010Prop30
280
     1
102
RTVSPost2010PropOp30
 70
     1
102
RTVSPost2010Prop31
280
     0
102
RTVSPost2010PropOp31
 70
     1
102
RTVSPost2010Prop32
280
     0
102
RTVSPost2010PropOp32
 70
     1
102
RTVSPost2010Prop33
280
     0
102
RTVSPost2010PropOp33
 70
     1
102
RTVSPost2010Prop34
280
     0
102
RTVSPost2010PropOp34
 70
     1
102
RTVSPost2010Prop35
280
     0
102
RTVSPost2010PropOp35
 70
     1
102
RTVSPost2010Prop36
280
     0
102
RTVSPost2010PropOp36
 70
     1
102
RTVSPost2010Prop37
 90
       50
102
RTVSPost2010PropOp37
 70
     1
102
RTVSPost2010Prop38
140
0.0
102
RTVSPost2010PropOp38
 70
     1
102
RTVSPost2010Prop39
140
1.0
102
RTVSPost2010PropOp39
 70
     1
102
RTVSPost2010Prop40
 90
        0
102
RTVSPost2010PropOp40
 70
     1
102
RTVSPost2010Prop41ColorIndex
 90
      178
102
RTVSPost2010Prop41ColorRGB
 90
        0
102
RTVSPost2010PropOp41
 70
     1
102
RTVSPost2010Prop42
 90
       50
102
RTVSPost2010PropOp42
 70
     1
102
RTVSPost2010Prop43
 90
        3
102
RTVSPost2010PropOp43
 70
     1
102
RTVSPost2010Prop44ColorIndex
 90
        5
102
RTVSPost2010Prop44ColorRGB
 90
      255
102
RTVSPost2010PropOp44
 70
     1
102
RTVSPost2010Prop45
280
     0
102
RTVSPost2010PropOp45
 70
     1
102
RTVSPost2010Prop46
 90
       50
102
RTVSPost2010PropOp46
 70
     1
102
RTVSPost2010Prop47
 90
       50
102
RTVSPost2010PropOp47
 70
     1
102
RTVSPost2010Prop48
 90
       50
102
RTVSPost2010PropOp48
 70
     1
102
RTVSPost2010Prop49
280
     0
102
RTVSPost2010PropOp49
 70
     1
102
RTVSPost2010Prop50
 90
       50
102
RTVSPost2010PropOp50
 70
     1
102
RTVSPost2010Prop51ColorIndex
 90
      256
102
RTVSPost2010Prop51ColorRGB
 90
-16777216
102
RTVSPost2010PropOp51
 70
     0
102
RTVSPost2010Prop52
140
1.0
102
RTVSPost2010PropOp52
 70
     0
102
RTVSPost2010Prop53
 90
        2
102
RTVSPost2010PropOp53
 70
     1
102
RTVSPost2010Prop54
  1
strokes_ogs.tif
102
RTVSPost2010PropOp54
 70
     1
102
RTVSPost2010Prop55
280
     0
102
RTVSPost2010PropOp55
 70
     1
102
RTVSPost2010Prop56
140
1.0
102
RTVSPost2010PropOp56
 70
     1
102
RTVSPost2010Prop57
140
1.0
102
RTVSPost2010PropOp57
 70
     1
  0
XRECORD
  5
2DC
102
{ACAD_REACTORS
330
2DB
102
}
330
2DB
100
AcDbXrecord
280
     1
102
RTVSPropertyOp0
 70
     0
102
RTVSPropertyOp1
 70
     0
102
RTVSPropertyOp2
 70
     0
102
RTVSPropertyOp3
 70
     0
102
RTVSPropertyOp4
 70
     0
102
RTVSPropertyOp5
 70
     0
102
RTVSPropertyOp6
 70
     0
102
RTVSPropertyOp7
 70
     0
102
RTVSPropertyOp8
 70
     0
102
RTVSPropertyOp9
 70
     0
102
RTVSPropertyOp10
 70
     0
102
RTVSPropertyOp11
 70
     0
102
RTVSPropertyOp12
 70
     0
102
RTVSPropertyOp13
 70
     0
102
RTVSPropertyOp14
 70
     2
102
RTVSPropertyOp15
 70
     0
102
RTVSPropertyOp16
 70
     0
102
RTVSPropertyOp17
 70
     0
102
RTVSPropertyOp18
 70
     0
102
RTVSPropertyOp19
 70
     0
102
RTVSPropertyOp20
 70
     0
102
RTVSPropertyOp21
 70
     0
102
RTVSPropertyOp22
 70
     0
102
RTVSPropertyOp23
 70
     0
102
RTVSPropertyOp24
 70
     0
102
RTVSPropertyOp25
 70
     0
102
RTVSPropertyOp26
 70
     0
102
RTVSPropertyOp27
 70
     0
102
RTVSPropertyOp28
 70
     0
102
RTVSPropertyOp29
 70
     0
102
RTVSPropertyOp30
 70
     0
102
RTVSPropertyOp31
 70
     0
102
RTVSPropertyOp32
 70
     0
102
RTVSPropertyOp33
 70
     0
102
RTVSPropertyOp34
 70
     0
102
RTVSPropertyOp35
 70
     0
102
RTVSPropertyOp36
 70
     0
102
RTVSPropertyOp37
 70
     0
102
RTVSPropertyOp38
 70
     0
102
RTVSPropertyOp39
 70
     0
102
RTVSPropertyOp40
 70
     0
102
RTVSPropertyOp41
 70
     0
102
RTVSPropertyOp42
 70
     0
102
RTVSPropertyOp43
 70
     0
102
RTVSPropertyOp44
 70
     0
102
RTVSPropertyOp45
 70
     0
102
RTVSPropertyOp46
 70
     0
102
RTVSPropertyOp47
 70
     0
102
RTVSPropertyOp48
 70
     0
102
RTVSPropertyOp49
 70
     0
102
RTVSPropertyOp50
 70
     0
102
RTVSPropertyOp51
 70
     0
102
RTVSPropertyOp52
 70
     0
102
RTVSPropertyOp53
 70
     0
102
RTVSPropertyOp54
 70
     0
102
RTVSPropertyOp55
 70
     0
102
RTVSPropertyOp56
 70
     0
102
RTVSPropertyOp57
 70
     0
102
RTVSPost2010Prop28
280
     0
102
RTVSPost2010PropOp28
 70
     0
102
RTVSPost2010Prop29
280
     1
102
RTVSPost2010PropOp29
 70
     0
102
RTVSPost2010Prop30
280
     1
102
RTVSPost2010PropOp30
 70
     0
102
RTVSPost2010Prop31
280
     0
102
RTVSPost2010PropOp31
 70
     0
102
RTVSPost2010Prop32
280
     0
102
RTVSPost2010PropOp32
 70
     0
102
RTVSPost2010Prop33
280
     0
102
RTVSPost2010PropOp33
 70
     0
102
RTVSPost2010Prop34
280
     0
102
RTVSPost2010PropOp34
 70
     0
102
RTVSPost2010Prop35
280
     0
102
RTVSPost2010PropOp35
 70
     0
102
RTVSPost2010Prop36
280
     0
102
RTVSPost2010PropOp36
 70
     0
102
RTVSPost2010Prop37
 90
       50
102
RTVSPost2010PropOp37
 70
     0
102
RTVSPost2010Prop38
140
0.0
102
RTVSPost2010PropOp38
 70
     0
102
RTVSPost2010Prop39
140
1.0
102
RTVSPost2010PropOp39
 70
     0
102
RTVSPost2010Prop40
 90
        0
102
RTVSPost2010PropOp40
 70
     0
102
RTVSPost2010Prop41ColorIndex
 90
      178
102
RTVSPost2010Prop41ColorRGB
 90
        0
102
RTVSPost2010PropOp41
 70
     0
102
RTVSPost2010Prop42
 90
       50
102
RTVSPost2010PropOp42
 70
     0
102
RTVSPost2010Prop43
 90
        3
102
RTVSPost2010PropOp43
 70
     0
102
RTVSPost2010Prop44ColorIndex
 90
        5
102
RTVSPost2010Prop44ColorRGB
 90
      255
102
RTVSPost2010PropOp44
 70
     0
102
RTVSPost2010Prop45
280
     0
102
RTVSPost2010PropOp45
 70
     0
102
RTVSPost2010Prop46
 90
       50
102
RTVSPost2010PropOp46
 70
     0
102
RTVSPost2010Prop47
 90
       50
102
RTVSPost2010PropOp47
 70
     0
102
RTVSPost2010Prop48
 90
       50
102
RTVSPost2010PropOp48
 70
     0
102
RTVSPost2010Prop49
280
     0
102
RTVSPost2010PropOp49
 70
     0
102
RTVSPost2010Prop50
 90
       50
102
RTVSPost2010PropOp50
 70
     0
102
RTVSPost2010Prop51ColorIndex
 90
      256
102
RTVSPost2010Prop51ColorRGB
 90
-16777216
102
RTVSPost2010PropOp51
 70
     0
102
RTVSPost2010Prop52
140
1.0
102
RTVSPost2010PropOp52
 70
     0
102
RTVSPost2010Prop53
 90
        2
102
RTVSPost2010PropOp53
 70
     0
102
RTVSPost2010Prop54
  1
strokes_ogs.tif
102
RTVSPost2010PropOp54
 70
     0
102
RTVSPost2010Prop55
280
     0
102
RTVSPost2010PropOp55
 70
     0
102
RTVSPost2010Prop56
140
1.0
102
RTVSPost2010PropOp56
 70
     0
102
RTVSPost2010Prop57
140
1.0
102
RTVSPost2010PropOp57
 70
     0
  0
XRECORD
  5
2CA
102
{ACAD_REACTORS
330
2C9
102
}
330
2C9
100
AcDbXrecord
280
     1
102
RTVSPropertyOp0
 70
     1
102
RTVSPropertyOp1
 70
     1
102
RTVSPropertyOp2
 70
     1
102
RTVSPropertyOp3
 70
     1
102
RTVSPropertyOp4
 70
     1
102
RTVSPropertyOp5
 70
     1
102
RTVSPropertyOp6
 70
     1
102
RTVSPropertyOp7
 70
     1
102
RTVSPropertyOp8
 70
     1
102
RTVSPropertyOp9
 70
     1
102
RTVSPropertyOp10
 70
     1
102
RTVSPropertyOp11
 70
     1
102
RTVSPropertyOp12
 70
     1
102
RTVSPropertyOp13
 70
     1
102
RTVSPropertyOp14
 70
     1
102
RTVSPropertyOp15
 70
     1
102
RTVSPropertyOp16
 70
     1
102
RTVSPropertyOp17
 70
     1
102
RTVSPropertyOp18
 70
     1
102
RTVSPropertyOp19
 70
     1
102
RTVSPropertyOp20
 70
     1
102
RTVSPropertyOp21
 70
     1
102
RTVSPropertyOp22
 70
     1
102
RTVSPropertyOp23
 70
     1
102
RTVSPropertyOp24
 70
     1
102
RTVSPropertyOp25
 70
     1
102
RTVSPropertyOp26
 70
     1
102
RTVSPropertyOp27
 70
     1
102
RTVSPropertyOp28
 70
     1
102
RTVSPropertyOp29
 70
     1
102
RTVSPropertyOp30
 70
     1
102
RTVSPropertyOp31
 70
     1
102
RTVSPropertyOp32
 70
     1
102
RTVSPropertyOp33
 70
     1
102
RTVSPropertyOp34
 70
     1
102
RTVSPropertyOp35
 70
     1
102
RTVSPropertyOp36
 70
     1
102
RTVSPropertyOp37
 70
     1
102
RTVSPropertyOp38
 70
     1
102
RTVSPropertyOp39
 70
     1
102
RTVSPropertyOp40
 70
     1
102
RTVSPropertyOp41
 70
     1
102
RTVSPropertyOp42
 70
     1
102
RTVSPropertyOp43
 70
     1
102
RTVSPropertyOp44
 70
     1
102
RTVSPropertyOp45
 70
     1
102
RTVSPropertyOp46
 70
     1
102
RTVSPropertyOp47
 70
     1
102
RTVSPropertyOp48
 70
     1
102
RTVSPropertyOp49
 70
     1
102
RTVSPropertyOp50
 70
     1
102
RTVSPropertyOp51
 70
     0
102
RTVSPropertyOp52
 70
     0
102
RTVSPropertyOp53
 70
     1
102
RTVSPropertyOp54
 70
     1
102
RTVSPropertyOp55
 70
     1
102
RTVSPropertyOp56
 70
     1
102
RTVSPropertyOp57
 70
     1
102
RTVSPost2010Prop28
280
     0
102
RTVSPost2010PropOp28
 70
     1
102
RTVSPost2010Prop29
280
     1
102
RTVSPost2010PropOp29
 70
     1
102
RTVSPost2010Prop30
280
     1
102
RTVSPost2010PropOp30
 70
     1
102
RTVSPost2010Prop31
280
     0
102
RTVSPost2010PropOp31
 70
     1
102
RTVSPost2010Prop32
280
     0
102
RTVSPost2010PropOp32
 70
     1
102
RTVSPost2010Prop33
280
     0
102
RTVSPost2010PropOp33
 70
     1
102
RTVSPost2010Prop34
280
     0
102
RTVSPost2010PropOp34
 70
     1
102
RTVSPost2010Prop35
280
     0
102
RTVSPost2010PropOp35
 70
     1
102
RTVSPost2010Prop36
280
     0
102
RTVSPost2010PropOp36
 70
     1
102
RTVSPost2010Prop37
 90
       50
102
RTVSPost2010PropOp37
 70
     1
102
RTVSPost2010Prop38
140
0.0
102
RTVSPost2010PropOp38
 70
     1
102
RTVSPost2010Prop39
140
1.0
102
RTVSPost2010PropOp39
 70
     1
102
RTVSPost2010Prop40
 90
        0
102
RTVSPost2010PropOp40
 70
     1
102
RTVSPost2010Prop41ColorIndex
 90
      178
102
RTVSPost2010Prop41ColorRGB
 90
        0
102
RTVSPost2010PropOp41
 70
     1
102
RTVSPost2010Prop42
 90
       50
102
RTVSPost2010PropOp42
 70
     1
102
RTVSPost2010Prop43
 90
        3
102
RTVSPost2010PropOp43
 70
     1
102
RTVSPost2010Prop44ColorIndex
 90
        5
102
RTVSPost2010Prop44ColorRGB
 90
      255
102
RTVSPost2010PropOp44
 70
     1
102
RTVSPost2010Prop45
280
     0
102
RTVSPost2010PropOp45
 70
     1
102
RTVSPost2010Prop46
 90
       50
102
RTVSPost2010PropOp46
 70
     1
102
RTVSPost2010Prop47
 90
       50
102
RTVSPost2010PropOp47
 70
     1
102
RTVSPost2010Prop48
 90
       50
102
RTVSPost2010PropOp48
 70
     1
102
RTVSPost2010Prop49
280
     0
102
RTVSPost2010PropOp49
 70
     1
102
RTVSPost2010Prop50
 90
       50
102
RTVSPost2010PropOp50
 70
     1
102
RTVSPost2010Prop51ColorIndex
 90
      256
102
RTVSPost2010Prop51ColorRGB
 90
-16777216
102
RTVSPost2010PropOp51
 70
     0
102
RTVSPost2010Prop52
140
1.0
102
RTVSPost2010PropOp52
 70
     0
102
RTVSPost2010Prop53
 90
        2
102
RTVSPost2010PropOp53
 70
     1
102
RTVSPost2010Prop54
  1
strokes_ogs.tif
102
RTVSPost2010PropOp54
 70
     1
102
RTVSPost2010Prop55
280
     0
102
RTVSPost2010PropOp55
 70
     1
102
RTVSPost2010Prop56
140
1.0
102
RTVSPost2010PropOp56
 70
     1
102
RTVSPost2010Prop57
140
1.0
102
RTVSPost2010PropOp57
 70
     1
  0
XRECORD
  5
2E8
102
{ACAD_REACTORS
330
2E7
102
}
330
2E7
100
AcDbXrecord
280
     1
102
RTVSPropertyOp0
 70
     1
102
RTVSPropertyOp1
 70
     1
102
RTVSPropertyOp2
 70
     1
102
RTVSPropertyOp3
 70
     1
102
RTVSPropertyOp4
 70
     1
102
RTVSPropertyOp5
 70
     1
102
RTVSPropertyOp6
 70
     1
102
RTVSPropertyOp7
 70
     1
102
RTVSPropertyOp8
 70
     1
102
RTVSPropertyOp9
 70
     1
102
RTVSPropertyOp10
 70
     1
102
RTVSPropertyOp11
 70
     1
102
RTVSPropertyOp12
 70
     1
102
RTVSPropertyOp13
 70
     1
102
RTVSPropertyOp14
 70
     1
102
RTVSPropertyOp15
 70
     1
102
RTVSPropertyOp16
 70
     1
102
RTVSPropertyOp17
 70
     1
102
RTVSPropertyOp18
 70
     1
102
RTVSPropertyOp19
 70
     1
102
RTVSPropertyOp20
 70
     1
102
RTVSPropertyOp21
 70
     1
102
RTVSPropertyOp22
 70
     1
102
RTVSPropertyOp23
 70
     1
102
RTVSPropertyOp24
 70
     1
102
RTVSPropertyOp25
 70
     1
102
RTVSPropertyOp26
 70
     1
102
RTVSPropertyOp27
 70
     1
102
RTVSPropertyOp28
 70
     1
102
RTVSPropertyOp29
 70
     1
102
RTVSPropertyOp30
 70
     1
102
RTVSPropertyOp31
 70
     1
102
RTVSPropertyOp32
 70
     1
102
RTVSPropertyOp33
 70
     1
102
RTVSPropertyOp34
 70
     1
102
RTVSPropertyOp35
 70
     1
102
RTVSPropertyOp36
 70
     1
102
RTVSPropertyOp37
 70
     1
102
RTVSPropertyOp38
 70
     1
102
RTVSPropertyOp39
 70
     1
102
RTVSPropertyOp40
 70
     1
102
RTVSPropertyOp41
 70
     1
102
RTVSPropertyOp42
 70
     1
102
RTVSPropertyOp43
 70
     1
102
RTVSPropertyOp44
 70
     1
102
RTVSPropertyOp45
 70
     1
102
RTVSPropertyOp46
 70
     1
102
RTVSPropertyOp47
 70
     1
102
RTVSPropertyOp48
 70
     1
102
RTVSPropertyOp49
 70
     1
102
RTVSPropertyOp50
 70
     1
102
RTVSPropertyOp51
 70
     0
102
RTVSPropertyOp52
 70
     0
102
RTVSPropertyOp53
 70
     1
102
RTVSPropertyOp54
 70
     1
102
RTVSPropertyOp55
 70
     1
102
RTVSPropertyOp56
 70
     1
102
RTVSPropertyOp57
 70
     1
102
RTVSPost2010Prop28
280
     0
102
RTVSPost2010PropOp28
 70
     1
102
RTVSPost2010Prop29
280
     1
102
RTVSPost2010PropOp29
 70
     1
102
RTVSPost2010Prop30
280
     1
102
RTVSPost2010PropOp30
 70
     1
102
RTVSPost2010Prop31
280
     0
102
RTVSPost2010PropOp31
 70
     1
102
RTVSPost2010Prop32
280
     0
102
RTVSPost2010PropOp32
 70
     1
102
RTVSPost2010Prop33
280
     0
102
RTVSPost2010PropOp33
 70
     1
102
RTVSPost2010Prop34
280
     0
102
RTVSPost2010PropOp34
 70
     1
102
RTVSPost2010Prop35
280
     0
102
RTVSPost2010PropOp35
 70
     1
102
RTVSPost2010Prop36
280
     0
102
RTVSPost2010PropOp36
 70
     1
102
RTVSPost2010Prop37
 90
       50
102
RTVSPost2010PropOp37
 70
     1
102
RTVSPost2010Prop38
140
0.0
102
RTVSPost2010PropOp38
 70
     1
102
RTVSPost2010Prop39
140
1.0
102
RTVSPost2010PropOp39
 70
     1
102
RTVSPost2010Prop40
 90
        0
102
RTVSPost2010PropOp40
 70
     1
102
RTVSPost2010Prop41ColorIndex
 90
      178
102
RTVSPost2010Prop41ColorRGB
 90
        0
102
RTVSPost2010PropOp41
 70
     1
102
RTVSPost2010Prop42
 90
       50
102
RTVSPost2010PropOp42
 70
     1
102
RTVSPost2010Prop43
 90
        3
102
RTVSPost2010PropOp43
 70
     1
102
RTVSPost2010Prop44ColorIndex
 90
        5
102
RTVSPost2010Prop44ColorRGB
 90
      255
102
RTVSPost2010PropOp44
 70
     1
102
RTVSPost2010Prop45
280
     0
102
RTVSPost2010PropOp45
 70
     1
102
RTVSPost2010Prop46
 90
       50
102
RTVSPost2010PropOp46
 70
     1
102
RTVSPost2010Prop47
 90
       50
102
RTVSPost2010PropOp47
 70
     1
102
RTVSPost2010Prop48
 90
       50
102
RTVSPost2010PropOp48
 70
     1
102
RTVSPost2010Prop49
280
     0
102
RTVSPost2010PropOp49
 70
     1
102
RTVSPost2010Prop50
 90
       50
102
RTVSPost2010PropOp50
 70
     1
102
RTVSPost2010Prop51ColorIndex
 90
      256
102
RTVSPost2010Prop51ColorRGB
 90
-16777216
102
RTVSPost2010PropOp51
 70
     0
102
RTVSPost2010Prop52
140
1.0
102
RTVSPost2010PropOp52
 70
     0
102
RTVSPost2010Prop53
 90
        2
102
RTVSPost2010PropOp53
 70
     1
102
RTVSPost2010Prop54
  1
strokes_ogs.tif
102
RTVSPost2010PropOp54
 70
     1
102
RTVSPost2010Prop55
280
     0
102
RTVSPost2010PropOp55
 70
     1
102
RTVSPost2010Prop56
140
1.0
102
RTVSPost2010PropOp56
 70
     1
102
RTVSPost2010Prop57
140
1.0
102
RTVSPost2010PropOp57
 70
     1
  0
XRECORD
  5
2E6
102
{ACAD_REACTORS
330
2E5
102
}
330
2E5
100
AcDbXrecord
280
     1
102
RTVSPropertyOp0
 70
     1
102
RTVSPropertyOp1
 70
     1
102
RTVSPropertyOp2
 70
     1
102
RTVSPropertyOp3
 70
     1
102
RTVSPropertyOp4
 70
     1
102
RTVSPropertyOp5
 70
     1
102
RTVSPropertyOp6
 70
     1
102
RTVSPropertyOp7
 70
     1
102
RTVSPropertyOp8
 70
     1
102
RTVSPropertyOp9
 70
     1
102
RTVSPropertyOp10
 70
     1
102
RTVSPropertyOp11
 70
     1
102
RTVSPropertyOp12
 70
     1
102
RTVSPropertyOp13
 70
     1
102
RTVSPropertyOp14
 70
     1
102
RTVSPropertyOp15
 70
     1
102
RTVSPropertyOp16
 70
     1
102
RTVSPropertyOp17
 70
     1
102
RTVSPropertyOp18
 70
     1
102
RTVSPropertyOp19
 70
     1
102
RTVSPropertyOp20
 70
     1
102
RTVSPropertyOp21
 70
     1
102
RTVSPropertyOp22
 70
     1
102
RTVSPropertyOp23
 70
     1
102
RTVSPropertyOp24
 70
     1
102
RTVSPropertyOp25
 70
     1
102
RTVSPropertyOp26
 70
     1
102
RTVSPropertyOp27
 70
     1
102
RTVSPropertyOp28
 70
     1
102
RTVSPropertyOp29
 70
     1
102
RTVSPropertyOp30
 70
     1
102
RTVSPropertyOp31
 70
     1
102
RTVSPropertyOp32
 70
     1
102
RTVSPropertyOp33
 70
     1
102
RTVSPropertyOp34
 70
     1
102
RTVSPropertyOp35
 70
     1
102
RTVSPropertyOp36
 70
     1
102
RTVSPropertyOp37
 70
     1
102
RTVSPropertyOp38
 70
     1
102
RTVSPropertyOp39
 70
     1
102
RTVSPropertyOp40
 70
     1
102
RTVSPropertyOp41
 70
     1
102
RTVSPropertyOp42
 70
     1
102
RTVSPropertyOp43
 70
     1
102
RTVSPropertyOp44
 70
     1
102
RTVSPropertyOp45
 70
     1
102
RTVSPropertyOp46
 70
     1
102
RTVSPropertyOp47
 70
     1
102
RTVSPropertyOp48
 70
     1
102
RTVSPropertyOp49
 70
     1
102
RTVSPropertyOp50
 70
     1
102
RTVSPropertyOp51
 70
     0
102
RTVSPropertyOp52
 70
     0
102
RTVSPropertyOp53
 70
     1
102
RTVSPropertyOp54
 70
     1
102
RTVSPropertyOp55
 70
     1
102
RTVSPropertyOp56
 70
     1
102
RTVSPropertyOp57
 70
     1
102
RTVSPost2010Prop28
280
     0
102
RTVSPost2010PropOp28
 70
     1
102
RTVSPost2010Prop29
280
     1
102
RTVSPost2010PropOp29
 70
     1
102
RTVSPost2010Prop30
280
     1
102
RTVSPost2010PropOp30
 70
     1
102
RTVSPost2010Prop31
280
     0
102
RTVSPost2010PropOp31
 70
     1
102
RTVSPost2010Prop32
280
     0
102
RTVSPost2010PropOp32
 70
     1
102
RTVSPost2010Prop33
280
     0
102
RTVSPost2010PropOp33
 70
     1
102
RTVSPost2010Prop34
280
     0
102
RTVSPost2010PropOp34
 70
     1
102
RTVSPost2010Prop35
280
     0
102
RTVSPost2010PropOp35
 70
     1
102
RTVSPost2010Prop36
280
     0
102
RTVSPost2010PropOp36
 70
     1
102
RTVSPost2010Prop37
 90
       50
102
RTVSPost2010PropOp37
 70
     1
102
RTVSPost2010Prop38
140
0.0
102
RTVSPost2010PropOp38
 70
     1
102
RTVSPost2010Prop39
140
1.0
102
RTVSPost2010PropOp39
 70
     1
102
RTVSPost2010Prop40
 90
        0
102
RTVSPost2010PropOp40
 70
     1
102
RTVSPost2010Prop41ColorIndex
 90
      178
102
RTVSPost2010Prop41ColorRGB
 90
        0
102
RTVSPost2010PropOp41
 70
     1
102
RTVSPost2010Prop42
 90
       50
102
RTVSPost2010PropOp42
 70
     1
102
RTVSPost2010Prop43
 90
        3
102
RTVSPost2010PropOp43
 70
     1
102
RTVSPost2010Prop44ColorIndex
 90
        5
102
RTVSPost2010Prop44ColorRGB
 90
      255
102
RTVSPost2010PropOp44
 70
     1
102
RTVSPost2010Prop45
280
     0
102
RTVSPost2010PropOp45
 70
     1
102
RTVSPost2010Prop46
 90
       50
102
RTVSPost2010PropOp46
 70
     1
102
RTVSPost2010Prop47
 90
       50
102
RTVSPost2010PropOp47
 70
     1
102
RTVSPost2010Prop48
 90
       50
102
RTVSPost2010PropOp48
 70
     1
102
RTVSPost2010Prop49
280
     0
102
RTVSPost2010PropOp49
 70
     1
102
RTVSPost2010Prop50
 90
       50
102
RTVSPost2010PropOp50
 70
     1
102
RTVSPost2010Prop51ColorIndex
 90
      256
102
RTVSPost2010Prop51ColorRGB
 90
-16777216
102
RTVSPost2010PropOp51
 70
     0
102
RTVSPost2010Prop52
140
1.0
102
RTVSPost2010PropOp52
 70
     0
102
RTVSPost2010Prop53
 90
        2
102
RTVSPost2010PropOp53
 70
     1
102
RTVSPost2010Prop54
  1
strokes_ogs.tif
102
RTVSPost2010PropOp54
 70
     1
102
RTVSPost2010Prop55
280
     0
102
RTVSPost2010PropOp55
 70
     1
102
RTVSPost2010Prop56
140
1.0
102
RTVSPost2010PropOp56
 70
     1
102
RTVSPost2010Prop57
140
1.0
102
RTVSPost2010PropOp57
 70
     1
  0
XRECORD
  5
2E0
102
{ACAD_REACTORS
330
2DF
102
}
330
2DF
100
AcDbXrecord
280
     1
102
RTVSPropertyOp0
 70
     1
102
RTVSPropertyOp1
 70
     1
102
RTVSPropertyOp2
 70
     1
102
RTVSPropertyOp3
 70
     1
102
RTVSPropertyOp4
 70
     1
102
RTVSPropertyOp5
 70
     1
102
RTVSPropertyOp6
 70
     1
102
RTVSPropertyOp7
 70
     1
102
RTVSPropertyOp8
 70
     1
102
RTVSPropertyOp9
 70
     1
102
RTVSPropertyOp10
 70
     1
102
RTVSPropertyOp11
 70
     1
102
RTVSPropertyOp12
 70
     1
102
RTVSPropertyOp13
 70
     1
102
RTVSPropertyOp14
 70
     1
102
RTVSPropertyOp15
 70
     1
102
RTVSPropertyOp16
 70
     1
102
RTVSPropertyOp17
 70
     1
102
RTVSPropertyOp18
 70
     1
102
RTVSPropertyOp19
 70
     1
102
RTVSPropertyOp20
 70
     1
102
RTVSPropertyOp21
 70
     1
102
RTVSPropertyOp22
 70
     1
102
RTVSPropertyOp23
 70
     1
102
RTVSPropertyOp24
 70
     1
102
RTVSPropertyOp25
 70
     1
102
RTVSPropertyOp26
 70
     1
102
RTVSPropertyOp27
 70
     1
102
RTVSPropertyOp28
 70
     1
102
RTVSPropertyOp29
 70
     1
102
RTVSPropertyOp30
 70
     1
102
RTVSPropertyOp31
 70
     1
102
RTVSPropertyOp32
 70
     1
102
RTVSPropertyOp33
 70
     1
102
RTVSPropertyOp34
 70
     1
102
RTVSPropertyOp35
 70
     1
102
RTVSPropertyOp36
 70
     1
102
RTVSPropertyOp37
 70
     1
102
RTVSPropertyOp38
 70
     1
102
RTVSPropertyOp39
 70
     1
102
RTVSPropertyOp40
 70
     1
102
RTVSPropertyOp41
 70
     1
102
RTVSPropertyOp42
 70
     1
102
RTVSPropertyOp43
 70
     1
102
RTVSPropertyOp44
 70
     1
102
RTVSPropertyOp45
 70
     1
102
RTVSPropertyOp46
 70
     1
102
RTVSPropertyOp47
 70
     1
102
RTVSPropertyOp48
 70
     1
102
RTVSPropertyOp49
 70
     1
102
RTVSPropertyOp50
 70
     1
102
RTVSPropertyOp51
 70
     0
102
RTVSPropertyOp52
 70
     0
102
RTVSPropertyOp53
 70
     1
102
RTVSPropertyOp54
 70
     1
102
RTVSPropertyOp55
 70
     1
102
RTVSPropertyOp56
 70
     1
102
RTVSPropertyOp57
 70
     1
102
RTVSPost2010Prop28
280
     0
102
RTVSPost2010PropOp28
 70
     1
102
RTVSPost2010Prop29
280
     1
102
RTVSPost2010PropOp29
 70
     1
102
RTVSPost2010Prop30
280
     1
102
RTVSPost2010PropOp30
 70
     1
102
RTVSPost2010Prop31
280
     0
102
RTVSPost2010PropOp31
 70
     1
102
RTVSPost2010Prop32
280
     0
102
RTVSPost2010PropOp32
 70
     1
102
RTVSPost2010Prop33
280
     0
102
RTVSPost2010PropOp33
 70
     1
102
RTVSPost2010Prop34
280
     0
102
RTVSPost2010PropOp34
 70
     1
102
RTVSPost2010Prop35
280
     0
102
RTVSPost2010PropOp35
 70
     1
102
RTVSPost2010Prop36
280
     0
102
RTVSPost2010PropOp36
 70
     1
102
RTVSPost2010Prop37
 90
       50
102
RTVSPost2010PropOp37
 70
     1
102
RTVSPost2010Prop38
140
0.0
102
RTVSPost2010PropOp38
 70
     1
102
RTVSPost2010Prop39
140
1.0
102
RTVSPost2010PropOp39
 70
     1
102
RTVSPost2010Prop40
 90
        0
102
RTVSPost2010PropOp40
 70
     1
102
RTVSPost2010Prop41ColorIndex
 90
      178
102
RTVSPost2010Prop41ColorRGB
 90
        0
102
RTVSPost2010PropOp41
 70
     1
102
RTVSPost2010Prop42
 90
       50
102
RTVSPost2010PropOp42
 70
     1
102
RTVSPost2010Prop43
 90
        3
102
RTVSPost2010PropOp43
 70
     1
102
RTVSPost2010Prop44ColorIndex
 90
        5
102
RTVSPost2010Prop44ColorRGB
 90
      255
102
RTVSPost2010PropOp44
 70
     1
102
RTVSPost2010Prop45
280
     0
102
RTVSPost2010PropOp45
 70
     1
102
RTVSPost2010Prop46
 90
       50
102
RTVSPost2010PropOp46
 70
     1
102
RTVSPost2010Prop47
 90
       50
102
RTVSPost2010PropOp47
 70
     1
102
RTVSPost2010Prop48
 90
       50
102
RTVSPost2010PropOp48
 70
     1
102
RTVSPost2010Prop49
280
     0
102
RTVSPost2010PropOp49
 70
     1
102
RTVSPost2010Prop50
 90
       50
102
RTVSPost2010PropOp50
 70
     1
102
RTVSPost2010Prop51ColorIndex
 90
      256
102
RTVSPost2010Prop51ColorRGB
 90
-16777216
102
RTVSPost2010PropOp51
 70
     0
102
RTVSPost2010Prop52
140
1.0
102
RTVSPost2010PropOp52
 70
     0
102
RTVSPost2010Prop53
 90
        2
102
RTVSPost2010PropOp53
 70
     1
102
RTVSPost2010Prop54
  1
strokes_ogs.tif
102
RTVSPost2010PropOp54
 70
     1
102
RTVSPost2010Prop55
280
     0
102
RTVSPost2010PropOp55
 70
     1
102
RTVSPost2010Prop56
140
1.0
102
RTVSPost2010PropOp56
 70
     1
102
RTVSPost2010Prop57
140
1.0
102
RTVSPost2010PropOp57
 70
     1
  0
XRECORD
  5
2E2
102
{ACAD_REACTORS
330
2E1
102
}
330
2E1
100
AcDbXrecord
280
     1
102
RTVSPropertyOp0
 70
     1
102
RTVSPropertyOp1
 70
     1
102
RTVSPropertyOp2
 70
     1
102
RTVSPropertyOp3
 70
     1
102
RTVSPropertyOp4
 70
     1
102
RTVSPropertyOp5
 70
     1
102
RTVSPropertyOp6
 70
     1
102
RTVSPropertyOp7
 70
     1
102
RTVSPropertyOp8
 70
     1
102
RTVSPropertyOp9
 70
     1
102
RTVSPropertyOp10
 70
     1
102
RTVSPropertyOp11
 70
     1
102
RTVSPropertyOp12
 70
     1
102
RTVSPropertyOp13
 70
     1
102
RTVSPropertyOp14
 70
     1
102
RTVSPropertyOp15
 70
     1
102
RTVSPropertyOp16
 70
     1
102
RTVSPropertyOp17
 70
     1
102
RTVSPropertyOp18
 70
     1
102
RTVSPropertyOp19
 70
     1
102
RTVSPropertyOp20
 70
     1
102
RTVSPropertyOp21
 70
     1
102
RTVSPropertyOp22
 70
     1
102
RTVSPropertyOp23
 70
     1
102
RTVSPropertyOp24
 70
     1
102
RTVSPropertyOp25
 70
     1
102
RTVSPropertyOp26
 70
     1
102
RTVSPropertyOp27
 70
     1
102
RTVSPropertyOp28
 70
     1
102
RTVSPropertyOp29
 70
     1
102
RTVSPropertyOp30
 70
     1
102
RTVSPropertyOp31
 70
     1
102
RTVSPropertyOp32
 70
     1
102
RTVSPropertyOp33
 70
     1
102
RTVSPropertyOp34
 70
     1
102
RTVSPropertyOp35
 70
     1
102
RTVSPropertyOp36
 70
     1
102
RTVSPropertyOp37
 70
     1
102
RTVSPropertyOp38
 70
     1
102
RTVSPropertyOp39
 70
     1
102
RTVSPropertyOp40
 70
     1
102
RTVSPropertyOp41
 70
     1
102
RTVSPropertyOp42
 70
     1
102
RTVSPropertyOp43
 70
     1
102
RTVSPropertyOp44
 70
     1
102
RTVSPropertyOp45
 70
     1
102
RTVSPropertyOp46
 70
     1
102
RTVSPropertyOp47
 70
     1
102
RTVSPropertyOp48
 70
     1
102
RTVSPropertyOp49
 70
     1
102
RTVSPropertyOp50
 70
     1
102
RTVSPropertyOp51
 70
     0
102
RTVSPropertyOp52
 70
     0
102
RTVSPropertyOp53
 70
     1
102
RTVSPropertyOp54
 70
     1
102
RTVSPropertyOp55
 70
     1
102
RTVSPropertyOp56
 70
     1
102
RTVSPropertyOp57
 70
     1
102
RTVSPost2010Prop28
280
     0
102
RTVSPost2010PropOp28
 70
     1
102
RTVSPost2010Prop29
280
     1
102
RTVSPost2010PropOp29
 70
     1
102
RTVSPost2010Prop30
280
     1
102
RTVSPost2010PropOp30
 70
     1
102
RTVSPost2010Prop31
280
     0
102
RTVSPost2010PropOp31
 70
     1
102
RTVSPost2010Prop32
280
     0
102
RTVSPost2010PropOp32
 70
     1
102
RTVSPost2010Prop33
280
     0
102
RTVSPost2010PropOp33
 70
     1
102
RTVSPost2010Prop34
280
     0
102
RTVSPost2010PropOp34
 70
     1
102
RTVSPost2010Prop35
280
     0
102
RTVSPost2010PropOp35
 70
     1
102
RTVSPost2010Prop36
280
     0
102
RTVSPost2010PropOp36
 70
     1
102
RTVSPost2010Prop37
 90
       50
102
RTVSPost2010PropOp37
 70
     1
102
RTVSPost2010Prop38
140
0.0
102
RTVSPost2010PropOp38
 70
     1
102
RTVSPost2010Prop39
140
1.0
102
RTVSPost2010PropOp39
 70
     1
102
RTVSPost2010Prop40
 90
        0
102
RTVSPost2010PropOp40
 70
     1
102
RTVSPost2010Prop41ColorIndex
 90
      178
102
RTVSPost2010Prop41ColorRGB
 90
        0
102
RTVSPost2010PropOp41
 70
     1
102
RTVSPost2010Prop42
 90
       50
102
RTVSPost2010PropOp42
 70
     1
102
RTVSPost2010Prop43
 90
        3
102
RTVSPost2010PropOp43
 70
     1
102
RTVSPost2010Prop44ColorIndex
 90
        5
102
RTVSPost2010Prop44ColorRGB
 90
      255
102
RTVSPost2010PropOp44
 70
     1
102
RTVSPost2010Prop45
280
     0
102
RTVSPost2010PropOp45
 70
     1
102
RTVSPost2010Prop46
 90
       50
102
RTVSPost2010PropOp46
 70
     1
102
RTVSPost2010Prop47
 90
       50
102
RTVSPost2010PropOp47
 70
     1
102
RTVSPost2010Prop48
 90
       50
102
RTVSPost2010PropOp48
 70
     1
102
RTVSPost2010Prop49
280
     0
102
RTVSPost2010PropOp49
 70
     1
102
RTVSPost2010Prop50
 90
       50
102
RTVSPost2010PropOp50
 70
     1
102
RTVSPost2010Prop51ColorIndex
 90
      256
102
RTVSPost2010Prop51ColorRGB
 90
-16777216
102
RTVSPost2010PropOp51
 70
     0
102
RTVSPost2010Prop52
140
1.0
102
RTVSPost2010PropOp52
 70
     0
102
RTVSPost2010Prop53
 90
        2
102
RTVSPost2010PropOp53
 70
     1
102
RTVSPost2010Prop54
  1
strokes_ogs.tif
102
RTVSPost2010PropOp54
 70
     1
102
RTVSPost2010Prop55
280
     0
102
RTVSPost2010PropOp55
 70
     1
102
RTVSPost2010Prop56
140
1.0
102
RTVSPost2010PropOp56
 70
     1
102
RTVSPost2010Prop57
140
1.0
102
RTVSPost2010PropOp57
 70
     1
  0
XRECORD
  5
2D2
102
{ACAD_REACTORS
330
2D1
102
}
330
2D1
100
AcDbXrecord
280
     1
102
RTVSPropertyOp0
 70
     1
102
RTVSPropertyOp1
 70
     1
102
RTVSPropertyOp2
 70
     1
102
RTVSPropertyOp3
 70
     1
102
RTVSPropertyOp4
 70
     1
102
RTVSPropertyOp5
 70
     1
102
RTVSPropertyOp6
 70
     1
102
RTVSPropertyOp7
 70
     1
102
RTVSPropertyOp8
 70
     1
102
RTVSPropertyOp9
 70
     1
102
RTVSPropertyOp10
 70
     1
102
RTVSPropertyOp11
 70
     1
102
RTVSPropertyOp12
 70
     1
102
RTVSPropertyOp13
 70
     1
102
RTVSPropertyOp14
 70
     1
102
RTVSPropertyOp15
 70
     1
102
RTVSPropertyOp16
 70
     1
102
RTVSPropertyOp17
 70
     1
102
RTVSPropertyOp18
 70
     1
102
RTVSPropertyOp19
 70
     1
102
RTVSPropertyOp20
 70
     1
102
RTVSPropertyOp21
 70
     1
102
RTVSPropertyOp22
 70
     1
102
RTVSPropertyOp23
 70
     1
102
RTVSPropertyOp24
 70
     1
102
RTVSPropertyOp25
 70
     1
102
RTVSPropertyOp26
 70
     1
102
RTVSPropertyOp27
 70
     1
102
RTVSPropertyOp28
 70
     1
102
RTVSPropertyOp29
 70
     1
102
RTVSPropertyOp30
 70
     1
102
RTVSPropertyOp31
 70
     1
102
RTVSPropertyOp32
 70
     1
102
RTVSPropertyOp33
 70
     1
102
RTVSPropertyOp34
 70
     1
102
RTVSPropertyOp35
 70
     1
102
RTVSPropertyOp36
 70
     1
102
RTVSPropertyOp37
 70
     1
102
RTVSPropertyOp38
 70
     1
102
RTVSPropertyOp39
 70
     1
102
RTVSPropertyOp40
 70
     1
102
RTVSPropertyOp41
 70
     1
102
RTVSPropertyOp42
 70
     1
102
RTVSPropertyOp43
 70
     1
102
RTVSPropertyOp44
 70
     1
102
RTVSPropertyOp45
 70
     1
102
RTVSPropertyOp46
 70
     1
102
RTVSPropertyOp47
 70
     1
102
RTVSPropertyOp48
 70
     1
102
RTVSPropertyOp49
 70
     1
102
RTVSPropertyOp50
 70
     1
102
RTVSPropertyOp51
 70
     0
102
RTVSPropertyOp52
 70
     0
102
RTVSPropertyOp53
 70
     1
102
RTVSPropertyOp54
 70
     1
102
RTVSPropertyOp55
 70
     1
102
RTVSPropertyOp56
 70
     1
102
RTVSPropertyOp57
 70
     1
102
RTVSPost2010Prop28
280
     0
102
RTVSPost2010PropOp28
 70
     1
102
RTVSPost2010Prop29
280
     1
102
RTVSPost2010PropOp29
 70
     1
102
RTVSPost2010Prop30
280
     1
102
RTVSPost2010PropOp30
 70
     1
102
RTVSPost2010Prop31
280
     0
102
RTVSPost2010PropOp31
 70
     1
102
RTVSPost2010Prop32
280
     0
102
RTVSPost2010PropOp32
 70
     1
102
RTVSPost2010Prop33
280
     0
102
RTVSPost2010PropOp33
 70
     1
102
RTVSPost2010Prop34
280
     0
102
RTVSPost2010PropOp34
 70
     1
102
RTVSPost2010Prop35
280
     0
102
RTVSPost2010PropOp35
 70
     1
102
RTVSPost2010Prop36
280
     0
102
RTVSPost2010PropOp36
 70
     1
102
RTVSPost2010Prop37
 90
       50
102
RTVSPost2010PropOp37
 70
     1
102
RTVSPost2010Prop38
140
0.0
102
RTVSPost2010PropOp38
 70
     1
102
RTVSPost2010Prop39
140
1.0
102
RTVSPost2010PropOp39
 70
     1
102
RTVSPost2010Prop40
 90
        0
102
RTVSPost2010PropOp40
 70
     1
102
RTVSPost2010Prop41ColorIndex
 90
      178
102
RTVSPost2010Prop41ColorRGB
 90
        0
102
RTVSPost2010PropOp41
 70
     1
102
RTVSPost2010Prop42
 90
       50
102
RTVSPost2010PropOp42
 70
     1
102
RTVSPost2010Prop43
 90
        3
102
RTVSPost2010PropOp43
 70
     1
102
RTVSPost2010Prop44ColorIndex
 90
        5
102
RTVSPost2010Prop44ColorRGB
 90
      255
102
RTVSPost2010PropOp44
 70
     1
102
RTVSPost2010Prop45
280
     0
102
RTVSPost2010PropOp45
 70
     1
102
RTVSPost2010Prop46
 90
       50
102
RTVSPost2010PropOp46
 70
     1
102
RTVSPost2010Prop47
 90
       50
102
RTVSPost2010PropOp47
 70
     1
102
RTVSPost2010Prop48
 90
       50
102
RTVSPost2010PropOp48
 70
     1
102
RTVSPost2010Prop49
280
     0
102
RTVSPost2010PropOp49
 70
     1
102
RTVSPost2010Prop50
 90
       50
102
RTVSPost2010PropOp50
 70
     1
102
RTVSPost2010Prop51ColorIndex
 90
      256
102
RTVSPost2010Prop51ColorRGB
 90
-16777216
102
RTVSPost2010PropOp51
 70
     0
102
RTVSPost2010Prop52
140
1.0
102
RTVSPost2010PropOp52
 70
     0
102
RTVSPost2010Prop53
 90
        2
102
RTVSPost2010PropOp53
 70
     1
102
RTVSPost2010Prop54
  1
strokes_ogs.tif
102
RTVSPost2010PropOp54
 70
     1
102
RTVSPost2010Prop55
280
     0
102
RTVSPost2010PropOp55
 70
     1
102
RTVSPost2010Prop56
140
1.0
102
RTVSPost2010PropOp56
 70
     1
102
RTVSPost2010Prop57
140
1.0
102
RTVSPost2010PropOp57
 70
     1
  0
XRECORD
  5
2C4
102
{ACAD_REACTORS
330
2C3
102
}
330
2C3
100
AcDbXrecord
280
     1
102
RTVSPropertyOp0
 70
     1
102
RTVSPropertyOp1
 70
     1
102
RTVSPropertyOp2
 70
     1
102
RTVSPropertyOp3
 70
     1
102
RTVSPropertyOp4
 70
     1
102
RTVSPropertyOp5
 70
     1
102
RTVSPropertyOp6
 70
     1
102
RTVSPropertyOp7
 70
     1
102
RTVSPropertyOp8
 70
     1
102
RTVSPropertyOp9
 70
     1
102
RTVSPropertyOp10
 70
     1
102
RTVSPropertyOp11
 70
     1
102
RTVSPropertyOp12
 70
     1
102
RTVSPropertyOp13
 70
     1
102
RTVSPropertyOp14
 70
     1
102
RTVSPropertyOp15
 70
     1
102
RTVSPropertyOp16
 70
     1
102
RTVSPropertyOp17
 70
     1
102
RTVSPropertyOp18
 70
     1
102
RTVSPropertyOp19
 70
     1
102
RTVSPropertyOp20
 70
     1
102
RTVSPropertyOp21
 70
     1
102
RTVSPropertyOp22
 70
     1
102
RTVSPropertyOp23
 70
     1
102
RTVSPropertyOp24
 70
     1
102
RTVSPropertyOp25
 70
     1
102
RTVSPropertyOp26
 70
     1
102
RTVSPropertyOp27
 70
     1
102
RTVSPropertyOp28
 70
     1
102
RTVSPropertyOp29
 70
     1
102
RTVSPropertyOp30
 70
     1
102
RTVSPropertyOp31
 70
     1
102
RTVSPropertyOp32
 70
     1
102
RTVSPropertyOp33
 70
     1
102
RTVSPropertyOp34
 70
     1
102
RTVSPropertyOp35
 70
     1
102
RTVSPropertyOp36
 70
     1
102
RTVSPropertyOp37
 70
     1
102
RTVSPropertyOp38
 70
     1
102
RTVSPropertyOp39
 70
     1
102
RTVSPropertyOp40
 70
     1
102
RTVSPropertyOp41
 70
     1
102
RTVSPropertyOp42
 70
     1
102
RTVSPropertyOp43
 70
     1
102
RTVSPropertyOp44
 70
     1
102
RTVSPropertyOp45
 70
     1
102
RTVSPropertyOp46
 70
     1
102
RTVSPropertyOp47
 70
     1
102
RTVSPropertyOp48
 70
     1
102
RTVSPropertyOp49
 70
     1
102
RTVSPropertyOp50
 70
     1
102
RTVSPropertyOp51
 70
     0
102
RTVSPropertyOp52
 70
     0
102
RTVSPropertyOp53
 70
     1
102
RTVSPropertyOp54
 70
     1
102
RTVSPropertyOp55
 70
     1
102
RTVSPropertyOp56
 70
     1
102
RTVSPropertyOp57
 70
     1
102
RTVSPost2010Prop28
280
     0
102
RTVSPost2010PropOp28
 70
     1
102
RTVSPost2010Prop29
280
     1
102
RTVSPost2010PropOp29
 70
     1
102
RTVSPost2010Prop30
280
     1
102
RTVSPost2010PropOp30
 70
     1
102
RTVSPost2010Prop31
280
     0
102
RTVSPost2010PropOp31
 70
     1
102
RTVSPost2010Prop32
280
     0
102
RTVSPost2010PropOp32
 70
     1
102
RTVSPost2010Prop33
280
     0
102
RTVSPost2010PropOp33
 70
     1
102
RTVSPost2010Prop34
280
     0
102
RTVSPost2010PropOp34
 70
     1
102
RTVSPost2010Prop35
280
     0
102
RTVSPost2010PropOp35
 70
     1
102
RTVSPost2010Prop36
280
     0
102
RTVSPost2010PropOp36
 70
     1
102
RTVSPost2010Prop37
 90
       50
102
RTVSPost2010PropOp37
 70
     1
102
RTVSPost2010Prop38
140
0.0
102
RTVSPost2010PropOp38
 70
     1
102
RTVSPost2010Prop39
140
1.0
102
RTVSPost2010PropOp39
 70
     1
102
RTVSPost2010Prop40
 90
        0
102
RTVSPost2010PropOp40
 70
     1
102
RTVSPost2010Prop41ColorIndex
 90
      178
102
RTVSPost2010Prop41ColorRGB
 90
        0
102
RTVSPost2010PropOp41
 70
     1
102
RTVSPost2010Prop42
 90
       50
102
RTVSPost2010PropOp42
 70
     1
102
RTVSPost2010Prop43
 90
        3
102
RTVSPost2010PropOp43
 70
     1
102
RTVSPost2010Prop44ColorIndex
 90
        5
102
RTVSPost2010Prop44ColorRGB
 90
      255
102
RTVSPost2010PropOp44
 70
     1
102
RTVSPost2010Prop45
280
     0
102
RTVSPost2010PropOp45
 70
     1
102
RTVSPost2010Prop46
 90
       50
102
RTVSPost2010PropOp46
 70
     1
102
RTVSPost2010Prop47
 90
       50
102
RTVSPost2010PropOp47
 70
     1
102
RTVSPost2010Prop48
 90
       50
102
RTVSPost2010PropOp48
 70
     1
102
RTVSPost2010Prop49
280
     0
102
RTVSPost2010PropOp49
 70
     1
102
RTVSPost2010Prop50
 90
       50
102
RTVSPost2010PropOp50
 70
     1
102
RTVSPost2010Prop51ColorIndex
 90
      256
102
RTVSPost2010Prop51ColorRGB
 90
-16777216
102
RTVSPost2010PropOp51
 70
     0
102
RTVSPost2010Prop52
140
1.0
102
RTVSPost2010PropOp52
 70
     0
102
RTVSPost2010Prop53
 90
        2
102
RTVSPost2010PropOp53
 70
     1
102
RTVSPost2010Prop54
  1
strokes_ogs.tif
102
RTVSPost2010PropOp54
 70
     1
102
RTVSPost2010Prop55
280
     0
102
RTVSPost2010PropOp55
 70
     1
102
RTVSPost2010Prop56
140
1.0
102
RTVSPost2010PropOp56
 70
     1
102
RTVSPost2010Prop57
140
1.0
102
RTVSPost2010PropOp57
 70
     1
  0
XRECORD
  5
2E4
102
{ACAD_REACTORS
330
2E3
102
}
330
2E3
100
AcDbXrecord
280
     1
102
RTVSPropertyOp0
 70
     1
102
RTVSPropertyOp1
 70
     1
102
RTVSPropertyOp2
 70
     1
102
RTVSPropertyOp3
 70
     1
102
RTVSPropertyOp4
 70
     1
102
RTVSPropertyOp5
 70
     1
102
RTVSPropertyOp6
 70
     1
102
RTVSPropertyOp7
 70
     1
102
RTVSPropertyOp8
 70
     1
102
RTVSPropertyOp9
 70
     1
102
RTVSPropertyOp10
 70
     1
102
RTVSPropertyOp11
 70
     1
102
RTVSPropertyOp12
 70
     1
102
RTVSPropertyOp13
 70
     1
102
RTVSPropertyOp14
 70
     1
102
RTVSPropertyOp15
 70
     1
102
RTVSPropertyOp16
 70
     1
102
RTVSPropertyOp17
 70
     1
102
RTVSPropertyOp18
 70
     1
102
RTVSPropertyOp19
 70
     1
102
RTVSPropertyOp20
 70
     1
102
RTVSPropertyOp21
 70
     1
102
RTVSPropertyOp22
 70
     1
102
RTVSPropertyOp23
 70
     1
102
RTVSPropertyOp24
 70
     1
102
RTVSPropertyOp25
 70
     1
102
RTVSPropertyOp26
 70
     1
102
RTVSPropertyOp27
 70
     1
102
RTVSPropertyOp28
 70
     1
102
RTVSPropertyOp29
 70
     1
102
RTVSPropertyOp30
 70
     1
102
RTVSPropertyOp31
 70
     1
102
RTVSPropertyOp32
 70
     1
102
RTVSPropertyOp33
 70
     1
102
RTVSPropertyOp34
 70
     1
102
RTVSPropertyOp35
 70
     1
102
RTVSPropertyOp36
 70
     1
102
RTVSPropertyOp37
 70
     1
102
RTVSPropertyOp38
 70
     1
102
RTVSPropertyOp39
 70
     1
102
RTVSPropertyOp40
 70
     1
102
RTVSPropertyOp41
 70
     1
102
RTVSPropertyOp42
 70
     1
102
RTVSPropertyOp43
 70
     1
102
RTVSPropertyOp44
 70
     1
102
RTVSPropertyOp45
 70
     1
102
RTVSPropertyOp46
 70
     1
102
RTVSPropertyOp47
 70
     1
102
RTVSPropertyOp48
 70
     1
102
RTVSPropertyOp49
 70
     1
102
RTVSPropertyOp50
 70
     1
102
RTVSPropertyOp51
 70
     0
102
RTVSPropertyOp52
 70
     0
102
RTVSPropertyOp53
 70
     1
102
RTVSPropertyOp54
 70
     1
102
RTVSPropertyOp55
 70
     1
102
RTVSPropertyOp56
 70
     1
102
RTVSPropertyOp57
 70
     1
102
RTVSPost2010Prop28
280
     0
102
RTVSPost2010PropOp28
 70
     1
102
RTVSPost2010Prop29
280
     1
102
RTVSPost2010PropOp29
 70
     1
102
RTVSPost2010Prop30
280
     1
102
RTVSPost2010PropOp30
 70
     1
102
RTVSPost2010Prop31
280
     0
102
RTVSPost2010PropOp31
 70
     1
102
RTVSPost2010Prop32
280
     0
102
RTVSPost2010PropOp32
 70
     1
102
RTVSPost2010Prop33
280
     0
102
RTVSPost2010PropOp33
 70
     1
102
RTVSPost2010Prop34
280
     0
102
RTVSPost2010PropOp34
 70
     1
102
RTVSPost2010Prop35
280
     0
102
RTVSPost2010PropOp35
 70
     1
102
RTVSPost2010Prop36
280
     0
102
RTVSPost2010PropOp36
 70
     1
102
RTVSPost2010Prop37
 90
       50
102
RTVSPost2010PropOp37
 70
     1
102
RTVSPost2010Prop38
140
0.0
102
RTVSPost2010PropOp38
 70
     1
102
RTVSPost2010Prop39
140
1.0
102
RTVSPost2010PropOp39
 70
     1
102
RTVSPost2010Prop40
 90
        0
102
RTVSPost2010PropOp40
 70
     1
102
RTVSPost2010Prop41ColorIndex
 90
      178
102
RTVSPost2010Prop41ColorRGB
 90
        0
102
RTVSPost2010PropOp41
 70
     1
102
RTVSPost2010Prop42
 90
       50
102
RTVSPost2010PropOp42
 70
     1
102
RTVSPost2010Prop43
 90
        3
102
RTVSPost2010PropOp43
 70
     1
102
RTVSPost2010Prop44ColorIndex
 90
        5
102
RTVSPost2010Prop44ColorRGB
 90
      255
102
RTVSPost2010PropOp44
 70
     1
102
RTVSPost2010Prop45
280
     0
102
RTVSPost2010PropOp45
 70
     1
102
RTVSPost2010Prop46
 90
       50
102
RTVSPost2010PropOp46
 70
     1
102
RTVSPost2010Prop47
 90
       50
102
RTVSPost2010PropOp47
 70
     1
102
RTVSPost2010Prop48
 90
       50
102
RTVSPost2010PropOp48
 70
     1
102
RTVSPost2010Prop49
280
     0
102
RTVSPost2010PropOp49
 70
     1
102
RTVSPost2010Prop50
 90
       50
102
RTVSPost2010PropOp50
 70
     1
102
RTVSPost2010Prop51ColorIndex
 90
      256
102
RTVSPost2010Prop51ColorRGB
 90
-16777216
102
RTVSPost2010PropOp51
 70
     0
102
RTVSPost2010Prop52
140
1.0
102
RTVSPost2010PropOp52
 70
     0
102
RTVSPost2010Prop53
 90
        2
102
RTVSPost2010PropOp53
 70
     1
102
RTVSPost2010Prop54
  1
strokes_ogs.tif
102
RTVSPost2010PropOp54
 70
     1
102
RTVSPost2010Prop55
280
     0
102
RTVSPost2010PropOp55
 70
     1
102
RTVSPost2010Prop56
140
1.0
102
RTVSPost2010PropOp56
 70
     1
102
RTVSPost2010Prop57
140
1.0
102
RTVSPost2010PropOp57
 70
     1
  0
ENDSEC
  0
EOF
