  0
SECTION
  2
HEADER
  9
$ACADVER
  1
AC1012
  9
$DWGCODEPAGE
  3
undefined
  9
$INSBASE
 10
0.0
 20
0.0
 30
0.0
  9
$EXTMIN
 10
1.000000000000000E+20
 20
1.000000000000000E+20
 30
1.000000000000000E+20
  9
$EXTMAX
 10
-1.000000000000000E+20
 20
-1.000000000000000E+20
 30
-1.000000000000000E+20
  9
$LIMMIN
 10
0.0
 20
0.0
  9
$LIMMAX
 10
12.0
 20
9.0
  9
$ORTHOMODE
 70
     0
  9
$REGENMODE
 70
     1
  9
$FILLMODE
 70
     1
  9
$QTEXTMODE
 70
     0
  9
$MIRRTEXT
 70
     1
  9
$DRAGMODE
 70
     2
  9
$LTSCALE
 40
1.0
  9
$OSMODE
 70
    37
  9
$ATTMODE
 70
     1
  9
$TEXTSIZE
 40
0.2
  9
$TRACEWID
 40
0.05
  9
$TEXTSTYLE
  7
STANDARD
  9
$CLAYER
  8
0
  9
$CELTYPE
  6
BYLAYER
  9
$CECOLOR
 62
   256
  9
$CELTSCALE
 40
1.0
  9
$DELOBJ
 70
     1
  9
$DISPSILH
 70
     0
  9
$DIMSCALE
 40
1.0
  9
$DIMASZ
 40
0.18
  9
$DIMEXO
 40
0.0625
  9
$DIMDLI
 40
0.38
  9
$DIMRND
 40
0.0
  9
$DIMDLE
 40
0.0
  9
$DIMEXE
 40
0.18
  9
$DIMTP
 40
0.0
  9
$DIMTM
 40
0.0
  9
$DIMTXT
 40
0.18
  9
$DIMCEN
 40
0.09
  9
$DIMTSZ
 40
0.0
  9
$DIMTOL
 70
     0
  9
$DIMLIM
 70
     0
  9
$DIMTIH
 70
     1
  9
$DIMTOH
 70
     1
  9
$DIMSE1
 70
     0
  9
$DIMSE2
 70
     0
  9
$DIMTAD
 70
     0
  9
$DIMZIN
 70
     0
  9
$DIMBLK
  1

  9
$DIMASO
 70
     1
  9
$DIMSHO
 70
     1
  9
$DIMPOST
  1

  9
$DIMAPOST
  1

  9
$DIMALT
 70
     0
  9
$DIMALTD
 70
     2
  9
$DIMALTF
 40
25.4
  9
$DIMLFAC
 40
1.0
  9
$DIMTOFL
 70
     0
  9
$DIMTVP
 40
0.0
  9
$DIMTIX
 70
     0
  9
$DIMSOXD
 70
     0
  9
$DIMSAH
 70
     0
  9
$DIMBLK1
  1

  9
$DIMBLK2
  1

  9
$DIMSTYLE
  2
STANDARD
  9
$DIMCLRD
 70
     0
  9
$DIMCLRE
 70
     0
  9
$DIMCLRT
 70
     0
  9
$DIMTFAC
 40
1.0
  9
$DIMGAP
 40
0.09
  9
$DIMJUST
 70
     0
  9
$DIMSD1
 70
     0
  9
$DIMSD2
 70
     0
  9
$DIMTOLJ
 70
     1
  9
$DIMTZIN
 70
     0
  9
$DIMALTZ
 70
     0
  9
$DIMALTTZ
 70
     0
  9
$DIMFIT
 70
     3
  9
$DIMUPT
 70
     0
  9
$DIMUNIT
 70
     2
  9
$DIMDEC
 70
     4
  9
$DIMTDEC
 70
     4
  9
$DIMALTU
 70
     2
  9
$DIMALTTD
 70
     2
  9
$DIMTXSTY
  7
STANDARD
  9
$DIMAUNIT
 70
     0
  9
$LUNITS
 70
     2
  9
$LUPREC
 70
     4
  9
$SKETCHINC
 40
0.1
  9
$FILLETRAD
 40
0.5
  9
$AUNITS
 70
     0
  9
$AUPREC
 70
     0
  9
$MENU
  1
.
  9
$ELEVATION
 40
0.0
  9
$PELEVATION
 40
0.0
  9
$THICKNESS
 40
0.0
  9
$LIMCHECK
 70
     0
  9
$CHAMFERA
 40
0.5
  9
$CHAMFERB
 40
0.5
  9
$CHAMFERC
 40
1.0
  9
$CHAMFERD
 40
0.0
  9
$SKPOLY
 70
     0
  9
$TDCREATE
 40
2457435.172118056
  9
$TDUPDATE
 40
2457435.172118056
  9
$TDINDWG
 40
0.0000000116
  9
$TDUSRTIMER
 40
0.0000000116
  9
$USRTIMER
 70
     1
  9
$ANGBASE
 50
0.0
  9
$ANGDIR
 70
     0
  9
$PDMODE
 70
     0
  9
$PDSIZE
 40
0.0
  9
$PLINEWID
 40
0.0
  9
$COORDS
 70
     1
  9
$SPLFRAME
 70
     0
  9
$SPLINETYPE
 70
     6
  9
$SPLINESEGS
 70
     8
  9
$ATTDIA
 70
     0
  9
$ATTREQ
 70
     1
  9
$HANDLING
 70
     1
  9
$HANDSEED
  5
57
  9
$SURFTAB1
 70
     6
  9
$SURFTAB2
 70
     6
  9
$SURFTYPE
 70
     6
  9
$SURFU
 70
     6
  9
$SURFV
 70
     6
  9
$UCSNAME
  2

  9
$UCSORG
 10
0.0
 20
0.0
 30
0.0
  9
$UCSXDIR
 10
1.0
 20
0.0
 30
0.0
  9
$UCSYDIR
 10
0.0
 20
1.0
 30
0.0
  9
$PUCSNAME
  2

  9
$PUCSORG
 10
0.0
 20
0.0
 30
0.0
  9
$PUCSXDIR
 10
1.0
 20
0.0
 30
0.0
  9
$PUCSYDIR
 10
0.0
 20
1.0
 30
0.0
  9
$USERI1
 70
     0
  9
$USERI2
 70
     0
  9
$USERI3
 70
     0
  9
$USERI4
 70
     0
  9
$USERI5
 70
     0
  9
$USERR1
 40
0.0
  9
$USERR2
 40
0.0
  9
$USERR3
 40
0.0
  9
$USERR4
 40
0.0
  9
$USERR5
 40
0.0
  9
$WORLDVIEW
 70
     1
  9
$SHADEDGE
 70
     3
  9
$SHADEDIF
 70
    70
  9
$TILEMODE
 70
     1
  9
$MAXACTVP
 70
    64
  9
$PINSBASE
 10
0.0
 20
0.0
 30
0.0
  9
$PLIMCHECK
 70
     0
  9
$PEXTMIN
 10
1.000000000000000E+20
 20
1.000000000000000E+20
 30
1.000000000000000E+20
  9
$PEXTMAX
 10
-1.000000000000000E+20
 20
-1.000000000000000E+20
 30
-1.000000000000000E+20
  9
$PLIMMIN
 10
0.0
 20
0.0
  9
$PLIMMAX
 10
12.0
 20
9.0
  9
$UNITMODE
 70
     0
  9
$VISRETAIN
 70
     1
  9
$PLINEGEN
 70
     0
  9
$PSLTSCALE
 70
     1
  9
$TREEDEPTH
 70
  3020
  9
$PICKSTYLE
 70
     1
  9
$CMLSTYLE
  2
STANDARD
  9
$CMLJUST
 70
     0
  9
$CMLSCALE
 40
1.0
  9
$SAVEIMAGES
 70
     1
  0
ENDSEC
  0
SECTION
  2
CLASSES
  0
CLASS
  1
ACDBDICTIONARYWDFLT
  2
AcDbDictionaryWithDefault
  3
ObjectDBX Classes
 90
    32768
280
     0
281
     0
  0
CLASS
  1
VISUALSTYLE
  2
AcDbVisualStyle
  3
ObjectDBX Classes
 90
     4095
280
     0
281
     0
  0
CLASS
  1
MATERIAL
  2
AcDbMaterial
  3
ObjectDBX Classes
 90
     1153
280
     0
281
     0
  0
CLASS
  1
SUN
  2
AcDbSun
  3
SCENEOE
 90
     1024
280
     0
281
     0
  0
CLASS
  1
DICTIONARYVAR
  2
AcDbDictionaryVar
  3
ObjectDBX Classes
 90
        0
280
     0
281
     0
  0
CLASS
  1
XRECORD
  2
AcDbXrecord
  3
AutoCAD 2000
 90
    32768
280
     0
281
     0
  0
CLASS
  1
LWPOLYLINE
  2
AcDbPolyline
  3
AutoCAD 2000
 90
    32768
280
     0
281
     1
  0
CLASS
  1
HATCH
  2
AcDbHatch
  3
AutoCAD 2000
 90
    32768
280
     0
281
     1
  0
CLASS
  1
ACDBPLACEHOLDER
  2
AcDbPlaceHolder
  3
ObjectDBX Classes
 90
        0
280
     0
281
     0
  0
CLASS
  1
LAYOUT
  2
AcDbLayout
  3
ObjectDBX Classes
 90
        0
280
     0
281
     0
  0
ENDSEC
  0
SECTION
  2
TABLES
  0
TABLE
  2
VPORT
  5
8
330
0
100
AcDbSymbolTable
 70
     1
  0
VPORT
  5
29
330
8
100
AcDbSymbolTableRecord
100
AcDbViewportTableRecord
  2
*ACTIVE
 70
     0
 10
0.0
 20
0.0
 11
1.0
 21
1.0
 12
0.0
 22
0.0
 13
0.0
 23
0.0
 14
0.5
 24
0.5
 15
0.5
 25
0.5
 16
0.0
 26
0.0
 36
1.0
 17
148.5000416295416
 27
-105.0007777515277
 37
0.0
 40
210.0015555030554
 41
1.414275634995294
 42
50.0
 43
0.0
 44
0.0
 50
0.0
 51
0.0
 71
     0
 72
   100
 73
     1
 74
     3
 75
     0
 76
     0
 77
     0
 78
     0
  0
ENDTAB
  0
TABLE
  2
LTYPE
  5
5
330
0
100
AcDbSymbolTable
 70
     1
  0
LTYPE
  5
14
330
5
100
AcDbSymbolTableRecord
100
AcDbLinetypeTableRecord
  2
BYBLOCK
 70
     0
  3

 72
    65
 73
     0
 40
0.0
  0
LTYPE
  5
15
330
5
100
AcDbSymbolTableRecord
100
AcDbLinetypeTableRecord
  2
BYLAYER
 70
     0
  3

 72
    65
 73
     0
 40
0.0
  0
LTYPE
  5
16
330
5
100
AcDbSymbolTableRecord
100
AcDbLinetypeTableRecord
  2
CONTINUOUS
 70
     0
  3
Solid line
 72
    65
 73
     0
 40
0.0
  0
ENDTAB
  0
TABLE
  2
LAYER
  5
2
330
0
100
AcDbSymbolTable
 70
     2
  0
LAYER
  5
10
330
2
100
AcDbSymbolTableRecord
100
AcDbLayerTableRecord
  2
0
 70
     0
 62
     7
  6
CONTINUOUS
  0
LAYER
  5
40
330
2
100
AcDbSymbolTableRecord
100
AcDbLayerTableRecord
  2
_U_30EC_U_30A4_U_30E4_U_30
 70
     0
 62
     7
  6
CONTINUOUS
  0
ENDTAB
  0
TABLE
  2
STYLE
  5
3
330
0
100
AcDbSymbolTable
 70
     1
  0
STYLE
  5
11
330
3
100
AcDbSymbolTableRecord
100
AcDbTextStyleTableRecord
  2
STANDARD
 70
     0
 40
0.0
 41
1.0
 50
0.0
 71
     0
 42
0.2
  3
txt
  4

  0
ENDTAB
  0
TABLE
  2
VIEW
  5
6
330
0
100
AcDbSymbolTable
 70
     0
  0
ENDTAB
  0
TABLE
  2
UCS
  5
7
330
0
100
AcDbSymbolTable
 70
     0
  0
ENDTAB
  0
TABLE
  2
APPID
  5
9
330
0
100
AcDbSymbolTable
 70
     1
  0
APPID
  5
12
330
9
100
AcDbSymbolTableRecord
100
AcDbRegAppTableRecord
  2
ACAD
 70
     0
  0
ENDTAB
  0
TABLE
  2
DIMSTYLE
  5
A
330
0
100
AcDbSymbolTable
 70
     1
  0
DIMSTYLE
105
27
330
A
100
AcDbSymbolTableRecord
100
AcDbDimStyleTableRecord
  2
STANDARD
 70
     0
  3

  4

  5

  6

  7

 40
1.0
 41
0.18
 42
0.0625
 43
0.38
 44
0.18
 45
0.0
 46
0.0
 47
0.0
 48
0.0
140
0.18
141
0.09
142
0.0
143
25.4
144
1.0
145
0.0
146
1.0
147
0.09
 71
     0
 72
     0
 73
     1
 74
     1
 75
     0
 76
     0
 77
     0
 78
     0
170
     0
171
     2
172
     0
173
     0
174
     0
175
     0
176
     0
177
     0
178
     0
270
     2
271
     4
272
     4
273
     2
274
     2
340
11
275
     0
280
     0
281
     0
282
     0
283
     1
284
     0
285
     0
286
     0
287
     3
288
     0
  0
ENDTAB
  0
TABLE
  2
BLOCK_RECORD
  5
1
330
0
100
AcDbSymbolTable
 70
     1
  0
BLOCK_RECORD
  5
1F
330
1
100
AcDbSymbolTableRecord
100
AcDbBlockTableRecord
  2
*MODEL_SPACE
  0
BLOCK_RECORD
  5
1B
330
1
100
AcDbSymbolTableRecord
100
AcDbBlockTableRecord
  2
*PAPER_SPACE
  0
ENDTAB
  0
ENDSEC
  0
SECTION
  2
BLOCKS
  0
BLOCK
  5
20
330
1F
100
AcDbEntity
  8
0
100
AcDbBlockBegin
  2
*MODEL_SPACE
 70
     0
 10
0.0
 20
0.0
 30
0.0
  3
*MODEL_SPACE
  1

  0
ENDBLK
  5
21
330
1F
100
AcDbEntity
  8
0
100
AcDbBlockEnd
  0
BLOCK
  5
1C
330
1B
100
AcDbEntity
 67
     1
  8
0
100
AcDbBlockBegin
  2
*PAPER_SPACE
 70
     0
 10
0.0
 20
0.0
 30
0.0
  3
*PAPER_SPACE
  1

  0
ENDBLK
  5
1D
330
1B
100
AcDbEntity
 67
     1
  8
0
100
AcDbBlockEnd
  0
ENDSEC
  0
SECTION
  2
ENTITIES
  0
SPLINE
  5
41
330
1F
100
AcDbEntity
  8
_U_30EC_U_30A4_U_30E4_U_30
 62
    29
100
AcDbSpline
210
0.0
220
0.0
230
1.0
 70
    11
 71
     3
 72
   278
 73
   274
 74
     0
 42
0.0000000001
 43
0.0000000001
 12
1.0
 22
0.0
 32
0.0
 13
1.0
 23
0.0
 33
0.0
 40
0.0
 40
0.0
 40
0.0
 40
0.0
 40
1.0
 40
1.0
 40
1.0
 40
2.0
 40
2.0
 40
2.0
 40
3.0
 40
3.0
 40
3.0
 40
4.0
 40
4.0
 40
4.0
 40
5.0
 40
5.0
 40
5.0
 40
6.0
 40
6.0
 40
6.0
 40
7.0
 40
7.0
 40
7.0
 40
8.0
 40
8.0
 40
8.0
 40
9.0
 40
9.0
 40
9.0
 40
10.0
 40
10.0
 40
10.0
 40
11.0
 40
11.0
 40
11.0
 40
12.0
 40
12.0
 40
12.0
 40
13.0
 40
13.0
 40
13.0
 40
14.0
 40
14.0
 40
14.0
 40
15.0
 40
15.0
 40
15.0
 40
16.0
 40
16.0
 40
16.0
 40
17.0
 40
17.0
 40
17.0
 40
18.0
 40
18.0
 40
18.0
 40
19.0
 40
19.0
 40
19.0
 40
20.0
 40
20.0
 40
20.0
 40
21.0
 40
21.0
 40
21.0
 40
22.0
 40
22.0
 40
22.0
 40
23.0
 40
23.0
 40
23.0
 40
24.0
 40
24.0
 40
24.0
 40
25.0
 40
25.0
 40
25.0
 40
26.0
 40
26.0
 40
26.0
 40
27.0
 40
27.0
 40
27.0
 40
28.0
 40
28.0
 40
28.0
 40
29.0
 40
29.0
 40
29.0
 40
30.0
 40
30.0
 40
30.0
 40
31.0
 40
31.0
 40
31.0
 40
32.0
 40
32.0
 40
32.0
 40
33.0
 40
33.0
 40
33.0
 40
34.0
 40
34.0
 40
34.0
 40
35.0
 40
35.0
 40
35.0
 40
36.0
 40
36.0
 40
36.0
 40
37.0
 40
37.0
 40
37.0
 40
38.0
 40
38.0
 40
38.0
 40
39.0
 40
39.0
 40
39.0
 40
40.0
 40
40.0
 40
40.0
 40
41.0
 40
41.0
 40
41.0
 40
42.0
 40
42.0
 40
42.0
 40
43.0
 40
43.0
 40
43.0
 40
44.0
 40
44.0
 40
44.0
 40
45.0
 40
45.0
 40
45.0
 40
46.0
 40
46.0
 40
46.0
 40
47.0
 40
47.0
 40
47.0
 40
48.0
 40
48.0
 40
48.0
 40
49.0
 40
49.0
 40
49.0
 40
50.0
 40
50.0
 40
50.0
 40
51.0
 40
51.0
 40
51.0
 40
52.0
 40
52.0
 40
52.0
 40
53.0
 40
53.0
 40
53.0
 40
54.0
 40
54.0
 40
54.0
 40
55.0
 40
55.0
 40
55.0
 40
56.0
 40
56.0
 40
56.0
 40
57.0
 40
57.0
 40
57.0
 40
58.0
 40
58.0
 40
58.0
 40
59.0
 40
59.0
 40
59.0
 40
60.0
 40
60.0
 40
60.0
 40
61.0
 40
61.0
 40
61.0
 40
62.0
 40
62.0
 40
62.0
 40
63.0
 40
63.0
 40
63.0
 40
64.0
 40
64.0
 40
64.0
 40
65.0
 40
65.0
 40
65.0
 40
66.0
 40
66.0
 40
66.0
 40
67.0
 40
67.0
 40
67.0
 40
68.0
 40
68.0
 40
68.0
 40
69.0
 40
69.0
 40
69.0
 40
70.0
 40
70.0
 40
70.0
 40
71.0
 40
71.0
 40
71.0
 40
72.0
 40
72.0
 40
72.0
 40
73.0
 40
73.0
 40
73.0
 40
74.0
 40
74.0
 40
74.0
 40
75.0
 40
75.0
 40
75.0
 40
76.0
 40
76.0
 40
76.0
 40
77.0
 40
77.0
 40
77.0
 40
78.0
 40
78.0
 40
78.0
 40
79.0
 40
79.0
 40
79.0
 40
80.0
 40
80.0
 40
80.0
 40
81.0
 40
81.0
 40
81.0
 40
82.0
 40
82.0
 40
82.0
 40
83.0
 40
83.0
 40
83.0
 40
84.0
 40
84.0
 40
84.0
 40
85.0
 40
85.0
 40
85.0
 40
86.0
 40
86.0
 40
86.0
 40
87.0
 40
87.0
 40
87.0
 40
88.0
 40
88.0
 40
88.0
 40
89.0
 40
89.0
 40
89.0
 40
90.0
 40
90.0
 40
90.0
 40
91.0
 40
91.0
 40
91.0
 40
91.0
 10
25.30049590465055
 20
-112.0916884862605
 30
0.0
 10
26.81136625997252
 20
-112.0916884862605
 30
0.0
 10
28.29799955484397
 20
-112.0916884862605
 30
0.0
 10
29.80049588676174
 20
-112.0916884862605
 30
0.0
 10
29.80049588676174
 20
-112.0240035500066
 30
0.0
 10
29.80049588676174
 20
-111.9643905131339
 30
0.0
 10
29.80049588676174
 20
-111.9047774762611
 30
0.0
 10
29.80049588676174
 20
-110.521498571441
 30
0.0
 10
29.8017857630587
 20
-109.1382161062371
 30
0.0
 10
29.79819893039066
 20
-107.754946229534
 30
0.0
 10
29.79789172010543
 20
-107.6362496357674
 30
0.0
 10
29.83943631629444
 20
-107.5570228243556
 30
0.0
 10
29.91158190520035
 20
-107.463210645163
 30
0.0
 10
30.14164578774932
 20
-107.1640539487613
 30
0.0
 10
30.42652941291891
 20
-107.0910281820434
 30
0.0
 10
30.80036567445363
 20
-107.0913792613465
 30
0.0
 10
42.07213890438464
 20
-107.1019677165048
 30
0.0
 10
53.34391620332606
 20
-107.1002617838942
 30
0.0
 10
64.61569757127788
 20
-107.0970780375692
 30
0.0
 10
64.75956964101844
 20
-107.0970373474652
 30
0.0
 10
64.85296970575132
 20
-107.1507617633487
 30
0.0
 10
64.96354913239506
 20
-107.2367482182884
 30
0.0
 10
65.24419691773774
 20
-107.4549698818493
 30
0.0
 10
65.3150383888103
 20
-107.7206176418204
 30
0.0
 10
65.30908949560477
 20
-108.070149704233
 30
0.0
 10
65.28736911808696
 20
-109.347508199318
 30
0.0
 10
65.30049574563894
 20
-110.6254587354159
 30
0.0
 10
65.30049574563894
 20
-111.9031864931952
 30
0.0
 10
65.30049574563894
 20
-111.9629409281785
 30
0.0
 10
65.30049574563894
 20
-112.0226953631625
 30
0.0
 10
65.30049574563894
 20
-112.0911264541991
 30
0.0
 10
66.80186292717056
 20
-112.0911264541991
 30
0.0
 10
68.28850029105242
 20
-112.0911264541991
 30
0.0
 10
69.80049572775013
 20
-112.0911264541991
 30
0.0
 10
69.80049572775013
 20
-112.0292912290217
 30
0.0
 10
69.80049572775013
 20
-111.9653838602976
 30
0.0
 10
69.80049572775013
 20
-111.9014770002003
 30
0.0
 10
69.80049572775013
 20
-110.5181975867541
 30
0.0
 10
69.8019605714943
 20
-109.1349143586105
 30
0.0
 10
69.79790783713541
 20
-107.7516470250383
 30
0.0
 10
69.79755790224097
 20
-107.631489783695
 30
0.0
 10
69.84356213382893
 20
-107.5544129356536
 30
0.0
 10
69.91404553198623
 20
-107.4610667853087
 30
0.0
 10
70.14291922899307
 20
-107.1579360644673
 30
0.0
 10
70.43176200128232
 20
-107.0914619131203
 30
0.0
 10
70.80366141386642
 20
-107.0917943004073
 30
0.0
 10
82.06988044460077
 20
-107.101864719679
 30
0.0
 10
93.3361076133559
 20
-107.1003627462152
 30
0.0
 10
104.602334782111
 20
-107.096314080866
 30
0.0
 10
104.7604402502325
 20
-107.0962572418769
 30
0.0
 10
104.8596508618173
 20
-107.1567603747746
 30
0.0
 10
104.9778637519724
 20
-107.2507447239698
 30
0.0
 10
105.2405834774905
 20
-107.4596196163278
 30
0.0
 10
105.3136140761585
 20
-107.7075493791364
 30
0.0
 10
105.3087149876363
 20
-108.0400909071518
 30
0.0
 10
105.2889151830275
 20
-109.384078175979
 30
0.0
 10
105.3004955866273
 20
-110.7285277861131
 30
0.0
 10
105.3004955866273
 20
-112.0864002986187
 30
0.0
 10
106.7962800858895
 20
-112.0864002986187
 30
0.0
 10
108.2868643898598
 20
-112.0864002986187
 30
0.0
 10
109.8004955687385
 20
-112.0864002986187
 30
0.0
 10
109.8004955687385
 20
-112.0266255185827
 30
0.0
 10
109.8004955687385
 20
-111.9624017843008
 30
0.0
 10
109.8004955687385
 20
-111.8981785586443
 30
0.0
 10
109.8004955687385
 20
-110.5148991451981
 30
0.0
 10
109.8021801390443
 20
-109.1316146454887
 30
0.0
 10
109.7975902953126
 20
-107.7483506179879
 30
0.0
 10
109.7971833942725
 20
-107.6265421213611
 30
0.0
 10
109.8466300086593
 20
-107.5513218864709
 30
0.0
 10
109.9167878859846
 20
-107.4590439785129
 30
0.0
 10
110.1416495387365
 20
-107.163274987583
 30
0.0
 10
110.4215079360615
 20
-107.0906306905893
 30
0.0
 10
110.7903067627204
 20
-107.0912379903917
 30
0.0
 10
117.9622224243141
 20
-107.1030472758261
 30
0.0
 10
125.134170637991
 20
-107.0999998413498
 30
0.0
 10
132.3061107136472
 20
-107.0999998413498
 30
0.0
 10
132.3769277706573
 20
-107.0999998413498
 30
0.0
 10
132.4477448276675
 20
-107.0999998413498
 30
0.0
 10
132.5338288117003
 20
-107.0999998413498
 30
0.0
 10
132.5338288117003
 20
-107.1813858985619
 30
0.0
 10
132.5338288117003
 20
-107.246540418974
 30
0.0
 10
132.5338288117003
 20
-107.3116948122283
 30
0.0
 10
132.5338288117003
 20
-110.4449055541677
 30
0.0
 10
132.5332510122234
 20
-113.5781168047331
 30
0.0
 10
132.5360098012749
 20
-116.7113250035408
 30
0.0
 10
132.5361237335661
 20
-116.8298033966247
 30
0.0
 10
132.4954173535196
 20
-116.9093250841336
 30
0.0
 10
132.4230459345365
 20
-117.003197154073
 30
0.0
 10
132.1928131880559
 20
-117.3018442069225
 30
0.0
 10
131.9093984756409
 20
-117.3834868661029
 30
0.0
 10
131.53417875057
 20
-117.3761260262884
 30
0.0
 10
130.2680491983116
 20
-117.3512877695517
 30
0.0
 10
129.0011383960562
 20
-117.36666659436
 30
0.0
 10
127.7345205625497
 20
-117.36666659436
 30
0.0
 10
127.6744131409137
 20
-117.36666659436
 30
0.0
 10
127.6143138572984
 20
-117.36666659436
 30
0.0
 10
127.5440745997651
 20
-117.36666659436
 30
0.0
 10
127.5440745997651
 20
-118.8581237010615
 30
0.0
 10
127.5440745997651
 20
-120.3375711235651
 30
0.0
 10
127.5440745997651
 20
-121.8333332432704
 30
0.0
 10
127.6093578026306
 20
-121.8333332432704
 30
0.0
 10
127.668919976873
 20
-121.8333332432704
 30
0.0
 10
127.7284821511154
 20
-121.8333332432704
 30
0.0
 10
129.111758512804
 20
-121.8333332432704
 30
0.0
 10
130.4950430125133
 20
-121.8345875157265
 30
0.0
 10
131.8783112361811
 20
-121.8310922357925
 30
0.0
 10
131.9967438528978
 20
-121.8307931635277
 30
0.0
 10
132.0763336963314
 20
-121.8715351474157
 30
0.0
 10
132.1702464563748
 20
-121.9439859121013
 30
0.0
 10
132.4687083692508
 20
-122.1742725729699
 30
0.0
 10
132.544961624156
 20
-122.4582040497058
 30
0.0
 10
132.5429433949974
 20
-122.8326699905998
 30
0.0
 10
132.526642939333
 20
-125.8491311602494
 30
0.0
 10
132.5338288117003
 20
-128.8657184692208
 30
0.0
 10
132.5338288117003
 20
-131.8822671225938
 30
0.0
 10
132.5338288117003
 20
-131.9479653645201
 30
0.0
 10
132.5338288117003
 20
-132.0136615719409
 30
0.0
 10
132.5338288117003
 20
-132.099999869124
 30
0.0
 10
132.4634105177093
 20
-132.099999869124
 30
0.0
 10
132.4044505570062
 20
-132.099999869124
 30
0.0
 10
132.3454824582823
 20
-132.099999869124
 30
0.0
 10
125.04576731803
 20
-132.099999869124
 30
0.0
 10
117.7460521777776
 20
-132.0996478997241
 30
0.0
 10
110.4463370375253
 20
-132.1029885572635
 30
0.0
 10
110.3234366473888
 20
-132.1030455234091
 30
0.0
 10
110.2498119732024
 20
-132.0508665685381
 30
0.0
 10
110.1579499944009
 20
-131.9817747719378
 30
0.0
 10
109.8599519487105
 20
-131.7576374030371
 30
0.0
 10
109.7842195271366
 20
-131.4763568865768
 30
0.0
 10
109.7912426390878
 20
-131.1075316113507
 30
0.0
 10
109.8153555947211
 20
-129.8413735760194
 30
0.0
 10
109.8004955687385
 20
-128.5744749807953
 30
0.0
 10
109.8004955687385
 20
-127.3078571472888
 30
0.0
 10
109.8004955687385
 20
-127.247082407947
 30
0.0
 10
109.8004955687385
 20
-127.1863076686053
 30
0.0
 10
109.8004955687385
 20
-127.112776581658
 30
0.0
 10
108.303050913233
 20
-127.112776581658
 30
0.0
 10
106.8124747472834
 20
-127.112776581658
 30
0.0
 10
105.3004955866273
 20
-127.112776581658
 30
0.0
 10
105.3004955866273
 20
-127.1752521673472
 30
0.0
 10
105.3004955866273
 20
-127.2396991885757
 30
0.0
 10
105.3004955866273
 20
-127.3041441752987
 30
0.0
 10
105.3004955866273
 20
-128.6874225714921
 30
0.0
 10
105.2992097793408
 20
-130.0707070712015
 30
0.0
 10
105.3029044407844
 20
-131.4539752948693
 30
0.0
 10
105.3032055475541
 20
-131.5675434096518
 30
0.0
 10
105.2613679826162
 20
-131.6417153657375
 30
0.0
 10
105.1945222797569
 20
-131.7309406257995
 30
0.0
 10
104.9634350410922
 20
-132.0393960282191
 30
0.0
 10
104.6706127766313
 20
-132.1088581047659
 30
0.0
 10
104.2917065281376
 20
-132.1085061353666
 30
0.0
 10
93.03104576561029
 20
-132.0980304680902
 30
0.0
 10
81.77036872704142
 20
-132.0996417962088
 30
0.0
 10
70.50969982649333
 20
-132.1035521152037
 30
0.0
 10
70.3469801005777
 20
-132.1036090813493
 30
0.0
 10
70.24208915047383
 20
-132.0439431473414
 30
0.0
 10
70.11892020565097
 20
-131.9455605793734
 30
0.0
 10
69.85541109211516
 20
-131.7350686368511
 30
0.0
 10
69.78730399603174
 20
-131.4853880551611
 30
0.0
 10
69.79242281111556
 20
-131.1542804718419
 30
0.0
 10
69.81227144384916
 20
-129.8713052165254
 30
0.0
 10
69.80049572775013
 20
-128.5878376109505
 30
0.0
 10
69.80049572775013
 20
-127.3045551453485
 30
0.0
 10
69.80049572775013
 20
-127.2440448916834
 30
0.0
 10
69.80049572775013
 20
-127.1835326035122
 30
0.0
 10
69.80049572775013
 20
-127.111610810178
 30
0.0
 10
68.3006910462123
 20
-127.111610810178
 30
0.0
 10
66.81012301828356
 20
-127.111610810178
 30
0.0
 10
65.30049574563894
 20
-127.111610810178
 30
0.0
 10
65.30049574563894
 20
-127.1779234726754
 30
0.0
 10
65.30049574563894
 20
-127.2426858422096
 30
0.0
 10
65.30049574563894
 20
-127.3074461772383
 30
0.0
 10
65.30049574563894
 20
-128.6907245734324
 30
0.0
 10
65.29907159199877
 20
-130.0740090731418
 30
0.0
 10
65.30310805031606
 20
-131.4572752623041
 30
0.0
 10
65.3034417091689
 20
-131.5720579766915
 30
0.0
 10
65.25825941768184
 20
-131.6447895030948
 30
0.0
 10
65.19205661846584
 20
-131.7331928230558
 30
0.0
 10
64.96088799959314
 20
-132.0418618485218
 30
0.0
 10
64.6673333132601
 20
-132.1090534172651
 30
0.0
 10
64.28840265070397
 20
-132.108693309845
 30
0.0
 10
53.02218361996962
 20
-132.0979857089758
 30
0.0
 10
41.75596052022488
 20
-132.0996641757657
 30
0.0
 10
30.48973335146974
 20
-132.1035460116878
 30
0.0
 10
30.33754015546016
 20
-132.1035989088236
 30
0.0
 10
30.24202827432944
 20
-132.0463723465511
 30
0.0
 10
30.12868395511855
 20
-131.9544981607178
 30
0.0
 10
29.86547391384718
 20
-131.7411436693784
 30
0.0
 10
29.78572741351316
 20
-131.4911416358674
 30
0.0
 10
29.79160103002626
 20
-131.1509499868288
 30
0.0
 10
29.81375272264654
 20
-129.868050008205
 30
0.0
 10
29.80049588676174
 20
-128.5845376435157
 30
0.0
 10
29.80049588676174
 20
-127.3012551779143
 30
0.0
 10
29.80049588676174
 20
-127.2410989281534
 30
0.0
 10
29.80049588676174
 20
-127.1809406438871
 30
0.0
 10
29.80049588676174
 20
-127.1104450386986
 30
0.0
 10
28.29833524820202
 20
-127.1104450386986
 30
0.0
 10
26.80777739279929
 20
-127.1104450386986
 30
0.0
 10
25.30049590465055
 20
-127.1104450386986
 30
0.0
 10
25.30049590465055
 20
-127.1750487168272
 30
0.0
 10
25.30049590465055
 20
-127.2345600284392
 30
0.0
 10
25.30049590465055
 20
-127.2940713400519
 30
0.0
 10
25.30049590465055
 20
-128.6773497362454
 30
0.0
 10
25.2992731670252
 20
-130.0606322014499
 30
0.0
 10
25.30267892873041
 20
-131.4439024596225
 30
0.0
 10
25.30296986297405
 20
-131.5620685561583
 30
0.0
 10
25.26305897446083
 20
-131.6420530936008
 30
0.0
 10
25.19028065443764
 20
-131.7360513028625
 30
0.0
 10
24.95976307722902
 20
-132.0337868973817
 30
0.0
 10
24.6763341232776
 20
-132.1094989739043
 30
0.0
 10
24.30177154338639
 20
-132.1088682772916
 30
0.0
 10
17.13540601197894
 20
-132.0968646966101
 30
0.0
 10
9.969014032003885
 20
-132.099999869124
 30
0.0
 10
2.802628664170814
 20
-132.099999869124
 30
0.0
 10
2.731276532293001
 20
-132.099999869124
 30
0.0
 10
2.659924909041568
 20
-132.099999869124
 30
0.0
 10
2.567162661688811
 20
-132.099999869124
 30
0.0
 10
2.567162661688811
 20
-132.0304442053381
 30
0.0
 10
2.567162661688811
 20
-131.9715839353901
 30
0.0
 10
2.567162661688811
 20
-131.9127216309366
 30
0.0
 10
2.567162661688811
 20
-128.7683999474723
 30
0.0
 10
2.56773435765008
 20
-125.6240802985135
 30
0.0
 10
2.564854006912912
 20
-122.4797606495548
 30
0.0
 10
2.564749738521319
 20
-122.3663705539771
 30
0.0
 10
2.605952537836693
 20
-122.292011423413
 30
0.0
 10
2.672822146131984
 20
-122.2026701965549
 30
0.0
 10
2.903831564972689
 20
-121.8940327059194
 30
0.0
 10
3.195778483571471
 20
-121.8167326980891
 30
0.0
 10
3.575718769332993
 20
-121.8240986241668
 30
0.0
 10
4.836306329425958
 20
-121.8485411696419
 30
0.0
 10
6.097662932484615
 20
-121.8333332432704
 30
0.0
 10
7.358724532289559
 20
-121.8333332432704
 30
0.0
 10
7.419570479312983
 20
-121.8333332432704
 30
0.0
 10
7.480417443589488
 20
-121.8333332432704
 30
0.0
 10
7.554178429624391
 20
-121.8333332432704
 30
0.0
 10
7.554178429624391
 20
-120.3474099907135
 30
0.0
 10
7.554178429624391
 20
-118.8679473094204
 30
0.0
 10
7.554178429624391
 20
-117.36666659436
 30
0.0
 10
7.492381351419372
 20
-117.36666659436
 30
0.0
 10
7.427991296337121
 20
-117.36666659436
 30
0.0
 10
7.363601241254226
 20
-117.36666659436
 30
0.0
 10
5.980321827808012
 20
-117.36666659436
 30
0.0
 10
4.597040379856276
 20
-117.3653950286095
 30
0.0
 10
3.213770121683623
 20
-117.3690266203923
 30
0.0
 10
3.100411560936339
 20
-117.3693246754043
 30
0.0
 10
3.026010723015798
 20
-117.3280262543442
 30
0.0
 10
2.936619142153788
 20
-117.2611418958864
 30
0.0
 10
2.627922142241705
 20
-117.0301614687449
 30
0.0
 10
2.556280601999077
 20
-116.7375284132672
 30
0.0
 10
2.558286624126519
 20
-116.3584197315062
 30
0.0
 10
2.574220868854843
 20
-113.3475102179217
 30
0.0
 10
2.567162661688811
 20
-110.3364796512785
 30
0.0
 10
2.567162661688811
 20
-107.3254865958246
 30
0.0
 10
2.567162661688811
 20
-107.2590644515165
 30
0.0
 10
2.567162661688811
 20
-107.1926423072091
 30
0.0
 10
2.567162661688811
 20
-107.1000011129156
 30
0.0
 10
2.631330955704556
 20
-107.1000011129156
 30
0.0
 10
2.689542727120363
 20
-107.1000011129156
 30
0.0
 10
2.74775398990979
 20
-107.1000011129156
 30
0.0
 10
10.05302282073243
 20
-107.1000008586019
 30
0.0
 10
17.35829216018145
 20
-107.1002582235099
 30
0.0
 10
24.66356149963046
 20
-107.0976674082941
 30
0.0
 10
24.77875314956317
 20
-107.0976265910335
 30
0.0
 10
24.85010528144098
 20
-107.1464407286164
 30
0.0
 10
24.93775583447796
 20
-107.2125602402754
 30
0.0
 10
25.23989409825083
 20
-107.4404787370908
 30
0.0
 10
25.31686756799692
 20
-107.727244788197
 30
0.0
 10
25.30971831672326
 20
-108.101378341804
 30
0.0
 10
25.28553618791314
 20
-109.3671460064505
 30
0.0
 10
25.30049590465055
 20
-110.6336613517572
 30
0.0
 10
25.30049590465055
 20
-111.8998911033969
 30
0.0
 10
25.30049590465055
 20
-111.9600448100261
 30
0.0
 10
25.30049590465055
 20
-112.0201985166554
 30
0.0
 10
25.30049590465055
 20
-112.0916884862605
 30
0.0
  0
SPLINE
  5
42
330
1F
100
AcDbEntity
  8
_U_30EC_U_30A4_U_30E4_U_30
 62
    29
100
AcDbSpline
210
0.0
220
0.0
230
1.0
 70
    11
 71
     3
 72
   278
 73
   274
 74
     0
 42
0.0000000001
 43
0.0000000001
 12
1.0
 22
0.0
 32
0.0
 13
1.0
 23
0.0
 33
0.0
 40
0.0
 40
0.0
 40
0.0
 40
0.0
 40
1.0
 40
1.0
 40
1.0
 40
2.0
 40
2.0
 40
2.0
 40
3.0
 40
3.0
 40
3.0
 40
4.0
 40
4.0
 40
4.0
 40
5.0
 40
5.0
 40
5.0
 40
6.0
 40
6.0
 40
6.0
 40
7.0
 40
7.0
 40
7.0
 40
8.0
 40
8.0
 40
8.0
 40
9.0
 40
9.0
 40
9.0
 40
10.0
 40
10.0
 40
10.0
 40
11.0
 40
11.0
 40
11.0
 40
12.0
 40
12.0
 40
12.0
 40
13.0
 40
13.0
 40
13.0
 40
14.0
 40
14.0
 40
14.0
 40
15.0
 40
15.0
 40
15.0
 40
16.0
 40
16.0
 40
16.0
 40
17.0
 40
17.0
 40
17.0
 40
18.0
 40
18.0
 40
18.0
 40
19.0
 40
19.0
 40
19.0
 40
20.0
 40
20.0
 40
20.0
 40
21.0
 40
21.0
 40
21.0
 40
22.0
 40
22.0
 40
22.0
 40
23.0
 40
23.0
 40
23.0
 40
24.0
 40
24.0
 40
24.0
 40
25.0
 40
25.0
 40
25.0
 40
26.0
 40
26.0
 40
26.0
 40
27.0
 40
27.0
 40
27.0
 40
28.0
 40
28.0
 40
28.0
 40
29.0
 40
29.0
 40
29.0
 40
30.0
 40
30.0
 40
30.0
 40
31.0
 40
31.0
 40
31.0
 40
32.0
 40
32.0
 40
32.0
 40
33.0
 40
33.0
 40
33.0
 40
34.0
 40
34.0
 40
34.0
 40
35.0
 40
35.0
 40
35.0
 40
36.0
 40
36.0
 40
36.0
 40
37.0
 40
37.0
 40
37.0
 40
38.0
 40
38.0
 40
38.0
 40
39.0
 40
39.0
 40
39.0
 40
40.0
 40
40.0
 40
40.0
 40
41.0
 40
41.0
 40
41.0
 40
42.0
 40
42.0
 40
42.0
 40
43.0
 40
43.0
 40
43.0
 40
44.0
 40
44.0
 40
44.0
 40
45.0
 40
45.0
 40
45.0
 40
46.0
 40
46.0
 40
46.0
 40
47.0
 40
47.0
 40
47.0
 40
48.0
 40
48.0
 40
48.0
 40
49.0
 40
49.0
 40
49.0
 40
50.0
 40
50.0
 40
50.0
 40
51.0
 40
51.0
 40
51.0
 40
52.0
 40
52.0
 40
52.0
 40
53.0
 40
53.0
 40
53.0
 40
54.0
 40
54.0
 40
54.0
 40
55.0
 40
55.0
 40
55.0
 40
56.0
 40
56.0
 40
56.0
 40
57.0
 40
57.0
 40
57.0
 40
58.0
 40
58.0
 40
58.0
 40
59.0
 40
59.0
 40
59.0
 40
60.0
 40
60.0
 40
60.0
 40
61.0
 40
61.0
 40
61.0
 40
62.0
 40
62.0
 40
62.0
 40
63.0
 40
63.0
 40
63.0
 40
64.0
 40
64.0
 40
64.0
 40
65.0
 40
65.0
 40
65.0
 40
66.0
 40
66.0
 40
66.0
 40
67.0
 40
67.0
 40
67.0
 40
68.0
 40
68.0
 40
68.0
 40
69.0
 40
69.0
 40
69.0
 40
70.0
 40
70.0
 40
70.0
 40
71.0
 40
71.0
 40
71.0
 40
72.0
 40
72.0
 40
72.0
 40
73.0
 40
73.0
 40
73.0
 40
74.0
 40
74.0
 40
74.0
 40
75.0
 40
75.0
 40
75.0
 40
76.0
 40
76.0
 40
76.0
 40
77.0
 40
77.0
 40
77.0
 40
78.0
 40
78.0
 40
78.0
 40
79.0
 40
79.0
 40
79.0
 40
80.0
 40
80.0
 40
80.0
 40
81.0
 40
81.0
 40
81.0
 40
82.0
 40
82.0
 40
82.0
 40
83.0
 40
83.0
 40
83.0
 40
84.0
 40
84.0
 40
84.0
 40
85.0
 40
85.0
 40
85.0
 40
86.0
 40
86.0
 40
86.0
 40
87.0
 40
87.0
 40
87.0
 40
88.0
 40
88.0
 40
88.0
 40
89.0
 40
89.0
 40
89.0
 40
90.0
 40
90.0
 40
90.0
 40
91.0
 40
91.0
 40
91.0
 40
91.0
 10
25.30049590465055
 20
-138.5499551988282
 30
0.0
 10
26.81136625997252
 20
-138.5499551988282
 30
0.0
 10
28.29799955484397
 20
-138.5499551988282
 30
0.0
 10
29.80049588676174
 20
-138.5499551988282
 30
0.0
 10
29.80049588676174
 20
-138.4822702625744
 30
0.0
 10
29.80049588676174
 20
-138.4226572257016
 30
0.0
 10
29.80049588676174
 20
-138.3630441888289
 30
0.0
 10
29.80049588676174
 20
-136.9797652840087
 30
0.0
 10
29.8017857630587
 20
-135.5964828188049
 30
0.0
 10
29.79819893039066
 20
-134.2132129421018
 30
0.0
 10
29.79789172010543
 20
-134.0945163483351
 30
0.0
 10
29.83943631629444
 20
-134.0152895369234
 30
0.0
 10
29.91158190520035
 20
-133.9214773577308
 30
0.0
 10
30.14164578774932
 20
-133.6223206613291
 30
0.0
 10
30.42652941291891
 20
-133.5492948946112
 30
0.0
 10
30.80036567445363
 20
-133.5496459739142
 30
0.0
 10
42.07213890438464
 20
-133.5602344290726
 30
0.0
 10
53.34391620332606
 20
-133.558528496462
 30
0.0
 10
64.61569757127788
 20
-133.555344750137
 30
0.0
 10
64.75956964101844
 20
-133.555304060033
 30
0.0
 10
64.85296970575132
 20
-133.6090284759164
 30
0.0
 10
64.96354913239506
 20
-133.6950149308561
 30
0.0
 10
65.24419691773774
 20
-133.913236594417
 30
0.0
 10
65.3150383888103
 20
-134.1788843543882
 30
0.0
 10
65.30908949560477
 20
-134.5284164168008
 30
0.0
 10
65.28736911808696
 20
-135.8057749118857
 30
0.0
 10
65.30049574563894
 20
-137.0837254479837
 30
0.0
 10
65.30049574563894
 20
-138.361453205763
 30
0.0
 10
65.30049574563894
 20
-138.4212076407463
 30
0.0
 10
65.30049574563894
 20
-138.4809620757303
 30
0.0
 10
65.30049574563894
 20
-138.5493931667669
 30
0.0
 10
66.80186292717056
 20
-138.5493931667669
 30
0.0
 10
68.28850029105242
 20
-138.5493931667669
 30
0.0
 10
69.80049572775013
 20
-138.5493931667669
 30
0.0
 10
69.80049572775013
 20
-138.4875579415895
 30
0.0
 10
69.80049572775013
 20
-138.4236505728654
 30
0.0
 10
69.80049572775013
 20
-138.3597437127681
 30
0.0
 10
69.80049572775013
 20
-136.9764642993218
 30
0.0
 10
69.8019605714943
 20
-135.5931810711783
 30
0.0
 10
69.79790783713541
 20
-134.2099137376061
 30
0.0
 10
69.79755790224097
 20
-134.0897564962628
 30
0.0
 10
69.84356213382893
 20
-134.0126796482214
 30
0.0
 10
69.91404553198623
 20
-133.9193334978765
 30
0.0
 10
70.14291922899307
 20
-133.6162027770351
 30
0.0
 10
70.43176200128232
 20
-133.5497286256881
 30
0.0
 10
70.80366141386642
 20
-133.5500610129751
 30
0.0
 10
82.06988044460077
 20
-133.5601314322468
 30
0.0
 10
93.3361076133559
 20
-133.5586294587829
 30
0.0
 10
104.602334782111
 20
-133.5545807934338
 30
0.0
 10
104.7604402502325
 20
-133.5545239544447
 30
0.0
 10
104.8596508618173
 20
-133.6150270873424
 30
0.0
 10
104.9778637519724
 20
-133.7090114365376
 30
0.0
 10
105.2405834774905
 20
-133.9178863288955
 30
0.0
 10
105.3136140761585
 20
-134.1658160917041
 30
0.0
 10
105.3087149876363
 20
-134.4983576197196
 30
0.0
 10
105.2889151830275
 20
-135.8423448885468
 30
0.0
 10
105.3004955866273
 20
-137.1867944986809
 30
0.0
 10
105.3004955866273
 20
-138.5446670111864
 30
0.0
 10
106.7962800858895
 20
-138.5446670111864
 30
0.0
 10
108.2868643898598
 20
-138.5446670111864
 30
0.0
 10
109.8004955687385
 20
-138.5446670111864
 30
0.0
 10
109.8004955687385
 20
-138.4848922311504
 30
0.0
 10
109.8004955687385
 20
-138.4206684968686
 30
0.0
 10
109.8004955687385
 20
-138.3564452712121
 30
0.0
 10
109.8004955687385
 20
-136.9731658577658
 30
0.0
 10
109.8021801390443
 20
-135.5898813580565
 30
0.0
 10
109.7975902953126
 20
-134.2066173305556
 30
0.0
 10
109.7971833942725
 20
-134.0848088339288
 30
0.0
 10
109.8466300086593
 20
-134.0095885990386
 30
0.0
 10
109.9167878859846
 20
-133.9173106910807
 30
0.0
 10
110.1416495387365
 20
-133.6215417001507
 30
0.0
 10
110.4215079360615
 20
-133.5488974031571
 30
0.0
 10
110.7903067627204
 20
-133.5495047029595
 30
0.0
 10
117.9622224243141
 20
-133.5613139883939
 30
0.0
 10
125.134170637991
 20
-133.5582665539175
 30
0.0
 10
132.3061107136472
 20
-133.5582665539175
 30
0.0
 10
132.3769277706573
 20
-133.5582665539175
 30
0.0
 10
132.4477448276675
 20
-133.5582665539175
 30
0.0
 10
132.5338288117003
 20
-133.5582665539175
 30
0.0
 10
132.5338288117003
 20
-133.6396526111296
 30
0.0
 10
132.5338288117003
 20
-133.7048071315417
 30
0.0
 10
132.5338288117003
 20
-133.7699615247961
 30
0.0
 10
132.5338288117003
 20
-136.9031722667354
 30
0.0
 10
132.5332510122234
 20
-140.0363835173008
 30
0.0
 10
132.5360098012749
 20
-143.1695917161086
 30
0.0
 10
132.5361237335661
 20
-143.2880701091925
 30
0.0
 10
132.4954173535196
 20
-143.3675917967014
 30
0.0
 10
132.4230459345365
 20
-143.4614638666407
 30
0.0
 10
132.1928131880559
 20
-143.7601109194903
 30
0.0
 10
131.9093984756409
 20
-143.8417535786706
 30
0.0
 10
131.53417875057
 20
-143.8343927388561
 30
0.0
 10
130.2680491983116
 20
-143.8095544821194
 30
0.0
 10
129.0011383960562
 20
-143.8249333069278
 30
0.0
 10
127.7345205625497
 20
-143.8249333069278
 30
0.0
 10
127.6744131409137
 20
-143.8249333069278
 30
0.0
 10
127.6143138572984
 20
-143.8249333069278
 30
0.0
 10
127.5440745997651
 20
-143.8249333069278
 30
0.0
 10
127.5440745997651
 20
-145.3163904136293
 30
0.0
 10
127.5440745997651
 20
-146.7958378361328
 30
0.0
 10
127.5440745997651
 20
-148.2915999558381
 30
0.0
 10
127.6093578026306
 20
-148.2915999558381
 30
0.0
 10
127.668919976873
 20
-148.2915999558381
 30
0.0
 10
127.7284821511154
 20
-148.2915999558381
 30
0.0
 10
129.111758512804
 20
-148.2915999558381
 30
0.0
 10
130.4950430125133
 20
-148.2928542282942
 30
0.0
 10
131.8783112361811
 20
-148.2893589483602
 30
0.0
 10
131.9967438528978
 20
-148.2890598760955
 30
0.0
 10
132.0763336963314
 20
-148.3298018599835
 30
0.0
 10
132.1702464563748
 20
-148.4022526246691
 30
0.0
 10
132.4687083692508
 20
-148.6325392855376
 30
0.0
 10
132.544961624156
 20
-148.9164707622735
 30
0.0
 10
132.5429433949974
 20
-149.2909367031675
 30
0.0
 10
132.526642939333
 20
-152.3073978728172
 30
0.0
 10
132.5338288117003
 20
-155.3239851817886
 30
0.0
 10
132.5338288117003
 20
-158.3405338351615
 30
0.0
 10
132.5338288117003
 20
-158.4062320770879
 30
0.0
 10
132.5338288117003
 20
-158.4719282845087
 30
0.0
 10
132.5338288117003
 20
-158.5582665816918
 30
0.0
 10
132.4634105177093
 20
-158.5582665816918
 30
0.0
 10
132.4044505570062
 20
-158.5582665816918
 30
0.0
 10
132.3454824582823
 20
-158.5582665816918
 30
0.0
 10
125.04576731803
 20
-158.5582665816918
 30
0.0
 10
117.7460521777776
 20
-158.5579146122919
 30
0.0
 10
110.4463370375253
 20
-158.5612552698313
 30
0.0
 10
110.3234366473888
 20
-158.5613122359769
 30
0.0
 10
110.2498119732024
 20
-158.5091332811059
 30
0.0
 10
110.1579499944009
 20
-158.4400414845055
 30
0.0
 10
109.8599519487105
 20
-158.2159041156049
 30
0.0
 10
109.7842195271366
 20
-157.9346235991446
 30
0.0
 10
109.7912426390878
 20
-157.5657983239184
 30
0.0
 10
109.8153555947211
 20
-156.2996402885872
 30
0.0
 10
109.8004955687385
 20
-155.0327416933631
 30
0.0
 10
109.8004955687385
 20
-153.7661238598565
 30
0.0
 10
109.8004955687385
 20
-153.7053491205148
 30
0.0
 10
109.8004955687385
 20
-153.6445743811731
 30
0.0
 10
109.8004955687385
 20
-153.5710432942258
 30
0.0
 10
108.303050913233
 20
-153.5710432942258
 30
0.0
 10
106.8124747472834
 20
-153.5710432942258
 30
0.0
 10
105.3004955866273
 20
-153.5710432942258
 30
0.0
 10
105.3004955866273
 20
-153.633518879915
 30
0.0
 10
105.3004955866273
 20
-153.6979659011434
 30
0.0
 10
105.3004955866273
 20
-153.7624108878664
 30
0.0
 10
105.3004955866273
 20
-155.1456892840599
 30
0.0
 10
105.2992097793408
 20
-156.5289737837693
 30
0.0
 10
105.3029044407844
 20
-157.912242007437
 30
0.0
 10
105.3032055475541
 20
-158.0258101222196
 30
0.0
 10
105.2613679826162
 20
-158.0999820783053
 30
0.0
 10
105.1945222797569
 20
-158.1892073383673
 30
0.0
 10
104.9634350410922
 20
-158.4976627407869
 30
0.0
 10
104.6706127766313
 20
-158.5671248173337
 30
0.0
 10
104.2917065281376
 20
-158.5667728479344
 30
0.0
 10
93.03104576561029
 20
-158.556297180658
 30
0.0
 10
81.77036872704142
 20
-158.5579085087766
 30
0.0
 10
70.50969982649333
 20
-158.5618188277714
 30
0.0
 10
70.3469801005777
 20
-158.561875793917
 30
0.0
 10
70.24208915047383
 20
-158.5022098599091
 30
0.0
 10
70.11892020565097
 20
-158.4038272919412
 30
0.0
 10
69.85541109211516
 20
-158.1933353494189
 30
0.0
 10
69.78730399603174
 20
-157.9436547677288
 30
0.0
 10
69.79242281111556
 20
-157.6125471844097
 30
0.0
 10
69.81227144384916
 20
-156.3295719290932
 30
0.0
 10
69.80049572775013
 20
-155.0461043235183
 30
0.0
 10
69.80049572775013
 20
-153.7628218579162
 30
0.0
 10
69.80049572775013
 20
-153.7023116042512
 30
0.0
 10
69.80049572775013
 20
-153.64179931608
 30
0.0
 10
69.80049572775013
 20
-153.5698775227457
 30
0.0
 10
68.3006910462123
 20
-153.5698775227457
 30
0.0
 10
66.81012301828356
 20
-153.5698775227457
 30
0.0
 10
65.30049574563894
 20
-153.5698775227457
 30
0.0
 10
65.30049574563894
 20
-153.6361901852432
 30
0.0
 10
65.30049574563894
 20
-153.7009525547774
 30
0.0
 10
65.30049574563894
 20
-153.7657128898061
 30
0.0
 10
65.30049574563894
 20
-155.1489912860002
 30
0.0
 10
65.29907159199877
 20
-156.5322757857096
 30
0.0
 10
65.30310805031606
 20
-157.9155419748718
 30
0.0
 10
65.3034417091689
 20
-158.0303246892593
 30
0.0
 10
65.25825941768184
 20
-158.1030562156625
 30
0.0
 10
65.19205661846584
 20
-158.1914595356236
 30
0.0
 10
64.96088799959314
 20
-158.5001285610896
 30
0.0
 10
64.6673333132601
 20
-158.5673201298329
 30
0.0
 10
64.28840265070397
 20
-158.5669600224128
 30
0.0
 10
53.02218361996962
 20
-158.5562524215436
 30
0.0
 10
41.75596052022488
 20
-158.5579308883335
 30
0.0
 10
30.48973335146974
 20
-158.5618127242555
 30
0.0
 10
30.33754015546016
 20
-158.5618656213914
 30
0.0
 10
30.24202827432944
 20
-158.5046390591189
 30
0.0
 10
30.12868395511855
 20
-158.4127648732855
 30
0.0
 10
29.86547391384718
 20
-158.1994103819462
 30
0.0
 10
29.78572741351316
 20
-157.9494083484351
 30
0.0
 10
29.79160103002626
 20
-157.6092166993965
 30
0.0
 10
29.81375272264654
 20
-156.3263167207728
 30
0.0
 10
29.80049588676174
 20
-155.0428043560835
 30
0.0
 10
29.80049588676174
 20
-153.7595218904821
 30
0.0
 10
29.80049588676174
 20
-153.6993656407212
 30
0.0
 10
29.80049588676174
 20
-153.6392073564548
 30
0.0
 10
29.80049588676174
 20
-153.5687117512663
 30
0.0
 10
28.29833524820202
 20
-153.5687117512663
 30
0.0
 10
26.80777739279929
 20
-153.5687117512663
 30
0.0
 10
25.30049590465055
 20
-153.5687117512663
 30
0.0
 10
25.30049590465055
 20
-153.6333154293949
 30
0.0
 10
25.30049590465055
 20
-153.692826741007
 30
0.0
 10
25.30049590465055
 20
-153.7523380526197
 30
0.0
 10
25.30049590465055
 20
-155.1356164488132
 30
0.0
 10
25.2992731670252
 20
-156.5188989140177
 30
0.0
 10
25.30267892873041
 20
-157.9021691721903
 30
0.0
 10
25.30296986297405
 20
-158.0203352687261
 30
0.0
 10
25.26305897446083
 20
-158.1003198061685
 30
0.0
 10
25.19028065443764
 20
-158.1943180154303
 30
0.0
 10
24.95976307722902
 20
-158.4920536099495
 30
0.0
 10
24.6763341232776
 20
-158.5677656864721
 30
0.0
 10
24.30177154338639
 20
-158.5671349898594
 30
0.0
 10
17.13540601197894
 20
-158.5551314091779
 30
0.0
 10
9.969014032003885
 20
-158.5582665816918
 30
0.0
 10
2.802628664170814
 20
-158.5582665816918
 30
0.0
 10
2.731276532293001
 20
-158.5582665816918
 30
0.0
 10
2.659924909041568
 20
-158.5582665816918
 30
0.0
 10
2.567162661688811
 20
-158.5582665816918
 30
0.0
 10
2.567162661688811
 20
-158.4887109179058
 30
0.0
 10
2.567162661688811
 20
-158.4298506479578
 30
0.0
 10
2.567162661688811
 20
-158.3709883435043
 30
0.0
 10
2.567162661688811
 20
-155.2266666600401
 30
0.0
 10
2.56773435765008
 20
-152.0823470110813
 30
0.0
 10
2.564854006912912
 20
-148.9380273621226
 30
0.0
 10
2.564749738521319
 20
-148.8246372665448
 30
0.0
 10
2.605952537836693
 20
-148.7502781359807
 30
0.0
 10
2.672822146131984
 20
-148.6609369091227
 30
0.0
 10
2.903831564972689
 20
-148.3522994184871
 30
0.0
 10
3.195778483571471
 20
-148.2749994106569
 30
0.0
 10
3.575718769332993
 20
-148.2823653367345
 30
0.0
 10
4.836306329425958
 20
-148.3068078822097
 30
0.0
 10
6.097662932484615
 20
-148.2915999558381
 30
0.0
 10
7.358724532289559
 20
-148.2915999558381
 30
0.0
 10
7.419570479312983
 20
-148.2915999558381
 30
0.0
 10
7.480417443589488
 20
-148.2915999558381
 30
0.0
 10
7.554178429624391
 20
-148.2915999558381
 30
0.0
 10
7.554178429624391
 20
-146.8056767032813
 30
0.0
 10
7.554178429624391
 20
-145.3262140219882
 30
0.0
 10
7.554178429624391
 20
-143.8249333069278
 30
0.0
 10
7.492381351419372
 20
-143.8249333069278
 30
0.0
 10
7.427991296337121
 20
-143.8249333069278
 30
0.0
 10
7.363601241254226
 20
-143.8249333069278
 30
0.0
 10
5.980321827808012
 20
-143.8249333069278
 30
0.0
 10
4.597040379856276
 20
-143.8236617411773
 30
0.0
 10
3.213770121683623
 20
-143.82729333296
 30
0.0
 10
3.100411560936339
 20
-143.827591387972
 30
0.0
 10
3.026010723015798
 20
-143.7862929669119
 30
0.0
 10
2.936619142153788
 20
-143.7194086084542
 30
0.0
 10
2.627922142241705
 20
-143.4884281813127
 30
0.0
 10
2.556280601999077
 20
-143.195795125835
 30
0.0
 10
2.558286624126519
 20
-142.816686444074
 30
0.0
 10
2.574220868854843
 20
-139.8057769304895
 30
0.0
 10
2.567162661688811
 20
-136.7947463638463
 30
0.0
 10
2.567162661688811
 20
-133.7837533083924
 30
0.0
 10
2.567162661688811
 20
-133.7173311640843
 30
0.0
 10
2.567162661688811
 20
-133.6509090197769
 30
0.0
 10
2.567162661688811
 20
-133.5582678254833
 30
0.0
 10
2.631330955704556
 20
-133.5582678254833
 30
0.0
 10
2.689542727120363
 20
-133.5582678254833
 30
0.0
 10
2.74775398990979
 20
-133.5582678254833
 30
0.0
 10
10.05302282073243
 20
-133.5582675711697
 30
0.0
 10
17.35829216018145
 20
-133.5585249360777
 30
0.0
 10
24.66356149963046
 20
-133.5559341208618
 30
0.0
 10
24.77875314956317
 20
-133.5558933036013
 30
0.0
 10
24.85010528144098
 20
-133.6047074411842
 30
0.0
 10
24.93775583447796
 20
-133.6708269528431
 30
0.0
 10
25.23989409825083
 20
-133.8987454496586
 30
0.0
 10
25.31686756799692
 20
-134.1855115007648
 30
0.0
 10
25.30971831672326
 20
-134.5596450543718
 30
0.0
 10
25.28553618791314
 20
-135.8254127190183
 30
0.0
 10
25.30049590465055
 20
-137.091928064325
 30
0.0
 10
25.30049590465055
 20
-138.3581578159646
 30
0.0
 10
25.30049590465055
 20
-138.4183115225939
 30
0.0
 10
25.30049590465055
 20
-138.4784652292232
 30
0.0
 10
25.30049590465055
 20
-138.5499551988282
 30
0.0
  0
SPLINE
  5
43
330
1F
100
AcDbEntity
  8
_U_30EC_U_30A4_U_30E4_U_30
 62
    29
100
AcDbSpline
210
0.0
220
0.0
230
1.0
 70
    11
 71
     3
 72
   161
 73
   157
 74
     0
 42
0.0000000001
 43
0.0000000001
 12
1.0
 22
0.0
 32
0.0
 13
1.0
 23
0.0
 33
0.0
 40
0.0
 40
0.0
 40
0.0
 40
0.0
 40
1.0
 40
1.0
 40
1.0
 40
2.0
 40
2.0
 40
2.0
 40
3.0
 40
3.0
 40
3.0
 40
4.0
 40
4.0
 40
4.0
 40
5.0
 40
5.0
 40
5.0
 40
6.0
 40
6.0
 40
6.0
 40
7.0
 40
7.0
 40
7.0
 40
8.0
 40
8.0
 40
8.0
 40
9.0
 40
9.0
 40
9.0
 40
10.0
 40
10.0
 40
10.0
 40
11.0
 40
11.0
 40
11.0
 40
12.0
 40
12.0
 40
12.0
 40
13.0
 40
13.0
 40
13.0
 40
14.0
 40
14.0
 40
14.0
 40
15.0
 40
15.0
 40
15.0
 40
16.0
 40
16.0
 40
16.0
 40
17.0
 40
17.0
 40
17.0
 40
18.0
 40
18.0
 40
18.0
 40
19.0
 40
19.0
 40
19.0
 40
20.0
 40
20.0
 40
20.0
 40
21.0
 40
21.0
 40
21.0
 40
22.0
 40
22.0
 40
22.0
 40
23.0
 40
23.0
 40
23.0
 40
24.0
 40
24.0
 40
24.0
 40
25.0
 40
25.0
 40
25.0
 40
26.0
 40
26.0
 40
26.0
 40
27.0
 40
27.0
 40
27.0
 40
28.0
 40
28.0
 40
28.0
 40
29.0
 40
29.0
 40
29.0
 40
30.0
 40
30.0
 40
30.0
 40
31.0
 40
31.0
 40
31.0
 40
32.0
 40
32.0
 40
32.0
 40
33.0
 40
33.0
 40
33.0
 40
34.0
 40
34.0
 40
34.0
 40
35.0
 40
35.0
 40
35.0
 40
36.0
 40
36.0
 40
36.0
 40
37.0
 40
37.0
 40
37.0
 40
38.0
 40
38.0
 40
38.0
 40
39.0
 40
39.0
 40
39.0
 40
40.0
 40
40.0
 40
40.0
 40
41.0
 40
41.0
 40
41.0
 40
42.0
 40
42.0
 40
42.0
 40
43.0
 40
43.0
 40
43.0
 40
44.0
 40
44.0
 40
44.0
 40
45.0
 40
45.0
 40
45.0
 40
46.0
 40
46.0
 40
46.0
 40
47.0
 40
47.0
 40
47.0
 40
48.0
 40
48.0
 40
48.0
 40
49.0
 40
49.0
 40
49.0
 40
50.0
 40
50.0
 40
50.0
 40
51.0
 40
51.0
 40
51.0
 40
52.0
 40
52.0
 40
52.0
 40
52.0
 10
29.79999988153635
 20
-7.537912059847031
 30
0.0
 10
29.79999988153635
 20
-7.4596156530944
 30
0.0
 10
29.79999988153635
 20
-7.393458121619195
 30
0.0
 10
29.79999988153635
 20
-7.327300590143667
 30
0.0
 10
29.79999988153635
 20
-5.949592160561784
 30
0.0
 10
29.80136910353611
 20
-4.571879661969822
 30
0.0
 10
29.79748726761405
 20
-3.194182676479731
 30
0.0
 10
29.79716581579241
 20
-3.079950295748781
 30
0.0
 10
29.84061063983845
 20
-3.006488381978313
 30
0.0
 10
29.90738310051051
 20
-2.917815235765341
 30
0.0
 10
30.13889961977246
 20
-2.610361064217257
 30
0.0
 10
30.43131091418295
 20
-2.540540914755229
 30
0.0
 10
30.81062406371674
 20
-2.541175680377706
 30
0.0
 10
37.97135808472991
 20
-2.553156881501952
 30
0.0
 10
45.13211245079508
 20
-2.550000092370581
 30
0.0
 10
52.29286274784986
 20
-2.550000092370581
 30
0.0
 10
52.36468078141853
 20
-2.550000092370581
 30
0.0
 10
52.4364988149872
 20
-2.550000092370581
 30
0.0
 10
52.53333312449809
 20
-2.550000092370581
 30
0.0
 10
52.53333312449809
 20
-2.61552056940508
 30
0.0
 10
52.53333312449809
 20
-2.673894846923556
 30
0.0
 10
52.53333312449809
 20
-2.732269124442353
 30
0.0
 10
52.53333312449809
 20
-10.03745632074395
 30
0.0
 10
52.53311746694686
 20
-17.3426432627322
 30
0.0
 10
52.53544087188554
 20
-24.64783122197321
 30
0.0
 10
52.53547342396875
 20
-24.75554199628461
 30
0.0
 10
52.49351378871888
 20
-24.82521159236182
 30
0.0
 10
52.43119282542496
 20
-24.90945231468319
 30
0.0
 10
52.1979123901544
 20
-25.22479655171085
 30
0.0
 10
51.90002420774484
 20
-25.30073445831002
 30
0.0
 10
51.51385477568623
 20
-25.29290771680467
 30
0.0
 10
50.25332825074927
 20
-25.26736450401559
 30
0.0
 10
48.9919513026386
 20
-25.28333333533232
 30
0.0
 10
47.73090394437038
 20
-25.28333333533232
 30
0.0
 10
47.67094300710875
 20
-25.28333333533232
 30
0.0
 10
47.61098206984711
 20
-25.28333333533232
 30
0.0
 10
47.54247621074444
 20
-25.28333333533232
 30
0.0
 10
47.54247621074444
 20
-26.78414102793388
 30
0.0
 10
47.54247621074444
 20
-28.27076618478453
 30
0.0
 10
47.54247621074444
 20
-29.78333331744351
 30
0.0
 10
47.60337708940859
 20
-29.78333331744351
 30
0.0
 10
47.6672076555611
 20
-29.78333331744351
 30
0.0
 10
47.7310341527032
 20
-29.78333331744351
 30
0.0
 10
49.11429830736058
 20
-29.78333331744351
 30
0.0
 10
50.49756653102835
 20
-29.78476560910448
 30
0.0
 10
51.88081847865452
 20
-29.78080849649001
 30
0.0
 10
52.00063455890739
 20
-29.78046669961637
 30
0.0
 10
52.07825500130716
 20
-29.82540891948979
 30
0.0
 10
52.17167948010243
 20
-29.89625852858314
 30
0.0
 10
52.4738116403597
 20
-30.1253722972036
 30
0.0
 10
52.54234191352477
 20
-30.41317136832514
 30
0.0
 10
52.5417519070167
 20
-30.7856262008289
 30
0.0
 10
52.53037495393693
 20
-37.95191238653354
 30
0.0
 10
52.53333312449809
 20
-45.11822502080578
 30
0.0
 10
52.53333312449809
 20
-52.28452951705722
 30
0.0
 10
52.53333312449809
 20
-52.35568023292021
 30
0.0
 10
52.53333312449809
 20
-52.4268268797728
 30
0.0
 10
52.53333312449809
 20
-52.51666656040525
 30
0.0
 10
52.46109191384777
 20
-52.51666656040525
 30
0.0
 10
52.40191222658302
 20
-52.51666656040525
 30
0.0
 10
52.34273253931828
 20
-52.51666656040525
 30
0.0
 10
45.04309877927394
 20
-52.51666656040525
 30
0.0
 10
37.7434650192296
 20
-52.51639800571881
 30
0.0
 10
30.44383329369047
 20
-52.51909575961434
 30
0.0
 10
30.32952461901467
 20
-52.51914051872874
 30
0.0
 10
30.25623563818622
 20
-52.47554514129788
 30
0.0
 10
30.16757190155952
 20
-52.40905751135386
 30
0.0
 10
29.8592060173687
 20
-52.17783599534594
 30
0.0
 10
29.78292631389589
 20
-51.8858275329651
 30
0.0
 10
29.79050891477721
 20
-51.50552561390399
 30
0.0
 10
29.81564115751584
 20
-50.24497874391503
 30
0.0
 10
29.79999988153635
 20
-48.98361807184597
 30
0.0
 10
29.79999988153635
 20
-47.72257071357775
 30
0.0
 10
29.79999988153635
 20
-47.66198314871443
 30
0.0
 10
29.79999988153635
 20
-47.60139558385112
 30
0.0
 10
29.79999988153635
 20
-47.52875561018156
 30
0.0
 10
28.30116769348423
 20
-47.52875561018156
 30
0.0
 10
26.8106159415971
 20
-47.52875561018156
 30
0.0
 10
25.29999989942516
 20
-47.52875561018156
 30
0.0
 10
25.29999989942516
 20
-47.59344880653897
 30
0.0
 10
25.29999989942516
 20
-47.65807689872997
 30
0.0
 10
25.29999989942516
 20
-47.72270092191057
 30
0.0
 10
25.29999989942516
 20
-49.10596507656794
 30
0.0
 10
25.29863881544619
 20
-50.48923330023571
 30
0.0
 10
25.30251454785266
 20
-51.87248524786189
 30
0.0
 10
25.3028359996743
 20
-51.98671864584527
 30
0.0
 10
25.25938710661785
 20
-52.06017649060534
 30
0.0
 10
25.19262074946139
 20
-52.14885243426325
 30
0.0
 10
24.96110829920985
 20
-52.45631906715556
 30
0.0
 10
24.66868276326295
 20
-52.52612294057599
 30
0.0
 10
24.28937368273957
 20
-52.52548817495351
 30
0.0
 10
17.12864373073679
 20
-52.51350900833447
 30
0.0
 10
9.967887330166421
 20
-52.51666656040525
 30
0.0
 10
2.807136524485268
 20
-52.51666656040525
 30
0.0
 10
2.735318490916599
 20
-52.51666656040525
 30
0.0
 10
2.66350045734793
 20
-52.51666656040525
 30
0.0
 10
2.566667419402832
 20
-52.51666656040525
 30
0.0
 10
2.566667419402832
 20
-52.45114328592614
 30
0.0
 10
2.566667419402832
 20
-52.39276926272069
 30
0.0
 10
2.566667419402832
 20
-52.33439523951525
 30
0.0
 10
2.566666656463422
 20
-45.02920728027424
 30
0.0
 10
2.566884602832878
 20
-37.72401932103323
 30
0.0
 10
2.564559672015377
 20
-30.41883339629742
 30
0.0
 10
2.564525339740003
 20
-30.31112262198602
 30
0.0
 10
2.606487009495389
 20
-30.24145506041401
 30
0.0
 10
2.668806192597141
 20
-30.15721433809264
 30
0.0
 10
2.90208942531231
 20
-29.84187213557018
 30
0.0
 10
3.199980405166479
 20
-29.76593015996061
 30
0.0
 10
3.586146785467453
 20
-29.77375486696075
 30
0.0
 10
4.846677125101461
 20
-29.79929807974984
 30
0.0
 10
6.10804796969652
 20
-29.78333331744351
 30
0.0
 10
7.369095836591121
 20
-29.78333331744351
 30
0.0
 10
7.42905779110552
 20
-29.78333331744351
 30
0.0
 10
7.489020254245978
 20
-29.78333331744351
 30
0.0
 10
7.557524078843447
 20
-29.78333331744351
 30
0.0
 10
7.557524078843447
 20
-28.28252359033675
 30
0.0
 10
7.557524078843447
 20
-26.7958963989809
 30
0.0
 10
7.557524078843447
 20
-25.28333333533232
 30
0.0
 10
7.496617096663695
 20
-25.28333333533232
 30
0.0
 10
7.432789073642771
 20
-25.28333333533232
 30
0.0
 10
7.368960541995145
 20
-25.28333333533232
 30
0.0
 10
5.985696895964152
 20
-25.28333333533232
 30
0.0
 10
4.602429180922758
 20
-25.28190307817654
 30
0.0
 10
3.219176978983556
 20
-25.28585815628582
 30
0.0
 10
3.099362170296484
 20
-25.28619995315946
 30
0.0
 10
3.021740456330924
 20
-25.24125366427564
 30
0.0
 10
2.928313688717096
 20
-25.17040812419269
 30
0.0
 10
2.626175424944225
 20
-24.94129232106703
 30
0.0
 10
2.557659139002524
 20
-24.65348918093509
 30
0.0
 10
2.558250417076386
 20
-24.28103638293653
 30
0.0
 10
2.569623301145759
 20
-17.11474816272669
 30
0.0
 10
2.566666656463422
 20
-9.948439597464844
 30
0.0
 10
2.566666656463422
 20
-2.782133321021232
 30
0.0
 10
2.566666656463422
 20
-2.711085601984045
 30
0.0
 10
2.566666656463422
 20
-2.64003762863383
 30
0.0
 10
2.566666656463422
 20
-2.550000346683611
 30
0.0
 10
2.638909138679532
 20
-2.550000346683611
 30
0.0
 10
2.698091369075856
 20
-2.550000346683611
 30
0.0
 10
2.75727334515883
 20
-2.550000346683611
 30
0.0
 10
10.05690608795073
 20
-2.550000346683611
 30
0.0
 10
17.3565388307423
 20
-2.550267121178194
 30
0.0
 10
24.65617055628144
 20
-2.547567078464117
 30
0.0
 10
24.77048329996764
 20
-2.547524862481292
 30
0.0
 10
24.8438495919937
 20
-2.590891612390317
 30
0.0
 10
24.93241770687598
 20
-2.657649577212946
 30
0.0
 10
25.23968292375348
 20
-2.889245187864351
 30
0.0
 10
25.31718739935683
 20
-3.180646604756116
 30
0.0
 10
25.30954986683511
 20
-3.561148159639876
 30
0.0
 10
25.28425282917526
 20
-4.821688417487176
 30
0.0
 10
25.29999989942516
 20
-6.083051632687495
 30
0.0
 10
25.29999989942516
 20
-7.344099499582096
 30
0.0
 10
25.29999989942516
 20
-7.404723176912634
 30
0.0
 10
25.29999989942516
 20
-7.465347362869551
 30
0.0
 10
25.29999989942516
 20
-7.537912059847031
 30
0.0
 10
26.79883208747728
 20
-7.537912059847031
 30
0.0
 10
28.2893838393644
 20
-7.537912059847031
 30
0.0
 10
29.79999988153635
 20
-7.537912059847031
 30
0.0
  0
SPLINE
  5
44
330
1F
100
AcDbEntity
  8
_U_30EC_U_30A4_U_30E4_U_30
 62
    29
100
AcDbSpline
210
0.0
220
0.0
230
1.0
 70
    11
 71
     3
 72
   161
 73
   157
 74
     0
 42
0.0000000001
 43
0.0000000001
 12
1.0
 22
0.0
 32
0.0
 13
1.0
 23
0.0
 33
0.0
 40
0.0
 40
0.0
 40
0.0
 40
0.0
 40
1.0
 40
1.0
 40
1.0
 40
2.0
 40
2.0
 40
2.0
 40
3.0
 40
3.0
 40
3.0
 40
4.0
 40
4.0
 40
4.0
 40
5.0
 40
5.0
 40
5.0
 40
6.0
 40
6.0
 40
6.0
 40
7.0
 40
7.0
 40
7.0
 40
8.0
 40
8.0
 40
8.0
 40
9.0
 40
9.0
 40
9.0
 40
10.0
 40
10.0
 40
10.0
 40
11.0
 40
11.0
 40
11.0
 40
12.0
 40
12.0
 40
12.0
 40
13.0
 40
13.0
 40
13.0
 40
14.0
 40
14.0
 40
14.0
 40
15.0
 40
15.0
 40
15.0
 40
16.0
 40
16.0
 40
16.0
 40
17.0
 40
17.0
 40
17.0
 40
18.0
 40
18.0
 40
18.0
 40
19.0
 40
19.0
 40
19.0
 40
20.0
 40
20.0
 40
20.0
 40
21.0
 40
21.0
 40
21.0
 40
22.0
 40
22.0
 40
22.0
 40
23.0
 40
23.0
 40
23.0
 40
24.0
 40
24.0
 40
24.0
 40
25.0
 40
25.0
 40
25.0
 40
26.0
 40
26.0
 40
26.0
 40
27.0
 40
27.0
 40
27.0
 40
28.0
 40
28.0
 40
28.0
 40
29.0
 40
29.0
 40
29.0
 40
30.0
 40
30.0
 40
30.0
 40
31.0
 40
31.0
 40
31.0
 40
32.0
 40
32.0
 40
32.0
 40
33.0
 40
33.0
 40
33.0
 40
34.0
 40
34.0
 40
34.0
 40
35.0
 40
35.0
 40
35.0
 40
36.0
 40
36.0
 40
36.0
 40
37.0
 40
37.0
 40
37.0
 40
38.0
 40
38.0
 40
38.0
 40
39.0
 40
39.0
 40
39.0
 40
40.0
 40
40.0
 40
40.0
 40
41.0
 40
41.0
 40
41.0
 40
42.0
 40
42.0
 40
42.0
 40
43.0
 40
43.0
 40
43.0
 40
44.0
 40
44.0
 40
44.0
 40
45.0
 40
45.0
 40
45.0
 40
46.0
 40
46.0
 40
46.0
 40
47.0
 40
47.0
 40
47.0
 40
48.0
 40
48.0
 40
48.0
 40
49.0
 40
49.0
 40
49.0
 40
50.0
 40
50.0
 40
50.0
 40
51.0
 40
51.0
 40
51.0
 40
52.0
 40
52.0
 40
52.0
 40
52.0
 10
82.36388875728427
 20
-7.537912059847031
 30
0.0
 10
82.36388875728427
 20
-7.4596156530944
 30
0.0
 10
82.36388875728427
 20
-7.393458121619195
 30
0.0
 10
82.36388875728427
 20
-7.327300590143667
 30
0.0
 10
82.36388875728427
 20
-5.949592160561784
 30
0.0
 10
82.36525797928404
 20
-4.571879661969822
 30
0.0
 10
82.36137614336197
 20
-3.194182676479731
 30
0.0
 10
82.36105469154033
 20
-3.079950295748781
 30
0.0
 10
82.40449951558637
 20
-3.006488381978313
 30
0.0
 10
82.47127197625844
 20
-2.917815235765341
 30
0.0
 10
82.70278849552038
 20
-2.610361064217257
 30
0.0
 10
82.99519978993088
 20
-2.540540914755229
 30
0.0
 10
83.37451293946467
 20
-2.541175680377706
 30
0.0
 10
90.53524696047783
 20
-2.553156881501952
 30
0.0
 10
97.69600132654301
 20
-2.550000092370581
 30
0.0
 10
104.8567516235978
 20
-2.550000092370581
 30
0.0
 10
104.9285696571664
 20
-2.550000092370581
 30
0.0
 10
105.0003876907351
 20
-2.550000092370581
 30
0.0
 10
105.097222000246
 20
-2.550000092370581
 30
0.0
 10
105.097222000246
 20
-2.61552056940508
 30
0.0
 10
105.097222000246
 20
-2.673894846923556
 30
0.0
 10
105.097222000246
 20
-2.732269124442353
 30
0.0
 10
105.097222000246
 20
-10.03745632074395
 30
0.0
 10
105.0970063426948
 20
-17.3426432627322
 30
0.0
 10
105.0993297476335
 20
-24.64783122197321
 30
0.0
 10
105.0993622997167
 20
-24.75554199628461
 30
0.0
 10
105.0574026644668
 20
-24.82521159236182
 30
0.0
 10
104.9950817011729
 20
-24.90945231468319
 30
0.0
 10
104.7618012659023
 20
-25.22479655171085
 30
0.0
 10
104.4639130834928
 20
-25.30073445831002
 30
0.0
 10
104.0777436514341
 20
-25.29290771680467
 30
0.0
 10
102.8172171264972
 20
-25.26736450401559
 30
0.0
 10
101.5558401783865
 20
-25.28333333533232
 30
0.0
 10
100.2947928201183
 20
-25.28333333533232
 30
0.0
 10
100.2348318828567
 20
-25.28333333533232
 30
0.0
 10
100.174870945595
 20
-25.28333333533232
 30
0.0
 10
100.1063650864924
 20
-25.28333333533232
 30
0.0
 10
100.1063650864924
 20
-26.78414102793388
 30
0.0
 10
100.1063650864924
 20
-28.27076618478453
 30
0.0
 10
100.1063650864924
 20
-29.78333331744351
 30
0.0
 10
100.1672659651565
 20
-29.78333331744351
 30
0.0
 10
100.231096531309
 20
-29.78333331744351
 30
0.0
 10
100.2949230284511
 20
-29.78333331744351
 30
0.0
 10
101.6781871831085
 20
-29.78333331744351
 30
0.0
 10
103.0614554067763
 20
-29.78476560910448
 30
0.0
 10
104.4447073544024
 20
-29.78080849649001
 30
0.0
 10
104.5645234346553
 20
-29.78046669961637
 30
0.0
 10
104.6421438770551
 20
-29.82540891948979
 30
0.0
 10
104.7355683558503
 20
-29.89625852858314
 30
0.0
 10
105.0377005161076
 20
-30.1253722972036
 30
0.0
 10
105.1062307892727
 20
-30.41317136832514
 30
0.0
 10
105.1056407827646
 20
-30.7856262008289
 30
0.0
 10
105.0942638296848
 20
-37.95191238653354
 30
0.0
 10
105.097222000246
 20
-45.11822502080578
 30
0.0
 10
105.097222000246
 20
-52.28452951705722
 30
0.0
 10
105.097222000246
 20
-52.35568023292021
 30
0.0
 10
105.097222000246
 20
-52.4268268797728
 30
0.0
 10
105.097222000246
 20
-52.51666656040525
 30
0.0
 10
105.0249807895957
 20
-52.51666656040525
 30
0.0
 10
104.9658011023309
 20
-52.51666656040525
 30
0.0
 10
104.9066214150662
 20
-52.51666656040525
 30
0.0
 10
97.60698765502185
 20
-52.51666656040525
 30
0.0
 10
90.30735389497752
 20
-52.51639800571881
 30
0.0
 10
83.00772216943838
 20
-52.51909575961434
 30
0.0
 10
82.89341349476258
 20
-52.51914051872874
 30
0.0
 10
82.82012451393415
 20
-52.47554514129788
 30
0.0
 10
82.73146077730743
 20
-52.40905751135386
 30
0.0
 10
82.42309489311661
 20
-52.17783599534594
 30
0.0
 10
82.3468151896438
 20
-51.8858275329651
 30
0.0
 10
82.35439779052513
 20
-51.50552561390399
 30
0.0
 10
82.37953003326376
 20
-50.24497874391503
 30
0.0
 10
82.36388875728427
 20
-48.98361807184597
 30
0.0
 10
82.36388875728427
 20
-47.72257071357775
 30
0.0
 10
82.36388875728427
 20
-47.66198314871443
 30
0.0
 10
82.36388875728427
 20
-47.60139558385112
 30
0.0
 10
82.36388875728427
 20
-47.52875561018156
 30
0.0
 10
80.86505656923215
 20
-47.52875561018156
 30
0.0
 10
79.37450481734503
 20
-47.52875561018156
 30
0.0
 10
77.86388877517308
 20
-47.52875561018156
 30
0.0
 10
77.86388877517308
 20
-47.59344880653897
 30
0.0
 10
77.86388877517308
 20
-47.65807689872997
 30
0.0
 10
77.86388877517308
 20
-47.72270092191057
 30
0.0
 10
77.86388877517308
 20
-49.10596507656794
 30
0.0
 10
77.86252769119412
 20
-50.48923330023571
 30
0.0
 10
77.86640342360057
 20
-51.87248524786189
 30
0.0
 10
77.86672487542222
 20
-51.98671864584527
 30
0.0
 10
77.82327598236577
 20
-52.06017649060534
 30
0.0
 10
77.75650962520932
 20
-52.14885243426325
 30
0.0
 10
77.52499717495776
 20
-52.45631906715556
 30
0.0
 10
77.23257163901087
 20
-52.52612294057599
 30
0.0
 10
76.85326255848749
 20
-52.52548817495351
 30
0.0
 10
69.69253260648472
 20
-52.51350900833447
 30
0.0
 10
62.53177620591434
 20
-52.51666656040525
 30
0.0
 10
55.37102540023319
 20
-52.51666656040525
 30
0.0
 10
55.29920736666452
 20
-52.51666656040525
 30
0.0
 10
55.22738933309585
 20
-52.51666656040525
 30
0.0
 10
55.13055629515075
 20
-52.51666656040525
 30
0.0
 10
55.13055629515075
 20
-52.45114328592614
 30
0.0
 10
55.13055629515075
 20
-52.39276926272069
 30
0.0
 10
55.13055629515075
 20
-52.33439523951525
 30
0.0
 10
55.13055553221134
 20
-45.02920728027424
 30
0.0
 10
55.1307734785808
 20
-37.72401932103323
 30
0.0
 10
55.1284485477633
 20
-30.41883339629742
 30
0.0
 10
55.12841421548792
 20
-30.31112262198602
 30
0.0
 10
55.17037588524331
 20
-30.24145506041401
 30
0.0
 10
55.23269506834506
 20
-30.15721433809264
 30
0.0
 10
55.46597830106023
 20
-29.84187213557018
 30
0.0
 10
55.7638692809144
 20
-29.76593015996061
 30
0.0
 10
56.15003566121537
 20
-29.77375486696075
 30
0.0
 10
57.41056600084938
 20
-29.79929807974984
 30
0.0
 10
58.67193684544444
 20
-29.78333331744351
 30
0.0
 10
59.93298471233904
 20
-29.78333331744351
 30
0.0
 10
59.99294666685344
 20
-29.78333331744351
 30
0.0
 10
60.0529091299939
 20
-29.78333331744351
 30
0.0
 10
60.12141295459136
 20
-29.78333331744351
 30
0.0
 10
60.12141295459136
 20
-28.28252359033675
 30
0.0
 10
60.12141295459136
 20
-26.7958963989809
 30
0.0
 10
60.12141295459136
 20
-25.28333333533232
 30
0.0
 10
60.06050597241161
 20
-25.28333333533232
 30
0.0
 10
59.99667794939069
 20
-25.28333333533232
 30
0.0
 10
59.93284941774306
 20
-25.28333333533232
 30
0.0
 10
58.54958577171207
 20
-25.28333333533232
 30
0.0
 10
57.16631805667068
 20
-25.28190307817654
 30
0.0
 10
55.78306585473148
 20
-25.28585815628582
 30
0.0
 10
55.6632510460444
 20
-25.28619995315946
 30
0.0
 10
55.58562933207885
 20
-25.24125366427564
 30
0.0
 10
55.49220256446502
 20
-25.17040812419269
 30
0.0
 10
55.19006430069214
 20
-24.94129232106703
 30
0.0
 10
55.12154801475045
 20
-24.65348918093509
 30
0.0
 10
55.12213929282431
 20
-24.28103638293653
 30
0.0
 10
55.13351217689367
 20
-17.11474816272669
 30
0.0
 10
55.13055553221134
 20
-9.948439597464844
 30
0.0
 10
55.13055553221134
 20
-2.782133321021232
 30
0.0
 10
55.13055553221134
 20
-2.711085601984045
 30
0.0
 10
55.13055553221134
 20
-2.64003762863383
 30
0.0
 10
55.13055553221134
 20
-2.550000346683611
 30
0.0
 10
55.20279801442745
 20
-2.550000346683611
 30
0.0
 10
55.26198024482377
 20
-2.550000346683611
 30
0.0
 10
55.32116222090675
 20
-2.550000346683611
 30
0.0
 10
62.62079496369864
 20
-2.550000346683611
 30
0.0
 10
69.92042770649022
 20
-2.550267121178194
 30
0.0
 10
77.22005943202936
 20
-2.547567078464117
 30
0.0
 10
77.33437217571556
 20
-2.547524862481292
 30
0.0
 10
77.40773846774161
 20
-2.590891612390317
 30
0.0
 10
77.4963065826239
 20
-2.657649577212946
 30
0.0
 10
77.8035717995014
 20
-2.889245187864351
 30
0.0
 10
77.88107627510475
 20
-3.180646604756116
 30
0.0
 10
77.87343874258303
 20
-3.561148159639876
 30
0.0
 10
77.84814170492318
 20
-4.821688417487176
 30
0.0
 10
77.86388877517308
 20
-6.083051632687495
 30
0.0
 10
77.86388877517308
 20
-7.344099499582096
 30
0.0
 10
77.86388877517308
 20
-7.404723176912634
 30
0.0
 10
77.86388877517308
 20
-7.465347362869551
 30
0.0
 10
77.86388877517308
 20
-7.537912059847031
 30
0.0
 10
79.3627209632252
 20
-7.537912059847031
 30
0.0
 10
80.85327271511233
 20
-7.537912059847031
 30
0.0
 10
82.36388875728427
 20
-7.537912059847031
 30
0.0
  0
SPLINE
  5
45
330
1F
100
AcDbEntity
  8
_U_30EC_U_30A4_U_30E4_U_30
 62
    29
100
AcDbSpline
210
0.0
220
0.0
230
1.0
 70
    11
 71
     3
 72
   161
 73
   157
 74
     0
 42
0.0000000001
 43
0.0000000001
 12
1.0
 22
0.0
 32
0.0
 13
1.0
 23
0.0
 33
0.0
 40
0.0
 40
0.0
 40
0.0
 40
0.0
 40
1.0
 40
1.0
 40
1.0
 40
2.0
 40
2.0
 40
2.0
 40
3.0
 40
3.0
 40
3.0
 40
4.0
 40
4.0
 40
4.0
 40
5.0
 40
5.0
 40
5.0
 40
6.0
 40
6.0
 40
6.0
 40
7.0
 40
7.0
 40
7.0
 40
8.0
 40
8.0
 40
8.0
 40
9.0
 40
9.0
 40
9.0
 40
10.0
 40
10.0
 40
10.0
 40
11.0
 40
11.0
 40
11.0
 40
12.0
 40
12.0
 40
12.0
 40
13.0
 40
13.0
 40
13.0
 40
14.0
 40
14.0
 40
14.0
 40
15.0
 40
15.0
 40
15.0
 40
16.0
 40
16.0
 40
16.0
 40
17.0
 40
17.0
 40
17.0
 40
18.0
 40
18.0
 40
18.0
 40
19.0
 40
19.0
 40
19.0
 40
20.0
 40
20.0
 40
20.0
 40
21.0
 40
21.0
 40
21.0
 40
22.0
 40
22.0
 40
22.0
 40
23.0
 40
23.0
 40
23.0
 40
24.0
 40
24.0
 40
24.0
 40
25.0
 40
25.0
 40
25.0
 40
26.0
 40
26.0
 40
26.0
 40
27.0
 40
27.0
 40
27.0
 40
28.0
 40
28.0
 40
28.0
 40
29.0
 40
29.0
 40
29.0
 40
30.0
 40
30.0
 40
30.0
 40
31.0
 40
31.0
 40
31.0
 40
32.0
 40
32.0
 40
32.0
 40
33.0
 40
33.0
 40
33.0
 40
34.0
 40
34.0
 40
34.0
 40
35.0
 40
35.0
 40
35.0
 40
36.0
 40
36.0
 40
36.0
 40
37.0
 40
37.0
 40
37.0
 40
38.0
 40
38.0
 40
38.0
 40
39.0
 40
39.0
 40
39.0
 40
40.0
 40
40.0
 40
40.0
 40
41.0
 40
41.0
 40
41.0
 40
42.0
 40
42.0
 40
42.0
 40
43.0
 40
43.0
 40
43.0
 40
44.0
 40
44.0
 40
44.0
 40
45.0
 40
45.0
 40
45.0
 40
46.0
 40
46.0
 40
46.0
 40
47.0
 40
47.0
 40
47.0
 40
48.0
 40
48.0
 40
48.0
 40
49.0
 40
49.0
 40
49.0
 40
50.0
 40
50.0
 40
50.0
 40
51.0
 40
51.0
 40
51.0
 40
52.0
 40
52.0
 40
52.0
 40
52.0
 10
133.9445958281972
 20
-7.537912059847031
 30
0.0
 10
133.9445958281972
 20
-7.4596156530944
 30
0.0
 10
133.9445958281972
 20
-7.393458121619195
 30
0.0
 10
133.9445958281972
 20
-7.327300590143667
 30
0.0
 10
133.9445958281972
 20
-5.949592160561784
 30
0.0
 10
133.9459650501969
 20
-4.571879661969822
 30
0.0
 10
133.9420832142748
 20
-3.194182676479731
 30
0.0
 10
133.9417617624532
 20
-3.079950295748781
 30
0.0
 10
133.9852065864993
 20
-3.006488381978313
 30
0.0
 10
134.0519790471713
 20
-2.917815235765341
 30
0.0
 10
134.2834955664333
 20
-2.610361064217257
 30
0.0
 10
134.5759068608438
 20
-2.540540914755229
 30
0.0
 10
134.9552200103775
 20
-2.541175680377706
 30
0.0
 10
142.1159540313907
 20
-2.553156881501952
 30
0.0
 10
149.2767083974559
 20
-2.550000092370581
 30
0.0
 10
156.4374586945107
 20
-2.550000092370581
 30
0.0
 10
156.5092767280793
 20
-2.550000092370581
 30
0.0
 10
156.581094761648
 20
-2.550000092370581
 30
0.0
 10
156.6779290711589
 20
-2.550000092370581
 30
0.0
 10
156.6779290711589
 20
-2.61552056940508
 30
0.0
 10
156.6779290711589
 20
-2.673894846923556
 30
0.0
 10
156.6779290711589
 20
-2.732269124442353
 30
0.0
 10
156.6779290711589
 20
-10.03745632074395
 30
0.0
 10
156.6777134136076
 20
-17.3426432627322
 30
0.0
 10
156.6800368185463
 20
-24.64783122197321
 30
0.0
 10
156.6800693706296
 20
-24.75554199628461
 30
0.0
 10
156.6381097353797
 20
-24.82521159236182
 30
0.0
 10
156.5757887720858
 20
-24.90945231468319
 30
0.0
 10
156.3425083368152
 20
-25.22479655171085
 30
0.0
 10
156.0446201544056
 20
-25.30073445831002
 30
0.0
 10
155.658450722347
 20
-25.29290771680467
 30
0.0
 10
154.39792419741
 20
-25.26736450401559
 30
0.0
 10
153.1365472492994
 20
-25.28333333533232
 30
0.0
 10
151.8754998910312
 20
-25.28333333533232
 30
0.0
 10
151.8155389537695
 20
-25.28333333533232
 30
0.0
 10
151.7555780165079
 20
-25.28333333533232
 30
0.0
 10
151.6870721574052
 20
-25.28333333533232
 30
0.0
 10
151.6870721574052
 20
-26.78414102793388
 30
0.0
 10
151.6870721574052
 20
-28.27076618478453
 30
0.0
 10
151.6870721574052
 20
-29.78333331744351
 30
0.0
 10
151.7479730360694
 20
-29.78333331744351
 30
0.0
 10
151.8118036022219
 20
-29.78333331744351
 30
0.0
 10
151.875630099364
 20
-29.78333331744351
 30
0.0
 10
153.2588942540214
 20
-29.78333331744351
 30
0.0
 10
154.6421624776891
 20
-29.78476560910448
 30
0.0
 10
156.0254144253153
 20
-29.78080849649001
 30
0.0
 10
156.1452305055682
 20
-29.78046669961637
 30
0.0
 10
156.2228509479679
 20
-29.82540891948979
 30
0.0
 10
156.3162754267632
 20
-29.89625852858314
 30
0.0
 10
156.6184075870205
 20
-30.1253722972036
 30
0.0
 10
156.6869378601856
 20
-30.41317136832514
 30
0.0
 10
156.6863478536775
 20
-30.7856262008289
 30
0.0
 10
156.6749709005977
 20
-37.95191238653354
 30
0.0
 10
156.6779290711589
 20
-45.11822502080578
 30
0.0
 10
156.6779290711589
 20
-52.28452951705722
 30
0.0
 10
156.6779290711589
 20
-52.35568023292021
 30
0.0
 10
156.6779290711589
 20
-52.4268268797728
 30
0.0
 10
156.6779290711589
 20
-52.51666656040525
 30
0.0
 10
156.6056878605086
 20
-52.51666656040525
 30
0.0
 10
156.5465081732438
 20
-52.51666656040525
 30
0.0
 10
156.4873284859791
 20
-52.51666656040525
 30
0.0
 10
149.1876947259347
 20
-52.51666656040525
 30
0.0
 10
141.8880609658904
 20
-52.51639800571881
 30
0.0
 10
134.5884292403513
 20
-52.51909575961434
 30
0.0
 10
134.4741205656755
 20
-52.51914051872874
 30
0.0
 10
134.400831584847
 20
-52.47554514129788
 30
0.0
 10
134.3121678482203
 20
-52.40905751135386
 30
0.0
 10
134.0038019640295
 20
-52.17783599534594
 30
0.0
 10
133.9275222605567
 20
-51.8858275329651
 30
0.0
 10
133.935104861438
 20
-51.50552561390399
 30
0.0
 10
133.9602371041766
 20
-50.24497874391503
 30
0.0
 10
133.9445958281972
 20
-48.98361807184597
 30
0.0
 10
133.9445958281972
 20
-47.72257071357775
 30
0.0
 10
133.9445958281972
 20
-47.66198314871443
 30
0.0
 10
133.9445958281972
 20
-47.60139558385112
 30
0.0
 10
133.9445958281972
 20
-47.52875561018156
 30
0.0
 10
132.445763640145
 20
-47.52875561018156
 30
0.0
 10
130.9552118882579
 20
-47.52875561018156
 30
0.0
 10
129.4445958460859
 20
-47.52875561018156
 30
0.0
 10
129.4445958460859
 20
-47.59344880653897
 30
0.0
 10
129.4445958460859
 20
-47.65807689872997
 30
0.0
 10
129.4445958460859
 20
-47.72270092191057
 30
0.0
 10
129.4445958460859
 20
-49.10596507656794
 30
0.0
 10
129.443234762107
 20
-50.48923330023571
 30
0.0
 10
129.4471104945135
 20
-51.87248524786189
 30
0.0
 10
129.4474319463351
 20
-51.98671864584527
 30
0.0
 10
129.4039830532786
 20
-52.06017649060534
 30
0.0
 10
129.3372166961222
 20
-52.14885243426325
 30
0.0
 10
129.1057042458706
 20
-52.45631906715556
 30
0.0
 10
128.8132787099237
 20
-52.52612294057599
 30
0.0
 10
128.4339696294004
 20
-52.52548817495351
 30
0.0
 10
121.2732396773976
 20
-52.51350900833447
 30
0.0
 10
114.1124832768272
 20
-52.51666656040525
 30
0.0
 10
106.9517324711461
 20
-52.51666656040525
 30
0.0
 10
106.8799144375774
 20
-52.51666656040525
 30
0.0
 10
106.8080964040087
 20
-52.51666656040525
 30
0.0
 10
106.7112633660636
 20
-52.51666656040525
 30
0.0
 10
106.7112633660636
 20
-52.45114328592614
 30
0.0
 10
106.7112633660636
 20
-52.39276926272069
 30
0.0
 10
106.7112633660636
 20
-52.33439523951525
 30
0.0
 10
106.7112626031242
 20
-45.02920728027424
 30
0.0
 10
106.7114805494937
 20
-37.72401932103323
 30
0.0
 10
106.7091556186762
 20
-30.41883339629742
 30
0.0
 10
106.7091212864008
 20
-30.31112262198602
 30
0.0
 10
106.7510829561562
 20
-30.24145506041401
 30
0.0
 10
106.8134021392579
 20
-30.15721433809264
 30
0.0
 10
107.0466853719731
 20
-29.84187213557018
 30
0.0
 10
107.3445763518273
 20
-29.76593015996061
 30
0.0
 10
107.7307427321282
 20
-29.77375486696075
 30
0.0
 10
108.9912730717623
 20
-29.79929807974984
 30
0.0
 10
110.2526439163573
 20
-29.78333331744351
 30
0.0
 10
111.5136917832519
 20
-29.78333331744351
 30
0.0
 10
111.5736537377663
 20
-29.78333331744351
 30
0.0
 10
111.6336162009068
 20
-29.78333331744351
 30
0.0
 10
111.7021200255042
 20
-29.78333331744351
 30
0.0
 10
111.7021200255042
 20
-28.28252359033675
 30
0.0
 10
111.7021200255042
 20
-26.7958963989809
 30
0.0
 10
111.7021200255042
 20
-25.28333333533232
 30
0.0
 10
111.6412130433245
 20
-25.28333333533232
 30
0.0
 10
111.5773850203036
 20
-25.28333333533232
 30
0.0
 10
111.5135564886559
 20
-25.28333333533232
 30
0.0
 10
110.130292842625
 20
-25.28333333533232
 30
0.0
 10
108.7470251275836
 20
-25.28190307817654
 30
0.0
 10
107.3637729256444
 20
-25.28585815628582
 30
0.0
 10
107.2439581169573
 20
-25.28619995315946
 30
0.0
 10
107.1663364029917
 20
-25.24125366427564
 30
0.0
 10
107.0729096353779
 20
-25.17040812419269
 30
0.0
 10
106.770771371605
 20
-24.94129232106703
 30
0.0
 10
106.7022550856633
 20
-24.65348918093509
 30
0.0
 10
106.7028463637372
 20
-24.28103638293653
 30
0.0
 10
106.7142192478066
 20
-17.11474816272669
 30
0.0
 10
106.7112626031242
 20
-9.948439597464844
 30
0.0
 10
106.7112626031242
 20
-2.782133321021232
 30
0.0
 10
106.7112626031242
 20
-2.711085601984045
 30
0.0
 10
106.7112626031242
 20
-2.64003762863383
 30
0.0
 10
106.7112626031242
 20
-2.550000346683611
 30
0.0
 10
106.7835050853403
 20
-2.550000346683611
 30
0.0
 10
106.8426873157367
 20
-2.550000346683611
 30
0.0
 10
106.9018692918196
 20
-2.550000346683611
 30
0.0
 10
114.2015020346115
 20
-2.550000346683611
 30
0.0
 10
121.5011347774031
 20
-2.550267121178194
 30
0.0
 10
128.8007665029422
 20
-2.547567078464117
 30
0.0
 10
128.9150792466284
 20
-2.547524862481292
 30
0.0
 10
128.9884455386545
 20
-2.590891612390317
 30
0.0
 10
129.0770136535368
 20
-2.657649577212946
 30
0.0
 10
129.3842788704143
 20
-2.889245187864351
 30
0.0
 10
129.4617833460176
 20
-3.180646604756116
 30
0.0
 10
129.4541458134959
 20
-3.561148159639876
 30
0.0
 10
129.4288487758361
 20
-4.821688417487176
 30
0.0
 10
129.4445958460859
 20
-6.083051632687495
 30
0.0
 10
129.4445958460859
 20
-7.344099499582096
 30
0.0
 10
129.4445958460859
 20
-7.404723176912634
 30
0.0
 10
129.4445958460859
 20
-7.465347362869551
 30
0.0
 10
129.4445958460859
 20
-7.537912059847031
 30
0.0
 10
130.9434280341381
 20
-7.537912059847031
 30
0.0
 10
132.4339797860252
 20
-7.537912059847031
 30
0.0
 10
133.9445958281972
 20
-7.537912059847031
 30
0.0
  0
SPLINE
  5
46
330
1F
100
AcDbEntity
  8
_U_30EC_U_30A4_U_30E4_U_30
 62
    29
100
AcDbSpline
210
0.0
220
0.0
230
1.0
 70
    11
 71
     3
 72
   161
 73
   157
 74
     0
 42
0.0000000001
 43
0.0000000001
 12
1.0
 22
0.0
 32
0.0
 13
1.0
 23
0.0
 33
0.0
 40
0.0
 40
0.0
 40
0.0
 40
0.0
 40
1.0
 40
1.0
 40
1.0
 40
2.0
 40
2.0
 40
2.0
 40
3.0
 40
3.0
 40
3.0
 40
4.0
 40
4.0
 40
4.0
 40
5.0
 40
5.0
 40
5.0
 40
6.0
 40
6.0
 40
6.0
 40
7.0
 40
7.0
 40
7.0
 40
8.0
 40
8.0
 40
8.0
 40
9.0
 40
9.0
 40
9.0
 40
10.0
 40
10.0
 40
10.0
 40
11.0
 40
11.0
 40
11.0
 40
12.0
 40
12.0
 40
12.0
 40
13.0
 40
13.0
 40
13.0
 40
14.0
 40
14.0
 40
14.0
 40
15.0
 40
15.0
 40
15.0
 40
16.0
 40
16.0
 40
16.0
 40
17.0
 40
17.0
 40
17.0
 40
18.0
 40
18.0
 40
18.0
 40
19.0
 40
19.0
 40
19.0
 40
20.0
 40
20.0
 40
20.0
 40
21.0
 40
21.0
 40
21.0
 40
22.0
 40
22.0
 40
22.0
 40
23.0
 40
23.0
 40
23.0
 40
24.0
 40
24.0
 40
24.0
 40
25.0
 40
25.0
 40
25.0
 40
26.0
 40
26.0
 40
26.0
 40
27.0
 40
27.0
 40
27.0
 40
28.0
 40
28.0
 40
28.0
 40
29.0
 40
29.0
 40
29.0
 40
30.0
 40
30.0
 40
30.0
 40
31.0
 40
31.0
 40
31.0
 40
32.0
 40
32.0
 40
32.0
 40
33.0
 40
33.0
 40
33.0
 40
34.0
 40
34.0
 40
34.0
 40
35.0
 40
35.0
 40
35.0
 40
36.0
 40
36.0
 40
36.0
 40
37.0
 40
37.0
 40
37.0
 40
38.0
 40
38.0
 40
38.0
 40
39.0
 40
39.0
 40
39.0
 40
40.0
 40
40.0
 40
40.0
 40
41.0
 40
41.0
 40
41.0
 40
42.0
 40
42.0
 40
42.0
 40
43.0
 40
43.0
 40
43.0
 40
44.0
 40
44.0
 40
44.0
 40
45.0
 40
45.0
 40
45.0
 40
46.0
 40
46.0
 40
46.0
 40
47.0
 40
47.0
 40
47.0
 40
48.0
 40
48.0
 40
48.0
 40
49.0
 40
49.0
 40
49.0
 40
50.0
 40
50.0
 40
50.0
 40
51.0
 40
51.0
 40
51.0
 40
52.0
 40
52.0
 40
52.0
 40
52.0
 10
29.79999988153635
 20
-60.01319738608368
 30
0.0
 10
29.79999988153635
 20
-59.93490097933105
 30
0.0
 10
29.79999988153635
 20
-59.86874344785584
 30
0.0
 10
29.79999988153635
 20
-59.80258591638032
 30
0.0
 10
29.79999988153635
 20
-58.42487748679844
 30
0.0
 10
29.80136910353611
 20
-57.04716498820648
 30
0.0
 10
29.79748726761405
 20
-55.66946800271638
 30
0.0
 10
29.79716581579241
 20
-55.55523562198543
 30
0.0
 10
29.84061063983845
 20
-55.48177370821497
 30
0.0
 10
29.90738310051051
 20
-55.39310056200199
 30
0.0
 10
30.13889961977246
 20
-55.08564639045391
 30
0.0
 10
30.43131091418295
 20
-55.01582624099188
 30
0.0
 10
30.81062406371674
 20
-55.01646100661436
 30
0.0
 10
37.97135808472991
 20
-55.0284422077386
 30
0.0
 10
45.13211245079508
 20
-55.02528541860723
 30
0.0
 10
52.29286274784986
 20
-55.02528541860723
 30
0.0
 10
52.36468078141853
 20
-55.02528541860723
 30
0.0
 10
52.4364988149872
 20
-55.02528541860723
 30
0.0
 10
52.53333312449809
 20
-55.02528541860723
 30
0.0
 10
52.53333312449809
 20
-55.09080589564173
 30
0.0
 10
52.53333312449809
 20
-55.1491801731602
 30
0.0
 10
52.53333312449809
 20
-55.20755445067901
 30
0.0
 10
52.53333312449809
 20
-62.5127416469806
 30
0.0
 10
52.53311746694686
 20
-69.81792858896885
 30
0.0
 10
52.53544087188554
 20
-77.12311654820985
 30
0.0
 10
52.53547342396875
 20
-77.23082732252125
 30
0.0
 10
52.49351378871888
 20
-77.30049691859847
 30
0.0
 10
52.43119282542496
 20
-77.38473764091984
 30
0.0
 10
52.1979123901544
 20
-77.7000818779475
 30
0.0
 10
51.90002420774484
 20
-77.77601978454666
 30
0.0
 10
51.51385477568623
 20
-77.76819304304132
 30
0.0
 10
50.25332825074927
 20
-77.74264983025223
 30
0.0
 10
48.9919513026386
 20
-77.75861866156896
 30
0.0
 10
47.73090394437038
 20
-77.75861866156896
 30
0.0
 10
47.67094300710875
 20
-77.75861866156896
 30
0.0
 10
47.61098206984711
 20
-77.75861866156896
 30
0.0
 10
47.54247621074444
 20
-77.75861866156896
 30
0.0
 10
47.54247621074444
 20
-79.25942635417053
 30
0.0
 10
47.54247621074444
 20
-80.74605151102118
 30
0.0
 10
47.54247621074444
 20
-82.25861864368017
 30
0.0
 10
47.60337708940859
 20
-82.25861864368017
 30
0.0
 10
47.6672076555611
 20
-82.25861864368017
 30
0.0
 10
47.7310341527032
 20
-82.25861864368017
 30
0.0
 10
49.11429830736058
 20
-82.25861864368017
 30
0.0
 10
50.49756653102835
 20
-82.26005093534113
 30
0.0
 10
51.88081847865452
 20
-82.25609382272665
 30
0.0
 10
52.00063455890739
 20
-82.25575202585301
 30
0.0
 10
52.07825500130716
 20
-82.30069424572643
 30
0.0
 10
52.17167948010243
 20
-82.37154385481979
 30
0.0
 10
52.4738116403597
 20
-82.60065762344024
 30
0.0
 10
52.54234191352477
 20
-82.88845669456178
 30
0.0
 10
52.5417519070167
 20
-83.26091152706555
 30
0.0
 10
52.53037495393693
 20
-90.42719771277018
 30
0.0
 10
52.53333312449809
 20
-97.59351034704243
 30
0.0
 10
52.53333312449809
 20
-104.7598148432939
 30
0.0
 10
52.53333312449809
 20
-104.8309655591569
 30
0.0
 10
52.53333312449809
 20
-104.9021122060094
 30
0.0
 10
52.53333312449809
 20
-104.9919518866419
 30
0.0
 10
52.46109191384777
 20
-104.9919518866419
 30
0.0
 10
52.40191222658302
 20
-104.9919518866419
 30
0.0
 10
52.34273253931828
 20
-104.9919518866419
 30
0.0
 10
45.04309877927394
 20
-104.9919518866419
 30
0.0
 10
37.7434650192296
 20
-104.9916833319555
 30
0.0
 10
30.44383329369047
 20
-104.994381085851
 30
0.0
 10
30.32952461901467
 20
-104.9944258449654
 30
0.0
 10
30.25623563818622
 20
-104.9508304675345
 30
0.0
 10
30.16757190155952
 20
-104.8843428375905
 30
0.0
 10
29.8592060173687
 20
-104.6531213215826
 30
0.0
 10
29.78292631389589
 20
-104.3611128592017
 30
0.0
 10
29.79050891477721
 20
-103.9808109401406
 30
0.0
 10
29.81564115751584
 20
-102.7202640701517
 30
0.0
 10
29.79999988153635
 20
-101.4589033980826
 30
0.0
 10
29.79999988153635
 20
-100.1978560398144
 30
0.0
 10
29.79999988153635
 20
-100.1372684749511
 30
0.0
 10
29.79999988153635
 20
-100.0766809100878
 30
0.0
 10
29.79999988153635
 20
-100.0040409364182
 30
0.0
 10
28.30116769348423
 20
-100.0040409364182
 30
0.0
 10
26.8106159415971
 20
-100.0040409364182
 30
0.0
 10
25.29999989942516
 20
-100.0040409364182
 30
0.0
 10
25.29999989942516
 20
-100.0687341327756
 30
0.0
 10
25.29999989942516
 20
-100.1333622249666
 30
0.0
 10
25.29999989942516
 20
-100.1979862481472
 30
0.0
 10
25.29999989942516
 20
-101.5812504028046
 30
0.0
 10
25.29863881544619
 20
-102.9645186264724
 30
0.0
 10
25.30251454785266
 20
-104.3477705740985
 30
0.0
 10
25.3028359996743
 20
-104.4620039720819
 30
0.0
 10
25.25938710661785
 20
-104.535461816842
 30
0.0
 10
25.19262074946139
 20
-104.6241377604999
 30
0.0
 10
24.96110829920985
 20
-104.9316043933922
 30
0.0
 10
24.66868276326295
 20
-105.0014082668126
 30
0.0
 10
24.28937368273957
 20
-105.0007735011902
 30
0.0
 10
17.12864373073679
 20
-104.9887943345711
 30
0.0
 10
9.967887330166421
 20
-104.9919518866419
 30
0.0
 10
2.807136524485268
 20
-104.9919518866419
 30
0.0
 10
2.735318490916599
 20
-104.9919518866419
 30
0.0
 10
2.66350045734793
 20
-104.9919518866419
 30
0.0
 10
2.566667419402832
 20
-104.9919518866419
 30
0.0
 10
2.566667419402832
 20
-104.9264286121628
 30
0.0
 10
2.566667419402832
 20
-104.8680545889573
 30
0.0
 10
2.566667419402832
 20
-104.8096805657519
 30
0.0
 10
2.566666656463422
 20
-97.50449260651088
 30
0.0
 10
2.566884602832878
 20
-90.19930464726988
 30
0.0
 10
2.564559672015377
 20
-82.89411872253407
 30
0.0
 10
2.564525339740003
 20
-82.78640794822267
 30
0.0
 10
2.606487009495389
 20
-82.71674038665066
 30
0.0
 10
2.668806192597141
 20
-82.63249966432929
 30
0.0
 10
2.90208942531231
 20
-82.31715746180683
 30
0.0
 10
3.199980405166479
 20
-82.24121548619726
 30
0.0
 10
3.586146785467453
 20
-82.2490401931974
 30
0.0
 10
4.846677125101461
 20
-82.27458340598649
 30
0.0
 10
6.10804796969652
 20
-82.25861864368017
 30
0.0
 10
7.369095836591121
 20
-82.25861864368017
 30
0.0
 10
7.42905779110552
 20
-82.25861864368017
 30
0.0
 10
7.489020254245978
 20
-82.25861864368017
 30
0.0
 10
7.557524078843447
 20
-82.25861864368017
 30
0.0
 10
7.557524078843447
 20
-80.7578089165734
 30
0.0
 10
7.557524078843447
 20
-79.27118172521755
 30
0.0
 10
7.557524078843447
 20
-77.75861866156896
 30
0.0
 10
7.496617096663695
 20
-77.75861866156896
 30
0.0
 10
7.432789073642771
 20
-77.75861866156896
 30
0.0
 10
7.368960541995145
 20
-77.75861866156896
 30
0.0
 10
5.985696895964152
 20
-77.75861866156896
 30
0.0
 10
4.602429180922758
 20
-77.7571884044132
 30
0.0
 10
3.219176978983556
 20
-77.76114348252247
 30
0.0
 10
3.099362170296484
 20
-77.76148527939611
 30
0.0
 10
3.021740456330924
 20
-77.71653899051229
 30
0.0
 10
2.928313688717096
 20
-77.64569345042933
 30
0.0
 10
2.626175424944225
 20
-77.41657764730368
 30
0.0
 10
2.557659139002524
 20
-77.12877450717174
 30
0.0
 10
2.558250417076386
 20
-76.75632170917318
 30
0.0
 10
2.569623301145759
 20
-69.59003348896334
 30
0.0
 10
2.566666656463422
 20
-62.42372492370149
 30
0.0
 10
2.566666656463422
 20
-55.25741864725788
 30
0.0
 10
2.566666656463422
 20
-55.1863709282207
 30
0.0
 10
2.566666656463422
 20
-55.11532295487048
 30
0.0
 10
2.566666656463422
 20
-55.02528567292026
 30
0.0
 10
2.638909138679532
 20
-55.02528567292026
 30
0.0
 10
2.698091369075856
 20
-55.02528567292026
 30
0.0
 10
2.75727334515883
 20
-55.02528567292026
 30
0.0
 10
10.05690608795073
 20
-55.02528567292026
 30
0.0
 10
17.3565388307423
 20
-55.02555244741485
 30
0.0
 10
24.65617055628144
 20
-55.02285240470076
 30
0.0
 10
24.77048329996764
 20
-55.02281018871794
 30
0.0
 10
24.8438495919937
 20
-55.06617693862697
 30
0.0
 10
24.93241770687598
 20
-55.13293490344959
 30
0.0
 10
25.23968292375348
 20
-55.364530514101
 30
0.0
 10
25.31718739935683
 20
-55.65593193099276
 30
0.0
 10
25.30954986683511
 20
-56.03643348587653
 30
0.0
 10
25.28425282917526
 20
-57.29697374372383
 30
0.0
 10
25.29999989942516
 20
-58.55833695892414
 30
0.0
 10
25.29999989942516
 20
-59.81938482581874
 30
0.0
 10
25.29999989942516
 20
-59.88000850314928
 30
0.0
 10
25.29999989942516
 20
-59.9406326891062
 30
0.0
 10
25.29999989942516
 20
-60.01319738608368
 30
0.0
 10
26.79883208747728
 20
-60.01319738608368
 30
0.0
 10
28.2893838393644
 20
-60.01319738608368
 30
0.0
 10
29.79999988153635
 20
-60.01319738608368
 30
0.0
  0
SPLINE
  5
47
330
1F
100
AcDbEntity
  8
_U_30EC_U_30A4_U_30E4_U_30
 62
    29
100
AcDbSpline
210
0.0
220
0.0
230
1.0
 70
    11
 71
     3
 72
   161
 73
   157
 74
     0
 42
0.0000000001
 43
0.0000000001
 12
1.0
 22
0.0
 32
0.0
 13
1.0
 23
0.0
 33
0.0
 40
0.0
 40
0.0
 40
0.0
 40
0.0
 40
1.0
 40
1.0
 40
1.0
 40
2.0
 40
2.0
 40
2.0
 40
3.0
 40
3.0
 40
3.0
 40
4.0
 40
4.0
 40
4.0
 40
5.0
 40
5.0
 40
5.0
 40
6.0
 40
6.0
 40
6.0
 40
7.0
 40
7.0
 40
7.0
 40
8.0
 40
8.0
 40
8.0
 40
9.0
 40
9.0
 40
9.0
 40
10.0
 40
10.0
 40
10.0
 40
11.0
 40
11.0
 40
11.0
 40
12.0
 40
12.0
 40
12.0
 40
13.0
 40
13.0
 40
13.0
 40
14.0
 40
14.0
 40
14.0
 40
15.0
 40
15.0
 40
15.0
 40
16.0
 40
16.0
 40
16.0
 40
17.0
 40
17.0
 40
17.0
 40
18.0
 40
18.0
 40
18.0
 40
19.0
 40
19.0
 40
19.0
 40
20.0
 40
20.0
 40
20.0
 40
21.0
 40
21.0
 40
21.0
 40
22.0
 40
22.0
 40
22.0
 40
23.0
 40
23.0
 40
23.0
 40
24.0
 40
24.0
 40
24.0
 40
25.0
 40
25.0
 40
25.0
 40
26.0
 40
26.0
 40
26.0
 40
27.0
 40
27.0
 40
27.0
 40
28.0
 40
28.0
 40
28.0
 40
29.0
 40
29.0
 40
29.0
 40
30.0
 40
30.0
 40
30.0
 40
31.0
 40
31.0
 40
31.0
 40
32.0
 40
32.0
 40
32.0
 40
33.0
 40
33.0
 40
33.0
 40
34.0
 40
34.0
 40
34.0
 40
35.0
 40
35.0
 40
35.0
 40
36.0
 40
36.0
 40
36.0
 40
37.0
 40
37.0
 40
37.0
 40
38.0
 40
38.0
 40
38.0
 40
39.0
 40
39.0
 40
39.0
 40
40.0
 40
40.0
 40
40.0
 40
41.0
 40
41.0
 40
41.0
 40
42.0
 40
42.0
 40
42.0
 40
43.0
 40
43.0
 40
43.0
 40
44.0
 40
44.0
 40
44.0
 40
45.0
 40
45.0
 40
45.0
 40
46.0
 40
46.0
 40
46.0
 40
47.0
 40
47.0
 40
47.0
 40
48.0
 40
48.0
 40
48.0
 40
49.0
 40
49.0
 40
49.0
 40
50.0
 40
50.0
 40
50.0
 40
51.0
 40
51.0
 40
51.0
 40
52.0
 40
52.0
 40
52.0
 40
52.0
 10
82.36388875728427
 20
-60.01319738608368
 30
0.0
 10
82.36388875728427
 20
-59.93490097933105
 30
0.0
 10
82.36388875728427
 20
-59.86874344785584
 30
0.0
 10
82.36388875728427
 20
-59.80258591638032
 30
0.0
 10
82.36388875728427
 20
-58.42487748679844
 30
0.0
 10
82.36525797928404
 20
-57.04716498820648
 30
0.0
 10
82.36137614336197
 20
-55.66946800271638
 30
0.0
 10
82.36105469154033
 20
-55.55523562198543
 30
0.0
 10
82.40449951558637
 20
-55.48177370821497
 30
0.0
 10
82.47127197625844
 20
-55.39310056200199
 30
0.0
 10
82.70278849552038
 20
-55.08564639045391
 30
0.0
 10
82.99519978993088
 20
-55.01582624099188
 30
0.0
 10
83.37451293946467
 20
-55.01646100661436
 30
0.0
 10
90.53524696047783
 20
-55.0284422077386
 30
0.0
 10
97.69600132654301
 20
-55.02528541860723
 30
0.0
 10
104.8567516235978
 20
-55.02528541860723
 30
0.0
 10
104.9285696571664
 20
-55.02528541860723
 30
0.0
 10
105.0003876907351
 20
-55.02528541860723
 30
0.0
 10
105.097222000246
 20
-55.02528541860723
 30
0.0
 10
105.097222000246
 20
-55.09080589564173
 30
0.0
 10
105.097222000246
 20
-55.1491801731602
 30
0.0
 10
105.097222000246
 20
-55.20755445067901
 30
0.0
 10
105.097222000246
 20
-62.5127416469806
 30
0.0
 10
105.0970063426948
 20
-69.81792858896885
 30
0.0
 10
105.0993297476335
 20
-77.12311654820985
 30
0.0
 10
105.0993622997167
 20
-77.23082732252125
 30
0.0
 10
105.0574026644668
 20
-77.30049691859847
 30
0.0
 10
104.9950817011729
 20
-77.38473764091984
 30
0.0
 10
104.7618012659023
 20
-77.7000818779475
 30
0.0
 10
104.4639130834928
 20
-77.77601978454666
 30
0.0
 10
104.0777436514341
 20
-77.76819304304132
 30
0.0
 10
102.8172171264972
 20
-77.74264983025223
 30
0.0
 10
101.5558401783865
 20
-77.75861866156896
 30
0.0
 10
100.2947928201183
 20
-77.75861866156896
 30
0.0
 10
100.2348318828567
 20
-77.75861866156896
 30
0.0
 10
100.174870945595
 20
-77.75861866156896
 30
0.0
 10
100.1063650864924
 20
-77.75861866156896
 30
0.0
 10
100.1063650864924
 20
-79.25942635417053
 30
0.0
 10
100.1063650864924
 20
-80.74605151102118
 30
0.0
 10
100.1063650864924
 20
-82.25861864368017
 30
0.0
 10
100.1672659651565
 20
-82.25861864368017
 30
0.0
 10
100.231096531309
 20
-82.25861864368017
 30
0.0
 10
100.2949230284511
 20
-82.25861864368017
 30
0.0
 10
101.6781871831085
 20
-82.25861864368017
 30
0.0
 10
103.0614554067763
 20
-82.26005093534113
 30
0.0
 10
104.4447073544024
 20
-82.25609382272665
 30
0.0
 10
104.5645234346553
 20
-82.25575202585301
 30
0.0
 10
104.6421438770551
 20
-82.30069424572643
 30
0.0
 10
104.7355683558503
 20
-82.37154385481979
 30
0.0
 10
105.0377005161076
 20
-82.60065762344024
 30
0.0
 10
105.1062307892727
 20
-82.88845669456178
 30
0.0
 10
105.1056407827646
 20
-83.26091152706555
 30
0.0
 10
105.0942638296848
 20
-90.42719771277018
 30
0.0
 10
105.097222000246
 20
-97.59351034704243
 30
0.0
 10
105.097222000246
 20
-104.7598148432939
 30
0.0
 10
105.097222000246
 20
-104.8309655591569
 30
0.0
 10
105.097222000246
 20
-104.9021122060094
 30
0.0
 10
105.097222000246
 20
-104.9919518866419
 30
0.0
 10
105.0249807895957
 20
-104.9919518866419
 30
0.0
 10
104.9658011023309
 20
-104.9919518866419
 30
0.0
 10
104.9066214150662
 20
-104.9919518866419
 30
0.0
 10
97.60698765502185
 20
-104.9919518866419
 30
0.0
 10
90.30735389497752
 20
-104.9916833319555
 30
0.0
 10
83.00772216943838
 20
-104.994381085851
 30
0.0
 10
82.89341349476258
 20
-104.9944258449654
 30
0.0
 10
82.82012451393415
 20
-104.9508304675345
 30
0.0
 10
82.73146077730743
 20
-104.8843428375905
 30
0.0
 10
82.42309489311661
 20
-104.6531213215826
 30
0.0
 10
82.3468151896438
 20
-104.3611128592017
 30
0.0
 10
82.35439779052513
 20
-103.9808109401406
 30
0.0
 10
82.37953003326376
 20
-102.7202640701517
 30
0.0
 10
82.36388875728427
 20
-101.4589033980826
 30
0.0
 10
82.36388875728427
 20
-100.1978560398144
 30
0.0
 10
82.36388875728427
 20
-100.1372684749511
 30
0.0
 10
82.36388875728427
 20
-100.0766809100878
 30
0.0
 10
82.36388875728427
 20
-100.0040409364182
 30
0.0
 10
80.86505656923215
 20
-100.0040409364182
 30
0.0
 10
79.37450481734503
 20
-100.0040409364182
 30
0.0
 10
77.86388877517308
 20
-100.0040409364182
 30
0.0
 10
77.86388877517308
 20
-100.0687341327756
 30
0.0
 10
77.86388877517308
 20
-100.1333622249666
 30
0.0
 10
77.86388877517308
 20
-100.1979862481472
 30
0.0
 10
77.86388877517308
 20
-101.5812504028046
 30
0.0
 10
77.86252769119412
 20
-102.9645186264724
 30
0.0
 10
77.86640342360057
 20
-104.3477705740985
 30
0.0
 10
77.86672487542222
 20
-104.4620039720819
 30
0.0
 10
77.82327598236577
 20
-104.535461816842
 30
0.0
 10
77.75650962520932
 20
-104.6241377604999
 30
0.0
 10
77.52499717495776
 20
-104.9316043933922
 30
0.0
 10
77.23257163901087
 20
-105.0014082668126
 30
0.0
 10
76.85326255848749
 20
-105.0007735011902
 30
0.0
 10
69.69253260648472
 20
-104.9887943345711
 30
0.0
 10
62.53177620591434
 20
-104.9919518866419
 30
0.0
 10
55.37102540023319
 20
-104.9919518866419
 30
0.0
 10
55.29920736666452
 20
-104.9919518866419
 30
0.0
 10
55.22738933309585
 20
-104.9919518866419
 30
0.0
 10
55.13055629515075
 20
-104.9919518866419
 30
0.0
 10
55.13055629515075
 20
-104.9264286121628
 30
0.0
 10
55.13055629515075
 20
-104.8680545889573
 30
0.0
 10
55.13055629515075
 20
-104.8096805657519
 30
0.0
 10
55.13055553221134
 20
-97.50449260651088
 30
0.0
 10
55.1307734785808
 20
-90.19930464726988
 30
0.0
 10
55.1284485477633
 20
-82.89411872253407
 30
0.0
 10
55.12841421548792
 20
-82.78640794822267
 30
0.0
 10
55.17037588524331
 20
-82.71674038665066
 30
0.0
 10
55.23269506834506
 20
-82.63249966432929
 30
0.0
 10
55.46597830106023
 20
-82.31715746180683
 30
0.0
 10
55.7638692809144
 20
-82.24121548619726
 30
0.0
 10
56.15003566121537
 20
-82.2490401931974
 30
0.0
 10
57.41056600084938
 20
-82.27458340598649
 30
0.0
 10
58.67193684544444
 20
-82.25861864368017
 30
0.0
 10
59.93298471233904
 20
-82.25861864368017
 30
0.0
 10
59.99294666685344
 20
-82.25861864368017
 30
0.0
 10
60.0529091299939
 20
-82.25861864368017
 30
0.0
 10
60.12141295459136
 20
-82.25861864368017
 30
0.0
 10
60.12141295459136
 20
-80.7578089165734
 30
0.0
 10
60.12141295459136
 20
-79.27118172521755
 30
0.0
 10
60.12141295459136
 20
-77.75861866156896
 30
0.0
 10
60.06050597241161
 20
-77.75861866156896
 30
0.0
 10
59.99667794939069
 20
-77.75861866156896
 30
0.0
 10
59.93284941774306
 20
-77.75861866156896
 30
0.0
 10
58.54958577171207
 20
-77.75861866156896
 30
0.0
 10
57.16631805667068
 20
-77.7571884044132
 30
0.0
 10
55.78306585473148
 20
-77.76114348252247
 30
0.0
 10
55.6632510460444
 20
-77.76148527939611
 30
0.0
 10
55.58562933207885
 20
-77.71653899051229
 30
0.0
 10
55.49220256446502
 20
-77.64569345042933
 30
0.0
 10
55.19006430069214
 20
-77.41657764730368
 30
0.0
 10
55.12154801475045
 20
-77.12877450717174
 30
0.0
 10
55.12213929282431
 20
-76.75632170917318
 30
0.0
 10
55.13351217689367
 20
-69.59003348896334
 30
0.0
 10
55.13055553221134
 20
-62.42372492370149
 30
0.0
 10
55.13055553221134
 20
-55.25741864725788
 30
0.0
 10
55.13055553221134
 20
-55.1863709282207
 30
0.0
 10
55.13055553221134
 20
-55.11532295487048
 30
0.0
 10
55.13055553221134
 20
-55.02528567292026
 30
0.0
 10
55.20279801442745
 20
-55.02528567292026
 30
0.0
 10
55.26198024482377
 20
-55.02528567292026
 30
0.0
 10
55.32116222090675
 20
-55.02528567292026
 30
0.0
 10
62.62079496369864
 20
-55.02528567292026
 30
0.0
 10
69.92042770649022
 20
-55.02555244741485
 30
0.0
 10
77.22005943202936
 20
-55.02285240470076
 30
0.0
 10
77.33437217571556
 20
-55.02281018871794
 30
0.0
 10
77.40773846774161
 20
-55.06617693862697
 30
0.0
 10
77.4963065826239
 20
-55.13293490344959
 30
0.0
 10
77.8035717995014
 20
-55.364530514101
 30
0.0
 10
77.88107627510475
 20
-55.65593193099276
 30
0.0
 10
77.87343874258303
 20
-56.03643348587653
 30
0.0
 10
77.84814170492318
 20
-57.29697374372383
 30
0.0
 10
77.86388877517308
 20
-58.55833695892414
 30
0.0
 10
77.86388877517308
 20
-59.81938482581874
 30
0.0
 10
77.86388877517308
 20
-59.88000850314928
 30
0.0
 10
77.86388877517308
 20
-59.9406326891062
 30
0.0
 10
77.86388877517308
 20
-60.01319738608368
 30
0.0
 10
79.3627209632252
 20
-60.01319738608368
 30
0.0
 10
80.85327271511233
 20
-60.01319738608368
 30
0.0
 10
82.36388875728427
 20
-60.01319738608368
 30
0.0
  0
SPLINE
  5
48
330
1F
100
AcDbEntity
  8
_U_30EC_U_30A4_U_30E4_U_30
 62
    29
100
AcDbSpline
210
0.0
220
0.0
230
1.0
 70
    11
 71
     3
 72
   161
 73
   157
 74
     0
 42
0.0000000001
 43
0.0000000001
 12
1.0
 22
0.0
 32
0.0
 13
1.0
 23
0.0
 33
0.0
 40
0.0
 40
0.0
 40
0.0
 40
0.0
 40
1.0
 40
1.0
 40
1.0
 40
2.0
 40
2.0
 40
2.0
 40
3.0
 40
3.0
 40
3.0
 40
4.0
 40
4.0
 40
4.0
 40
5.0
 40
5.0
 40
5.0
 40
6.0
 40
6.0
 40
6.0
 40
7.0
 40
7.0
 40
7.0
 40
8.0
 40
8.0
 40
8.0
 40
9.0
 40
9.0
 40
9.0
 40
10.0
 40
10.0
 40
10.0
 40
11.0
 40
11.0
 40
11.0
 40
12.0
 40
12.0
 40
12.0
 40
13.0
 40
13.0
 40
13.0
 40
14.0
 40
14.0
 40
14.0
 40
15.0
 40
15.0
 40
15.0
 40
16.0
 40
16.0
 40
16.0
 40
17.0
 40
17.0
 40
17.0
 40
18.0
 40
18.0
 40
18.0
 40
19.0
 40
19.0
 40
19.0
 40
20.0
 40
20.0
 40
20.0
 40
21.0
 40
21.0
 40
21.0
 40
22.0
 40
22.0
 40
22.0
 40
23.0
 40
23.0
 40
23.0
 40
24.0
 40
24.0
 40
24.0
 40
25.0
 40
25.0
 40
25.0
 40
26.0
 40
26.0
 40
26.0
 40
27.0
 40
27.0
 40
27.0
 40
28.0
 40
28.0
 40
28.0
 40
29.0
 40
29.0
 40
29.0
 40
30.0
 40
30.0
 40
30.0
 40
31.0
 40
31.0
 40
31.0
 40
32.0
 40
32.0
 40
32.0
 40
33.0
 40
33.0
 40
33.0
 40
34.0
 40
34.0
 40
34.0
 40
35.0
 40
35.0
 40
35.0
 40
36.0
 40
36.0
 40
36.0
 40
37.0
 40
37.0
 40
37.0
 40
38.0
 40
38.0
 40
38.0
 40
39.0
 40
39.0
 40
39.0
 40
40.0
 40
40.0
 40
40.0
 40
41.0
 40
41.0
 40
41.0
 40
42.0
 40
42.0
 40
42.0
 40
43.0
 40
43.0
 40
43.0
 40
44.0
 40
44.0
 40
44.0
 40
45.0
 40
45.0
 40
45.0
 40
46.0
 40
46.0
 40
46.0
 40
47.0
 40
47.0
 40
47.0
 40
48.0
 40
48.0
 40
48.0
 40
49.0
 40
49.0
 40
49.0
 40
50.0
 40
50.0
 40
50.0
 40
51.0
 40
51.0
 40
51.0
 40
52.0
 40
52.0
 40
52.0
 40
52.0
 10
163.2877484988019
 20
-29.78333120566908
 30
0.0
 10
163.2877484987339
 20
-28.27322175529168
 30
0.0
 10
163.2877484986672
 20
-26.79055574556071
 30
0.0
 10
163.2877484985991
 20
-25.28333122355789
 30
0.0
 10
163.220125614754
 20
-25.28333122356078
 30
0.0
 10
163.1561139776384
 20
-25.28333122356366
 30
0.0
 10
163.0921023405227
 20
-25.28333122356655
 30
0.0
 10
161.7088503928966
 20
-25.2833312236288
 30
0.0
 10
160.3255943762606
 20
-25.28179924127462
 30
0.0
 10
158.9423546356657
 20
-25.28601677061729
 30
0.0
 10
158.8216962702599
 20
-25.28638501606431
 30
0.0
 10
158.7453250140512
 20
-25.23892814776595
 30
0.0
 10
158.6521487448871
 20
-25.16900220403832
 30
0.0
 10
158.3477542148369
 20
-24.94055778764222
 30
0.0
 10
158.282979638258
 20
-24.6505024502565
 30
0.0
 10
158.2835533687084
 20
-24.27916456110767
 30
0.0
 10
158.2945885245924
 20
-17.11293330704279
 30
0.0
 10
158.2917239409483
 20
-9.94668069067412
 30
0.0
 10
158.2917239406269
 20
-2.780433160568283
 30
0.0
 10
158.2917239406237
 20
-2.709538283734466
 30
0.0
 10
158.2917239406204
 20
-2.638643406900007
 30
0.0
 10
158.2917239406166
 20
-2.549997980820427
 30
0.0
 10
158.3708824689477
 20
-2.549997980816898
 30
0.0
 10
158.435787253846
 20
-2.54999798081401
 30
0.0
 10
158.5006920387442
 20
-2.549997980811123
 30
0.0
 10
163.3004112579452
 20
-2.549997980595512
 30
0.0
 10
168.1001304771462
 20
-2.550455744050277
 30
0.0
 10
172.8998476618416
 20
-2.547482314484347
 30
0.0
 10
173.0258486379032
 20
-2.547404494654903
 30
0.0
 10
173.1065940802931
 20
-2.596962243884746
 30
0.0
 10
173.2041140180594
 20
-2.67049765415096
 30
0.0
 10
173.5033714224793
 20
-2.896155815675163
 30
0.0
 10
173.5741030302839
 20
-3.179230765718845
 30
0.0
 10
173.5673525420455
 20
-3.546397664894457
 30
0.0
 10
173.5440676300861
 20
-4.812562058054967
 30
0.0
 10
173.5583905467523
 20
-6.079417928669568
 30
0.0
 10
173.5583905468088
 20
-7.346010839486957
 30
0.0
 10
173.558390546812
 20
-7.406473790906675
 30
0.0
 10
173.5583905468146
 20
-7.466936233700334
 30
0.0
 10
173.5583905468178
 20
-7.538586420589822
 30
0.0
 10
175.0474693169399
 20
-7.538586420523086
 30
0.0
 10
176.5269004634025
 20
-7.53858642045667
 30
0.0
 10
178.0250571957282
 20
-7.538586420389612
 30
0.0
 10
178.0250571957256
 20
-7.471688329021839
 30
0.0
 10
178.0250571957224
 20
-7.406883743504796
 30
0.0
 10
178.0250571957192
 20
-7.342079157987754
 30
0.0
 10
178.0250571956576
 20
-5.95882670173488
 30
0.0
 10
178.0264945735194
 20
-4.575570176471928
 30
0.0
 10
178.0224245458039
 20
-3.192329164311487
 30
0.0
 10
178.0220868179356
 20
-3.077402000054494
 30
0.0
 10
178.0676831312275
 20
-3.004858411067464
 30
0.0
 10
178.1337892914422
 20
-2.916543337766205
 30
0.0
 10
178.3649192547023
 20
-2.607759108432953
 30
0.0
 10
178.6585573557463
 20
-2.539948032842853
 30
0.0
 10
179.0375348119217
 20
-2.541059889917942
 30
0.0
 10
183.7094433626862
 20
-2.554767114181571
 30
0.0
 10
188.3814073537163
 20
-2.54999797946933
 30
0.0
 10
193.0533564674277
 20
-2.549997979259815
 30
0.0
 10
193.1249766453655
 20
-2.549997979256607
 30
0.0
 10
193.1965968233034
 20
-2.549997979253399
 30
0.0
 10
193.2917230385423
 20
-2.549997979248907
 30
0.0
 10
193.2917230385449
 20
-2.61720989304422
 30
0.0
 10
193.2917230385475
 20
-2.675788384022451
 30
0.0
 10
193.29172303855
 20
-2.734367129313712
 30
0.0
 10
193.2917231660351
 20
-10.03949583359056
 30
0.0
 10
193.2914911056137
 20
-17.34462479218044
 30
0.0
 10
193.2939561633046
 20
-24.64975375077096
 30
0.0
 10
193.2939927844033
 20
-24.75820305047037
 30
0.0
 10
193.2499963551378
 20
-24.82694084316715
 30
0.0
 10
193.1881889772545
 20
-24.91078280247281
 30
0.0
 10
192.959549629829
 20
-25.22092684421827
 30
0.0
 10
192.6674076530479
 20
-25.29977205876238
 30
0.0
 10
192.287016470071
 20
-25.29249463367779
 30
0.0
 10
191.0208869178113
 20
-25.26827588383085
 30
0.0
 10
189.7540061245082
 20
-25.28333122236946
 30
0.0
 10
188.4874137223169
 20
-25.28333122242657
 30
0.0
 10
188.4277605039662
 20
-25.28333122242914
 30
0.0
 10
188.3681067769901
 20
-25.28333122243171
 30
0.0
 10
188.3002016055479
 20
-25.28333122243491
 30
0.0
 10
188.3002016056153
 20
-26.78547151594264
 30
0.0
 10
188.300201605682
 20
-28.27208446576209
 30
0.0
 10
188.3002016057501
 20
-29.78333120454611
 30
0.0
 10
188.3632626203102
 20
-29.78333120454322
 30
0.0
 10
188.4272676452838
 20
-29.78333120454034
 30
0.0
 10
188.4912721616315
 20
-29.78333120453745
 30
0.0
 10
189.8745246178837
 20
-29.7833312044752
 30
0.0
 10
191.257781651773
 20
-29.78485708331346
 30
0.0
 10
192.6410213923673
 20
-29.78064972649711
 30
0.0
 10
192.7616413564876
 20
-29.78028351555561
 30
0.0
 10
192.8380698331557
 20
-29.82763458958292
 30
0.0
 10
192.9312552575927
 20
-29.89759918891031
 30
0.0
 10
193.2355560732471
 20
-30.12607615738898
 30
0.0
 10
193.3004781514526
 20
-30.41604401105077
 30
0.0
 10
193.2999054382555
 20
-30.78742462480912
 30
0.0
 10
193.2888573124006
 20
-37.953655878874
 30
0.0
 10
193.2917240577054
 20
-45.11990747798991
 30
0.0
 10
193.2917240580276
 20
-52.28615500809575
 30
0.0
 10
193.2917240580308
 20
-52.35717958463632
 30
0.0
 10
193.2917239308775
 20
-52.42820009216649
 30
0.0
 10
193.2917239308813
 20
-52.51666444728357
 30
0.0
 10
193.2126235131051
 20
-52.5166644472871
 30
0.0
 10
193.1477261032879
 20
-52.51666444728999
 30
0.0
 10
193.0828286934714
 20
-52.51666444729288
 30
0.0
 10
188.2831092199574
 20
-52.51666444750848
 30
0.0
 10
183.4833894921297
 20
-52.51621278756964
 30
0.0
 10
178.6836723074342
 20
-52.51917502735649
 30
0.0
 10
178.5577099869711
 20
-52.51925233855987
 30
0.0
 10
178.4769146992043
 20
-52.46980165516624
 30
0.0
 10
178.3793733991326
 20
-52.39622174009865
 30
0.0
 10
178.0801902541533
 20
-52.17053407824888
 30
0.0
 10
178.0093335242791
 20
-51.88753440489793
 30
0.0
 10
178.0160911332855
 20
-51.52033469932608
 30
0.0
 10
178.0393923212871
 20
-50.25417259498348
 30
0.0
 10
178.0250571975891
 20
-48.987314689864
 30
0.0
 10
178.0250571975326
 20
-47.72072127041991
 30
0.0
 10
178.0250571975294
 20
-47.66030460399342
 30
0.0
 10
178.0250571975268
 20
-47.59989200657732
 30
0.0
 10
178.0250571975236
 20
-47.52809838707105
 30
0.0
 10
176.5360292900318
 20
-47.5280983871378
 30
0.0
 10
175.0565981435686
 20
-47.52809838720421
 30
0.0
 10
173.5583905486133
 20
-47.52809838727126
 30
0.0
 10
173.5583905486158
 20
-47.59491560705774
 30
0.0
 10
173.558390548619
 20
-47.65971052867516
 30
0.0
 10
173.5583905486222
 20
-47.72450951930298
 30
0.0
 10
173.5583905486838
 20
-49.10776146692915
 30
0.0
 10
173.5569562225802
 20
-50.49101748356604
 30
0.0
 10
173.561019129527
 20
-51.87425722416069
 30
0.0
 10
173.5613548228905
 20
-51.98915387083936
 30
0.0
 10
173.5158388725532
 20
-52.06173280935484
 30
0.0
 10
173.4497174535497
 20
-52.15006695614232
 30
0.0
 10
173.2185834212792
 20
-52.45883567237306
 30
0.0
 10
172.9249778723191
 20
-52.5267149038872
 30
0.0
 10
172.5459861746069
 20
-52.52560406406487
 30
0.0
 10
167.8740766065903
 20
-52.51189556823546
 30
0.0
 10
163.202114141439
 20
-52.51666444863466
 30
0.0
 10
158.5301638833184
 20
-52.51666444884418
 30
0.0
 10
158.4585370932385
 20
-52.51666444884739
 30
0.0
 10
158.3869103031587
 20
-52.51666444885092
 30
0.0
 10
158.29172394286
 20
-52.51666444885509
 30
0.0
 10
158.2917239428567
 20
-52.44951357021579
 30
0.0
 10
158.2917239428542
 20
-52.39094016550072
 30
0.0
 10
158.2917239428516
 20
-52.33237082979605
 30
0.0
 10
158.2917239425237
 20
-45.02719100857584
 30
0.0
 10
158.2919558757886
 20
-37.72201118735563
 30
0.0
 10
158.2894859861476
 20
-30.41682933163055
 30
0.0
 10
158.2894493650489
 20
-30.30834747984793
 30
0.0
 10
158.333537092735
 20
-30.23964834274964
 30
0.0
 10
158.3953168776424
 20
-30.15582265948559
 30
0.0
 10
158.6239423650007
 20
-29.84562572060427
 30
0.0
 10
158.9161542778984
 20
-29.76690461087834
 30
0.0
 10
159.2965090940947
 20
-29.77417593244701
 30
0.0
 10
160.5626386463544
 20
-29.79837840625234
 30
0.0
 10
161.8295209655363
 20
-29.78333120573454
 30
0.0
 10
163.0961143849804
 20
-29.78333120567742
 30
0.0
 10
163.1557599739357
 20
-29.78333120567486
 30
0.0
 10
163.215405562891
 20
-29.78333120567229
 30
0.0
 10
163.2877484988019
 20
-29.78333120566908
 30
0.0
  0
SPLINE
  5
49
330
1F
100
AcDbEntity
  8
_U_30EC_U_30A4_U_30E4_U_30
 62
    29
100
AcDbSpline
210
0.0
220
0.0
230
1.0
 70
    11
 71
     3
 72
   161
 73
   157
 74
     0
 42
0.0000000001
 43
0.0000000001
 12
1.0
 22
0.0
 32
0.0
 13
1.0
 23
0.0
 33
0.0
 40
0.0
 40
0.0
 40
0.0
 40
0.0
 40
1.0
 40
1.0
 40
1.0
 40
2.0
 40
2.0
 40
2.0
 40
3.0
 40
3.0
 40
3.0
 40
4.0
 40
4.0
 40
4.0
 40
5.0
 40
5.0
 40
5.0
 40
6.0
 40
6.0
 40
6.0
 40
7.0
 40
7.0
 40
7.0
 40
8.0
 40
8.0
 40
8.0
 40
9.0
 40
9.0
 40
9.0
 40
10.0
 40
10.0
 40
10.0
 40
11.0
 40
11.0
 40
11.0
 40
12.0
 40
12.0
 40
12.0
 40
13.0
 40
13.0
 40
13.0
 40
14.0
 40
14.0
 40
14.0
 40
15.0
 40
15.0
 40
15.0
 40
16.0
 40
16.0
 40
16.0
 40
17.0
 40
17.0
 40
17.0
 40
18.0
 40
18.0
 40
18.0
 40
19.0
 40
19.0
 40
19.0
 40
20.0
 40
20.0
 40
20.0
 40
21.0
 40
21.0
 40
21.0
 40
22.0
 40
22.0
 40
22.0
 40
23.0
 40
23.0
 40
23.0
 40
24.0
 40
24.0
 40
24.0
 40
25.0
 40
25.0
 40
25.0
 40
26.0
 40
26.0
 40
26.0
 40
27.0
 40
27.0
 40
27.0
 40
28.0
 40
28.0
 40
28.0
 40
29.0
 40
29.0
 40
29.0
 40
30.0
 40
30.0
 40
30.0
 40
31.0
 40
31.0
 40
31.0
 40
32.0
 40
32.0
 40
32.0
 40
33.0
 40
33.0
 40
33.0
 40
34.0
 40
34.0
 40
34.0
 40
35.0
 40
35.0
 40
35.0
 40
36.0
 40
36.0
 40
36.0
 40
37.0
 40
37.0
 40
37.0
 40
38.0
 40
38.0
 40
38.0
 40
39.0
 40
39.0
 40
39.0
 40
40.0
 40
40.0
 40
40.0
 40
41.0
 40
41.0
 40
41.0
 40
42.0
 40
42.0
 40
42.0
 40
43.0
 40
43.0
 40
43.0
 40
44.0
 40
44.0
 40
44.0
 40
45.0
 40
45.0
 40
45.0
 40
46.0
 40
46.0
 40
46.0
 40
47.0
 40
47.0
 40
47.0
 40
48.0
 40
48.0
 40
48.0
 40
49.0
 40
49.0
 40
49.0
 40
50.0
 40
50.0
 40
50.0
 40
51.0
 40
51.0
 40
51.0
 40
52.0
 40
52.0
 40
52.0
 40
52.0
 10
140.6348191984349
 20
-134.3588714214554
 30
0.0
 10
140.6348191983669
 20
-132.848761971078
 30
0.0
 10
140.6348191983001
 20
-131.366095961347
 30
0.0
 10
140.6348191982321
 20
-129.8588714393442
 30
0.0
 10
140.567196314387
 20
-129.8588714393474
 30
0.0
 10
140.5031846772713
 20
-129.85887143935
 30
0.0
 10
140.4391730401557
 20
-129.8588714393526
 30
0.0
 10
139.0559210925295
 20
-129.8588714394155
 30
0.0
 10
137.6726650758936
 20
-129.857339457061
 30
0.0
 10
136.2894253352986
 20
-129.8615569864036
 30
0.0
 10
136.1687669698929
 20
-129.861925231851
 30
0.0
 10
136.0923957136841
 20
-129.814468363552
 30
0.0
 10
135.9992194445201
 20
-129.7445424198247
 30
0.0
 10
135.6948249144698
 20
-129.5160980034282
 30
0.0
 10
135.630050337891
 20
-129.2260426660428
 30
0.0
 10
135.6306240683414
 20
-128.854704776894
 30
0.0
 10
135.6416592242254
 20
-121.6884735228291
 30
0.0
 10
135.6387946405813
 20
-114.5222209064601
 30
0.0
 10
135.6387946402598
 20
-107.3559733763549
 30
0.0
 10
135.6387946402566
 20
-107.2850784995205
 30
0.0
 10
135.6387946402534
 20
-107.214183622686
 30
0.0
 10
135.6387946402496
 20
-107.1255381966064
 30
0.0
 10
135.7179531685807
 20
-107.1255381966032
 30
0.0
 10
135.7828579534789
 20
-107.1255381966
 30
0.0
 10
135.8477627383772
 20
-107.1255381965975
 30
0.0
 10
140.6474819575782
 20
-107.1255381963819
 30
0.0
 10
145.4472011767791
 20
-107.1259959598366
 30
0.0
 10
150.2469183614746
 20
-107.123022530271
 30
0.0
 10
150.3729193375362
 20
-107.1229447104416
 30
0.0
 10
150.4536647799261
 20
-107.1725024596711
 30
0.0
 10
150.5511847176923
 20
-107.2460378699373
 30
0.0
 10
150.8504421221123
 20
-107.4716960314615
 30
0.0
 10
150.9211737299168
 20
-107.7547709815052
 30
0.0
 10
150.9144232416785
 20
-108.1219378806811
 30
0.0
 10
150.8911383297191
 20
-109.3881022738413
 30
0.0
 10
150.9054612463853
 20
-110.6549581444559
 30
0.0
 10
150.9054612464417
 20
-111.9215510552733
 30
0.0
 10
150.905461246445
 20
-111.982014006693
 30
0.0
 10
150.9054612464475
 20
-112.0424764494867
 30
0.0
 10
150.9054612464507
 20
-112.1141266363762
 30
0.0
 10
152.3945400165729
 20
-112.1141266363094
 30
0.0
 10
153.8739711630355
 20
-112.1141266362427
 30
0.0
 10
155.3721278953611
 20
-112.114126636176
 30
0.0
 10
155.3721278953585
 20
-112.0472285448082
 30
0.0
 10
155.3721278953553
 20
-111.9824239592911
 30
0.0
 10
155.3721278953521
 20
-111.9176193737741
 30
0.0
 10
155.3721278952905
 20
-110.5343669175212
 30
0.0
 10
155.3735652731524
 20
-109.1511103922586
 30
0.0
 10
155.3694952454369
 20
-107.7678693800978
 30
0.0
 10
155.3691575175685
 20
-107.6529422158408
 30
0.0
 10
155.4147538308605
 20
-107.5803986268538
 30
0.0
 10
155.4808599910751
 20
-107.4920835535525
 30
0.0
 10
155.7119899543352
 20
-107.1832993242193
 30
0.0
 10
156.0056280553792
 20
-107.1154882486295
 30
0.0
 10
156.3846055115546
 20
-107.1166001057043
 30
0.0
 10
161.0565140623192
 20
-107.1303073299679
 30
0.0
 10
165.7284780533492
 20
-107.1255381952557
 30
0.0
 10
170.4004271670606
 20
-107.1255381950458
 30
0.0
 10
170.4720473449985
 20
-107.1255381950433
 30
0.0
 10
170.5436675229364
 20
-107.1255381950394
 30
0.0
 10
170.6387937381753
 20
-107.1255381950356
 30
0.0
 10
170.6387937381779
 20
-107.1927501088309
 30
0.0
 10
170.6387937381804
 20
-107.2513285998085
 30
0.0
 10
170.638793738183
 20
-107.3099073451004
 30
0.0
 10
170.638793865668
 20
-114.6150360493766
 30
0.0
 10
170.6385618052466
 20
-121.9201650079671
 30
0.0
 10
170.6410268629375
 20
-129.2252939665576
 30
0.0
 10
170.6410634840362
 20
-129.333743266257
 30
0.0
 10
170.5970670547708
 20
-129.4024810589532
 30
0.0
 10
170.5352596768874
 20
-129.4863230182592
 30
0.0
 10
170.306620329462
 20
-129.7964670600046
 30
0.0
 10
170.0144783526808
 20
-129.875312274549
 30
0.0
 10
169.6340871697039
 20
-129.8680348494641
 30
0.0
 10
168.3679576174442
 20
-129.8438160996169
 30
0.0
 10
167.1010768241412
 20
-129.8588714381558
 30
0.0
 10
165.8344844219498
 20
-129.8588714382129
 30
0.0
 10
165.7748312035992
 20
-129.8588714382155
 30
0.0
 10
165.7151774766231
 20
-129.858871438218
 30
0.0
 10
165.6472723051809
 20
-129.8588714382213
 30
0.0
 10
165.6472723052483
 20
-131.361011731729
 30
0.0
 10
165.647272305315
 20
-132.8476246815484
 30
0.0
 10
165.647272305383
 20
-134.3588714203325
 30
0.0
 10
165.7103333199431
 20
-134.3588714203293
 30
0.0
 10
165.7743383449168
 20
-134.3588714203267
 30
0.0
 10
165.8383428612644
 20
-134.3588714203241
 30
0.0
 10
167.2215953175166
 20
-134.3588714202612
 30
0.0
 10
168.604852351406
 20
-134.3603972990998
 30
0.0
 10
169.9880920920003
 20
-134.3561899422834
 30
0.0
 10
170.1087120561206
 20
-134.3558237313423
 30
0.0
 10
170.1851405327886
 20
-134.4031748053696
 30
0.0
 10
170.2783259572256
 20
-134.4731394046966
 30
0.0
 10
170.5826267728801
 20
-134.701616373175
 30
0.0
 10
170.6475488510855
 20
-134.9915842268371
 30
0.0
 10
170.6469761378885
 20
-135.3629648405955
 30
0.0
 10
170.6359280120336
 20
-142.5291960946603
 30
0.0
 10
170.6387947573384
 20
-149.6954476937759
 30
0.0
 10
170.6387947576605
 20
-156.8616952238824
 30
0.0
 10
170.6387947576637
 20
-156.9327198004223
 30
0.0
 10
170.6387946305104
 20
-157.0037403079525
 30
0.0
 10
170.6387946305143
 20
-157.0922046630702
 30
0.0
 10
170.559694212738
 20
-157.0922046630734
 30
0.0
 10
170.4947968029208
 20
-157.0922046630766
 30
0.0
 10
170.4298993931043
 20
-157.0922046630792
 30
0.0
 10
165.6301799195903
 20
-157.0922046632948
 30
0.0
 10
160.8304601917627
 20
-157.091753003356
 30
0.0
 10
156.0307430070672
 20
-157.0947152431425
 30
0.0
 10
155.9047806866041
 20
-157.0947925543459
 30
0.0
 10
155.8239853988372
 20
-157.0453418709526
 30
0.0
 10
155.7264440987656
 20
-156.971761955885
 30
0.0
 10
155.4272609537863
 20
-156.7460742940352
 30
0.0
 10
155.356404223912
 20
-156.4630746206843
 30
0.0
 10
155.3631618329185
 20
-156.0958749151121
 30
0.0
 10
155.3864630209201
 20
-154.8297128107698
 30
0.0
 10
155.372127897222
 20
-153.5628549056503
 30
0.0
 10
155.3721278971656
 20
-152.2962614862062
 30
0.0
 10
155.3721278971624
 20
-152.2358448197797
 30
0.0
 10
155.3721278971598
 20
-152.1754322223637
 30
0.0
 10
155.3721278971566
 20
-152.1036386028574
 30
0.0
 10
153.8830999896647
 20
-152.1036386029241
 30
0.0
 10
152.4036688432015
 20
-152.1036386029909
 30
0.0
 10
150.9054612482462
 20
-152.1036386030576
 30
0.0
 10
150.9054612482488
 20
-152.1704558228441
 30
0.0
 10
150.905461248252
 20
-152.2352507444615
 30
0.0
 10
150.9054612482552
 20
-152.3000497350893
 30
0.0
 10
150.9054612483168
 20
-153.6833016827155
 30
0.0
 10
150.9040269222132
 20
-155.0665576993527
 30
0.0
 10
150.90808982916
 20
-156.449797439947
 30
0.0
 10
150.9084255225235
 20
-156.5646940866257
 30
0.0
 10
150.8629095721862
 20
-156.6372730251412
 30
0.0
 10
150.7967881531827
 20
-156.7256071719287
 30
0.0
 10
150.5656541209122
 20
-157.0343758881594
 30
0.0
 10
150.272048571952
 20
-157.1022551196732
 30
0.0
 10
149.8930568742399
 20
-157.1011442798512
 30
0.0
 10
145.2211473062232
 20
-157.0874357840218
 30
0.0
 10
140.549184841072
 20
-157.092204664421
 30
0.0
 10
135.8772345829513
 20
-157.0922046646309
 30
0.0
 10
135.8056077928715
 20
-157.0922046646334
 30
0.0
 10
135.7339810027916
 20
-157.0922046646373
 30
0.0
 10
135.6387946424929
 20
-157.0922046646411
 30
0.0
 10
135.6387946424897
 20
-157.0250537860024
 30
0.0
 10
135.6387946424871
 20
-156.9664803812867
 30
0.0
 10
135.6387946424846
 20
-156.9079110455821
 30
0.0
 10
135.6387946421567
 20
-149.6027312243625
 30
0.0
 10
135.6390265754216
 20
-142.2975514031417
 30
0.0
 10
135.6365566857806
 20
-134.9923695474166
 30
0.0
 10
135.6365200646819
 20
-134.8838876956339
 30
0.0
 10
135.680607792368
 20
-134.8151885585363
 30
0.0
 10
135.7423875772754
 20
-134.7313628752719
 30
0.0
 10
135.9710130646337
 20
-134.4211659363906
 30
0.0
 10
136.2632249775314
 20
-134.342444826665
 30
0.0
 10
136.6435797937277
 20
-134.3497161482333
 30
0.0
 10
137.9097093459874
 20
-134.373918622039
 30
0.0
 10
139.1765916651693
 20
-134.3588714215209
 30
0.0
 10
140.4431850846134
 20
-134.3588714214638
 30
0.0
 10
140.5028306735686
 20
-134.3588714214612
 30
0.0
 10
140.5624762625239
 20
-134.3588714214586
 30
0.0
 10
140.6348191984349
 20
-134.3588714214554
 30
0.0
  0
SPLINE
  5
4A
330
1F
100
AcDbEntity
  8
_U_30EC_U_30A4_U_30E4_U_30
 62
    29
100
AcDbSpline
210
0.0
220
0.0
230
1.0
 70
    11
 71
     3
 72
   161
 73
   157
 74
     0
 42
0.0000000001
 43
0.0000000001
 12
1.0
 22
0.0
 32
0.0
 13
1.0
 23
0.0
 33
0.0
 40
0.0
 40
0.0
 40
0.0
 40
0.0
 40
1.0
 40
1.0
 40
1.0
 40
2.0
 40
2.0
 40
2.0
 40
3.0
 40
3.0
 40
3.0
 40
4.0
 40
4.0
 40
4.0
 40
5.0
 40
5.0
 40
5.0
 40
6.0
 40
6.0
 40
6.0
 40
7.0
 40
7.0
 40
7.0
 40
8.0
 40
8.0
 40
8.0
 40
9.0
 40
9.0
 40
9.0
 40
10.0
 40
10.0
 40
10.0
 40
11.0
 40
11.0
 40
11.0
 40
12.0
 40
12.0
 40
12.0
 40
13.0
 40
13.0
 40
13.0
 40
14.0
 40
14.0
 40
14.0
 40
15.0
 40
15.0
 40
15.0
 40
16.0
 40
16.0
 40
16.0
 40
17.0
 40
17.0
 40
17.0
 40
18.0
 40
18.0
 40
18.0
 40
19.0
 40
19.0
 40
19.0
 40
20.0
 40
20.0
 40
20.0
 40
21.0
 40
21.0
 40
21.0
 40
22.0
 40
22.0
 40
22.0
 40
23.0
 40
23.0
 40
23.0
 40
24.0
 40
24.0
 40
24.0
 40
25.0
 40
25.0
 40
25.0
 40
26.0
 40
26.0
 40
26.0
 40
27.0
 40
27.0
 40
27.0
 40
28.0
 40
28.0
 40
28.0
 40
29.0
 40
29.0
 40
29.0
 40
30.0
 40
30.0
 40
30.0
 40
31.0
 40
31.0
 40
31.0
 40
32.0
 40
32.0
 40
32.0
 40
33.0
 40
33.0
 40
33.0
 40
34.0
 40
34.0
 40
34.0
 40
35.0
 40
35.0
 40
35.0
 40
36.0
 40
36.0
 40
36.0
 40
37.0
 40
37.0
 40
37.0
 40
38.0
 40
38.0
 40
38.0
 40
39.0
 40
39.0
 40
39.0
 40
40.0
 40
40.0
 40
40.0
 40
41.0
 40
41.0
 40
41.0
 40
42.0
 40
42.0
 40
42.0
 40
43.0
 40
43.0
 40
43.0
 40
44.0
 40
44.0
 40
44.0
 40
45.0
 40
45.0
 40
45.0
 40
46.0
 40
46.0
 40
46.0
 40
47.0
 40
47.0
 40
47.0
 40
48.0
 40
48.0
 40
48.0
 40
49.0
 40
49.0
 40
49.0
 40
50.0
 40
50.0
 40
50.0
 40
51.0
 40
51.0
 40
51.0
 40
52.0
 40
52.0
 40
52.0
 40
52.0
 10
111.7070414278887
 20
-82.25861653190573
 30
0.0
 10
111.707041427821
 20
-80.74850708152833
 30
0.0
 10
111.7070414277543
 20
-79.26584107179735
 30
0.0
 10
111.7070414276866
 20
-77.75861654979454
 30
0.0
 10
111.6394185438408
 20
-77.75861654979742
 30
0.0
 10
111.5754069067255
 20
-77.75861654980031
 30
0.0
 10
111.5113952696102
 20
-77.75861654980321
 30
0.0
 10
110.128143321984
 20
-77.75861654986545
 30
0.0
 10
108.7448873053474
 20
-77.75708456751127
 30
0.0
 10
107.3616475647528
 20
-77.76130209685394
 30
0.0
 10
107.240989199347
 20
-77.76167034230096
 30
0.0
 10
107.164617943138
 20
-77.71421347400259
 30
0.0
 10
107.0714416739739
 20
-77.64428753027497
 30
0.0
 10
106.7670471439237
 20
-77.41584311387886
 30
0.0
 10
106.7022725673454
 20
-77.12578777649314
 30
0.0
 10
106.7028462977952
 20
-76.75444988734432
 30
0.0
 10
106.7138814536795
 20
-69.58821863327944
 30
0.0
 10
106.7110168700358
 20
-62.42196601691077
 30
0.0
 10
106.711016869714
 20
-55.25571848680493
 30
0.0
 10
106.7110168697108
 20
-55.18482360997112
 30
0.0
 10
106.7110168697076
 20
-55.11392873313666
 30
0.0
 10
106.7110168697037
 20
-55.02528330705708
 30
0.0
 10
106.7901753980349
 20
-55.02528330705355
 30
0.0
 10
106.8550801829331
 20
-55.02528330705066
 30
0.0
 10
106.9199849678313
 20
-55.02528330704777
 30
0.0
 10
111.7197041870323
 20
-55.02528330683216
 30
0.0
 10
116.5194234062333
 20
-55.02574107028693
 30
0.0
 10
121.3191405909291
 20
-55.022767640721
 30
0.0
 10
121.4451415669907
 20
-55.02268982089155
 30
0.0
 10
121.5258870093803
 20
-55.0722475701214
 30
0.0
 10
121.6234069471468
 20
-55.14578298038761
 30
0.0
 10
121.9226643515664
 20
-55.37144114191182
 30
0.0
 10
121.9933959593707
 20
-55.65451609195549
 30
0.0
 10
121.9866454711326
 20
-56.02168299113111
 30
0.0
 10
121.9633605591729
 20
-57.28784738429162
 30
0.0
 10
121.9776834758394
 20
-58.55470325490622
 30
0.0
 10
121.9776834758962
 20
-59.82129616572361
 30
0.0
 10
121.9776834758991
 20
-59.88175911714332
 30
0.0
 10
121.9776834759017
 20
-59.94222155993698
 30
0.0
 10
121.9776834759049
 20
-60.01387174682647
 30
0.0
 10
123.466762246027
 20
-60.01387174675973
 30
0.0
 10
124.9461933924896
 20
-60.01387174669332
 30
0.0
 10
126.4443501248153
 20
-60.01387174662626
 30
0.0
 10
126.4443501248124
 20
-59.94697365525849
 30
0.0
 10
126.4443501248095
 20
-59.88216906974144
 30
0.0
 10
126.4443501248066
 20
-59.81736448422441
 30
0.0
 10
126.4443501247444
 20
-58.43411202797153
 30
0.0
 10
126.4457875026066
 20
-57.05085550270858
 30
0.0
 10
126.4417174748911
 20
-55.66761449054814
 30
0.0
 10
126.4413797470227
 20
-55.55268732629114
 30
0.0
 10
126.4869760603146
 20
-55.48014373730411
 30
0.0
 10
126.5530822205296
 20
-55.39182866400285
 30
0.0
 10
126.7842121837897
 20
-55.0830444346696
 30
0.0
 10
127.0778502848331
 20
-55.0152333590795
 30
0.0
 10
127.4568277410088
 20
-55.01634521615459
 30
0.0
 10
132.128736291773
 20
-55.03005244041822
 30
0.0
 10
136.8007002828034
 20
-55.02528330570598
 30
0.0
 10
141.4726493965148
 20
-55.02528330549647
 30
0.0
 10
141.5442695744527
 20
-55.02528330549325
 30
0.0
 10
141.6158897523905
 20
-55.02528330549005
 30
0.0
 10
141.7110159676295
 20
-55.02528330548556
 30
0.0
 10
141.711015967632
 20
-55.09249521928087
 30
0.0
 10
141.7110159676346
 20
-55.1510737102591
 30
0.0
 10
141.7110159676372
 20
-55.20965245555036
 30
0.0
 10
141.7110160951222
 20
-62.51478115982721
 30
0.0
 10
141.7107840347008
 20
-69.81991011841708
 30
0.0
 10
141.7132490923917
 20
-77.12503907700761
 30
0.0
 10
141.7132857134904
 20
-77.23348837670703
 30
0.0
 10
141.669289284225
 20
-77.30222616940381
 30
0.0
 10
141.6074819063416
 20
-77.38606812870945
 30
0.0
 10
141.3788425589161
 20
-77.69621217045491
 30
0.0
 10
141.086700582135
 20
-77.77505738499903
 30
0.0
 10
140.7063093991581
 20
-77.76777995991444
 30
0.0
 10
139.4401798468984
 20
-77.7435612100675
 30
0.0
 10
138.1732990535953
 20
-77.75861654860611
 30
0.0
 10
136.9067066514037
 20
-77.75861654866323
 30
0.0
 10
136.8470534330537
 20
-77.75861654866578
 30
0.0
 10
136.7873997060773
 20
-77.75861654866836
 30
0.0
 10
136.7194945346351
 20
-77.75861654867157
 30
0.0
 10
136.7194945347024
 20
-79.26075684217929
 30
0.0
 10
136.7194945347692
 20
-80.74736979199874
 30
0.0
 10
136.7194945348372
 20
-82.25861653078276
 30
0.0
 10
136.7825555493976
 20
-82.25861653077988
 30
0.0
 10
136.8465605743713
 20
-82.25861653077699
 30
0.0
 10
136.9105650907183
 20
-82.25861653077409
 30
0.0
 10
138.2938175469708
 20
-82.25861653071185
 30
0.0
 10
139.6770745808601
 20
-82.26014240955011
 30
0.0
 10
141.0603143214545
 20
-82.25593505273376
 30
0.0
 10
141.1809342855748
 20
-82.25556884179225
 30
0.0
 10
141.2573627622428
 20
-82.30291991581957
 30
0.0
 10
141.3505481866798
 20
-82.37288451514696
 30
0.0
 10
141.6548490023343
 20
-82.60136148362562
 30
0.0
 10
141.7197710805397
 20
-82.89132933728742
 30
0.0
 10
141.7191983673427
 20
-83.26270995104576
 30
0.0
 10
141.7081502414877
 20
-90.42894120511065
 30
0.0
 10
141.7110169867926
 20
-97.59519280422656
 30
0.0
 10
141.7110169871147
 20
-104.7614403343324
 30
0.0
 10
141.7110169871179
 20
-104.832464910873
 30
0.0
 10
141.7110168599646
 20
-104.9034854184031
 30
0.0
 10
141.7110168599685
 20
-104.9919497735202
 30
0.0
 10
141.6319164421922
 20
-104.9919497735237
 30
0.0
 10
141.567019032375
 20
-104.9919497735266
 30
0.0
 10
141.5021216225585
 20
-104.9919497735295
 30
0.0
 10
136.7024021490442
 20
-104.9919497737451
 30
0.0
 10
131.9026824212168
 20
-104.9914981138063
 30
0.0
 10
127.1029652365214
 20
-104.9944603535931
 30
0.0
 10
126.9770029160582
 20
-104.9945376647965
 30
0.0
 10
126.8962076282914
 20
-104.9450869814029
 30
0.0
 10
126.7986663282201
 20
-104.8715070663353
 30
0.0
 10
126.4994831832404
 20
-104.6458194044855
 30
0.0
 10
126.4286264533662
 20
-104.3628197311346
 30
0.0
 10
126.4353840623726
 20
-103.9956200255627
 30
0.0
 10
126.4586852503739
 20
-102.7294579212201
 30
0.0
 10
126.4443501266762
 20
-101.4626000161007
 30
0.0
 10
126.4443501266194
 20
-100.1960065966566
 30
0.0
 10
126.4443501266165
 20
-100.1355899302301
 30
0.0
 10
126.444350126614
 20
-100.075177332814
 30
0.0
 10
126.4443501266107
 20
-100.0033837133077
 30
0.0
 10
124.9553222191186
 20
-100.0033837133744
 30
0.0
 10
123.475891072656
 20
-100.0033837134409
 30
0.0
 10
121.9776834777004
 20
-100.0033837135079
 30
0.0
 10
121.9776834777033
 20
-100.0702009332944
 30
0.0
 10
121.9776834777062
 20
-100.1349958549118
 30
0.0
 10
121.977683477709
 20
-100.1997948455396
 30
0.0
 10
121.9776834777713
 20
-101.5830467931658
 30
0.0
 10
121.9762491516673
 20
-102.9663028098027
 30
0.0
 10
121.9803120586142
 20
-104.3495425503973
 30
0.0
 10
121.9806477519773
 20
-104.464439197076
 30
0.0
 10
121.9351318016407
 20
-104.5370181355915
 30
0.0
 10
121.8690103826368
 20
-104.625352282379
 30
0.0
 10
121.6378763503663
 20
-104.9341209986097
 30
0.0
 10
121.3442708014062
 20
-105.0020002301239
 30
0.0
 10
120.965279103694
 20
-105.0008893903015
 30
0.0
 10
116.293369535677
 20
-104.9871808944721
 30
0.0
 10
111.6214070705258
 20
-104.9919497748713
 30
0.0
 10
106.9494568124055
 20
-104.9919497750808
 30
0.0
 10
106.8778300223256
 20
-104.991949775084
 30
0.0
 10
106.8062032322458
 20
-104.9919497750876
 30
0.0
 10
106.7110168719471
 20
-104.9919497750917
 30
0.0
 10
106.7110168719442
 20
-104.9247988964524
 30
0.0
 10
106.7110168719413
 20
-104.8662254917374
 30
0.0
 10
106.7110168719388
 20
-104.8076561560327
 30
0.0
 10
106.7110168716108
 20
-97.50247633481248
 30
0.0
 10
106.7112488048758
 20
-90.19729651359228
 30
0.0
 10
106.7087789152347
 20
-82.8921146578672
 30
0.0
 10
106.708742294136
 20
-82.78363280608458
 30
0.0
 10
106.7528300218224
 20
-82.71493366898629
 30
0.0
 10
106.8146098067293
 20
-82.63110798572224
 30
0.0
 10
107.0432352940879
 20
-82.32091104684092
 30
0.0
 10
107.3354472069852
 20
-82.24218993711499
 30
0.0
 10
107.7158020231818
 20
-82.24946125868367
 30
0.0
 10
108.9819315754412
 20
-82.273663732489
 30
0.0
 10
110.2488138946231
 20
-82.25861653197119
 30
0.0
 10
111.5154073140672
 20
-82.25861653191407
 30
0.0
 10
111.5750529030228
 20
-82.25861653191151
 30
0.0
 10
111.6346984919784
 20
-82.25861653190894
 30
0.0
 10
111.7070414278887
 20
-82.25861653190573
 30
0.0
  0
SPLINE
  5
4B
330
1F
100
AcDbEntity
  8
_U_30EC_U_30A4_U_30E4_U_30
 62
    29
100
AcDbSpline
210
0.0
220
0.0
230
1.0
 70
    11
 71
     3
 72
   161
 73
   157
 74
     0
 42
0.0000000001
 43
0.0000000001
 12
1.0
 22
0.0
 32
0.0
 13
1.0
 23
0.0
 33
0.0
 40
0.0
 40
0.0
 40
0.0
 40
0.0
 40
1.0
 40
1.0
 40
1.0
 40
2.0
 40
2.0
 40
2.0
 40
3.0
 40
3.0
 40
3.0
 40
4.0
 40
4.0
 40
4.0
 40
5.0
 40
5.0
 40
5.0
 40
6.0
 40
6.0
 40
6.0
 40
7.0
 40
7.0
 40
7.0
 40
8.0
 40
8.0
 40
8.0
 40
9.0
 40
9.0
 40
9.0
 40
10.0
 40
10.0
 40
10.0
 40
11.0
 40
11.0
 40
11.0
 40
12.0
 40
12.0
 40
12.0
 40
13.0
 40
13.0
 40
13.0
 40
14.0
 40
14.0
 40
14.0
 40
15.0
 40
15.0
 40
15.0
 40
16.0
 40
16.0
 40
16.0
 40
17.0
 40
17.0
 40
17.0
 40
18.0
 40
18.0
 40
18.0
 40
19.0
 40
19.0
 40
19.0
 40
20.0
 40
20.0
 40
20.0
 40
21.0
 40
21.0
 40
21.0
 40
22.0
 40
22.0
 40
22.0
 40
23.0
 40
23.0
 40
23.0
 40
24.0
 40
24.0
 40
24.0
 40
25.0
 40
25.0
 40
25.0
 40
26.0
 40
26.0
 40
26.0
 40
27.0
 40
27.0
 40
27.0
 40
28.0
 40
28.0
 40
28.0
 40
29.0
 40
29.0
 40
29.0
 40
30.0
 40
30.0
 40
30.0
 40
31.0
 40
31.0
 40
31.0
 40
32.0
 40
32.0
 40
32.0
 40
33.0
 40
33.0
 40
33.0
 40
34.0
 40
34.0
 40
34.0
 40
35.0
 40
35.0
 40
35.0
 40
36.0
 40
36.0
 40
36.0
 40
37.0
 40
37.0
 40
37.0
 40
38.0
 40
38.0
 40
38.0
 40
39.0
 40
39.0
 40
39.0
 40
40.0
 40
40.0
 40
40.0
 40
41.0
 40
41.0
 40
41.0
 40
42.0
 40
42.0
 40
42.0
 40
43.0
 40
43.0
 40
43.0
 40
44.0
 40
44.0
 40
44.0
 40
45.0
 40
45.0
 40
45.0
 40
46.0
 40
46.0
 40
46.0
 40
47.0
 40
47.0
 40
47.0
 40
48.0
 40
48.0
 40
48.0
 40
49.0
 40
49.0
 40
49.0
 40
50.0
 40
50.0
 40
50.0
 40
51.0
 40
51.0
 40
51.0
 40
52.0
 40
52.0
 40
52.0
 40
52.0
 10
148.3959303076057
 20
-82.25861653190573
 30
0.0
 10
148.3959303075377
 20
-80.74850708152833
 30
0.0
 10
148.395930307471
 20
-79.26584107179735
 30
0.0
 10
148.3959303074029
 20
-77.75861654979454
 30
0.0
 10
148.3283074235578
 20
-77.75861654979742
 30
0.0
 10
148.2642957864422
 20
-77.75861654980031
 30
0.0
 10
148.2002841493265
 20
-77.75861654980321
 30
0.0
 10
146.8170322017007
 20
-77.75861654986545
 30
0.0
 10
145.4337761850641
 20
-77.75708456751127
 30
0.0
 10
144.0505364444695
 20
-77.76130209685394
 30
0.0
 10
143.9298780790637
 20
-77.76167034230096
 30
0.0
 10
143.8535068228546
 20
-77.71421347400259
 30
0.0
 10
143.7603305536906
 20
-77.64428753027497
 30
0.0
 10
143.4559360236404
 20
-77.41584311387886
 30
0.0
 10
143.3911614470621
 20
-77.12578777649314
 30
0.0
 10
143.3917351775119
 20
-76.75444988734432
 30
0.0
 10
143.4027703333962
 20
-69.58821863327944
 30
0.0
 10
143.3999057497525
 20
-62.42196601691077
 30
0.0
 10
143.3999057494306
 20
-55.25571848680493
 30
0.0
 10
143.3999057494274
 20
-55.18482360997112
 30
0.0
 10
143.3999057494242
 20
-55.11392873313666
 30
0.0
 10
143.3999057494204
 20
-55.02528330705708
 30
0.0
 10
143.4790642777515
 20
-55.02528330705355
 30
0.0
 10
143.5439690626498
 20
-55.02528330705066
 30
0.0
 10
143.608873847548
 20
-55.02528330704777
 30
0.0
 10
148.408593066749
 20
-55.02528330683216
 30
0.0
 10
153.2083122859499
 20
-55.02574107028693
 30
0.0
 10
158.0080294706454
 20
-55.022767640721
 30
0.0
 10
158.134030446707
 20
-55.02268982089155
 30
0.0
 10
158.2147758890969
 20
-55.0722475701214
 30
0.0
 10
158.3122958268632
 20
-55.14578298038761
 30
0.0
 10
158.6115532312831
 20
-55.37144114191182
 30
0.0
 10
158.6822848390877
 20
-55.65451609195549
 30
0.0
 10
158.6755343508493
 20
-56.02168299113111
 30
0.0
 10
158.6522494388899
 20
-57.28784738429162
 30
0.0
 10
158.6665723555561
 20
-58.55470325490622
 30
0.0
 10
158.6665723556126
 20
-59.82129616572361
 30
0.0
 10
158.6665723556158
 20
-59.88175911714332
 30
0.0
 10
158.6665723556184
 20
-59.94222155993698
 30
0.0
 10
158.6665723556216
 20
-60.01387174682647
 30
0.0
 10
160.1556511257437
 20
-60.01387174675973
 30
0.0
 10
161.6350822722063
 20
-60.01387174669332
 30
0.0
 10
163.1332390045319
 20
-60.01387174662626
 30
0.0
 10
163.1332390045294
 20
-59.94697365525849
 30
0.0
 10
163.1332390045262
 20
-59.88216906974144
 30
0.0
 10
163.1332390045229
 20
-59.81736448422441
 30
0.0
 10
163.1332390044614
 20
-58.43411202797153
 30
0.0
 10
163.1346763823232
 20
-57.05085550270858
 30
0.0
 10
163.1306063546077
 20
-55.66761449054814
 30
0.0
 10
163.1302686267394
 20
-55.55268732629114
 30
0.0
 10
163.1758649400313
 20
-55.48014373730411
 30
0.0
 10
163.241971100246
 20
-55.39182866400285
 30
0.0
 10
163.473101063506
 20
-55.0830444346696
 30
0.0
 10
163.76673916455
 20
-55.0152333590795
 30
0.0
 10
164.1457166207255
 20
-55.01634521615459
 30
0.0
 10
168.81762517149
 20
-55.03005244041822
 30
0.0
 10
173.4895891625201
 20
-55.02528330570598
 30
0.0
 10
178.1615382762315
 20
-55.02528330549647
 30
0.0
 10
178.2331584541693
 20
-55.02528330549325
 30
0.0
 10
178.3047786321072
 20
-55.02528330549005
 30
0.0
 10
178.3999048473461
 20
-55.02528330548556
 30
0.0
 10
178.3999048473487
 20
-55.09249521928087
 30
0.0
 10
178.3999048473513
 20
-55.1510737102591
 30
0.0
 10
178.3999048473538
 20
-55.20965245555036
 30
0.0
 10
178.3999049748389
 20
-62.51478115982721
 30
0.0
 10
178.3996729144175
 20
-69.81991011841708
 30
0.0
 10
178.4021379721083
 20
-77.12503907700761
 30
0.0
 10
178.4021745932071
 20
-77.23348837670703
 30
0.0
 10
178.3581781639416
 20
-77.30222616940381
 30
0.0
 10
178.2963707860582
 20
-77.38606812870945
 30
0.0
 10
178.0677314386328
 20
-77.69621217045491
 30
0.0
 10
177.7755894618517
 20
-77.77505738499903
 30
0.0
 10
177.3951982788748
 20
-77.76777995991444
 30
0.0
 10
176.1290687266151
 20
-77.7435612100675
 30
0.0
 10
174.862187933312
 20
-77.75861654860611
 30
0.0
 10
173.5955955311207
 20
-77.75861654866323
 30
0.0
 10
173.53594231277
 20
-77.75861654866578
 30
0.0
 10
173.4762885857939
 20
-77.75861654866836
 30
0.0
 10
173.4083834143517
 20
-77.75861654867157
 30
0.0
 10
173.4083834144191
 20
-79.26075684217929
 30
0.0
 10
173.4083834144858
 20
-80.74736979199874
 30
0.0
 10
173.4083834145538
 20
-82.25861653078276
 30
0.0
 10
173.471444429114
 20
-82.25861653077988
 30
0.0
 10
173.5354494540876
 20
-82.25861653077699
 30
0.0
 10
173.5994539704352
 20
-82.25861653077409
 30
0.0
 10
174.9827064266875
 20
-82.25861653071185
 30
0.0
 10
176.3659634605768
 20
-82.26014240955011
 30
0.0
 10
177.7492032011711
 20
-82.25593505273376
 30
0.0
 10
177.8698231652915
 20
-82.25556884179225
 30
0.0
 10
177.9462516419595
 20
-82.30291991581957
 30
0.0
 10
178.0394370663964
 20
-82.37288451514696
 30
0.0
 10
178.3437378820509
 20
-82.60136148362562
 30
0.0
 10
178.4086599602564
 20
-82.89132933728742
 30
0.0
 10
178.4080872470593
 20
-83.26270995104576
 30
0.0
 10
178.3970391212044
 20
-90.42894120511065
 30
0.0
 10
178.3999058665092
 20
-97.59519280422656
 30
0.0
 10
178.3999058668313
 20
-104.7614403343324
 30
0.0
 10
178.3999058668346
 20
-104.832464910873
 30
0.0
 10
178.3999057396813
 20
-104.9034854184031
 30
0.0
 10
178.3999057396851
 20
-104.9919497735202
 30
0.0
 10
178.3208053219088
 20
-104.9919497735237
 30
0.0
 10
178.2559079120917
 20
-104.9919497735266
 30
0.0
 10
178.1910105022752
 20
-104.9919497735295
 30
0.0
 10
173.3912910287611
 20
-104.9919497737451
 30
0.0
 10
168.5915713009335
 20
-104.9914981138063
 30
0.0
 10
163.791854116238
 20
-104.9944603535931
 30
0.0
 10
163.6658917957749
 20
-104.9945376647965
 30
0.0
 10
163.5850965080081
 20
-104.9450869814029
 30
0.0
 10
163.4875552079364
 20
-104.8715070663353
 30
0.0
 10
163.1883720629571
 20
-104.6458194044855
 30
0.0
 10
163.1175153330829
 20
-104.3628197311346
 30
0.0
 10
163.1242729420893
 20
-103.9956200255627
 30
0.0
 10
163.1475741300909
 20
-102.7294579212201
 30
0.0
 10
163.1332390063929
 20
-101.4626000161007
 30
0.0
 10
163.1332390063364
 20
-100.1960065966566
 30
0.0
 10
163.1332390063332
 20
-100.1355899302301
 30
0.0
 10
163.1332390063306
 20
-100.075177332814
 30
0.0
 10
163.1332390063274
 20
-100.0033837133077
 30
0.0
 10
161.6442110988356
 20
-100.0033837133744
 30
0.0
 10
160.1647799523724
 20
-100.0033837134409
 30
0.0
 10
158.666572357417
 20
-100.0033837135079
 30
0.0
 10
158.6665723574196
 20
-100.0702009332944
 30
0.0
 10
158.6665723574228
 20
-100.1349958549118
 30
0.0
 10
158.666572357426
 20
-100.1997948455396
 30
0.0
 10
158.6665723574876
 20
-101.5830467931658
 30
0.0
 10
158.665138031384
 20
-102.9663028098027
 30
0.0
 10
158.6692009383308
 20
-104.3495425503973
 30
0.0
 10
158.6695366316943
 20
-104.464439197076
 30
0.0
 10
158.624020681357
 20
-104.5370181355915
 30
0.0
 10
158.5578992623535
 20
-104.625352282379
 30
0.0
 10
158.326765230083
 20
-104.9341209986097
 30
0.0
 10
158.0331596811229
 20
-105.0020002301239
 30
0.0
 10
157.6541679834107
 20
-105.0008893903015
 30
0.0
 10
152.982258415394
 20
-104.9871808944721
 30
0.0
 10
148.3102959502428
 20
-104.9919497748713
 30
0.0
 10
143.6383456921221
 20
-104.9919497750808
 30
0.0
 10
143.5667189020423
 20
-104.991949775084
 30
0.0
 10
143.4950921119624
 20
-104.9919497750876
 30
0.0
 10
143.3999057516638
 20
-104.9919497750917
 30
0.0
 10
143.3999057516609
 20
-104.9247988964524
 30
0.0
 10
143.399905751658
 20
-104.8662254917374
 30
0.0
 10
143.3999057516554
 20
-104.8076561560327
 30
0.0
 10
143.3999057513275
 20
-97.50247633481248
 30
0.0
 10
143.4001376845924
 20
-90.19729651359228
 30
0.0
 10
143.3976677949514
 20
-82.8921146578672
 30
0.0
 10
143.3976311738527
 20
-82.78363280608458
 30
0.0
 10
143.4417189015391
 20
-82.71493366898629
 30
0.0
 10
143.5034986864459
 20
-82.63110798572224
 30
0.0
 10
143.7321241738045
 20
-82.32091104684092
 30
0.0
 10
144.0243360867019
 20
-82.24218993711499
 30
0.0
 10
144.4046909028985
 20
-82.24946125868367
 30
0.0
 10
145.6708204551579
 20
-82.273663732489
 30
0.0
 10
146.9377027743398
 20
-82.25861653197119
 30
0.0
 10
148.2042961937842
 20
-82.25861653191407
 30
0.0
 10
148.2639417827395
 20
-82.25861653191151
 30
0.0
 10
148.3235873716947
 20
-82.25861653190894
 30
0.0
 10
148.3959303076057
 20
-82.25861653190573
 30
0.0
  0
ENDSEC
  0
SECTION
  2
OBJECTS
  0
DICTIONARY
  5
C
330
0
100
AcDbDictionary
  3
ACAD_GROUP
350
D
  3
ACAD_LAYOUT
350
1A
  3
ACAD_MATERIAL
350
3B
  3
ACAD_MLEADERSTYLE
350
4E
  3
ACAD_MLINESTYLE
350
17
  3
ACAD_PLOTSETTINGS
350
19
  3
ACAD_VISUALSTYLE
350
2A
  3
ACDBVARIABLEDICTIONARY
350
4C
1001
ACAD
1000
TREAT_AS_HARD
1070
     0
  0
DICTIONARY
  5
D
102
{ACAD_REACTORS
330
C
102
}
330
C
100
AcDbDictionary
1001
ACAD
1000
TREAT_AS_HARD
1070
     0
  0
DICTIONARY
  5
1A
102
{ACAD_REACTORS
330
C
102
}
330
C
100
AcDbDictionary
1001
ACAD
1000
TREAT_AS_HARD
1070
     0
  0
DICTIONARY
  5
3B
102
{ACAD_REACTORS
330
C
102
}
330
C
100
AcDbDictionary
  3
BYBLOCK
350
3D
  3
BYLAYER
350
3C
  3
GLOBAL
350
3E
1001
ACAD
1000
TREAT_AS_HARD
1070
     0
  0
DICTIONARY
  5
4E
102
{ACAD_REACTORS
330
C
102
}
330
C
100
AcDbDictionary
1001
ACAD
1000
TREAT_AS_HARD
1070
     0
  0
DICTIONARY
  5
17
102
{ACAD_REACTORS
330
C
102
}
330
C
100
AcDbDictionary
  3
STANDARD
350
18
1001
ACAD
1000
TREAT_AS_HARD
1070
     0
  0
DICTIONARY
  5
19
102
{ACAD_REACTORS
330
C
102
}
330
C
100
AcDbDictionary
1001
ACAD
1000
TREAT_AS_HARD
1070
     0
  0
DICTIONARY
  5
2A
102
{ACAD_REACTORS
330
C
102
}
330
C
100
AcDbDictionary
  3
2DWIREFRAME
350
2F
  3
3DWIREFRAME
350
30
  3
3D_HIDDEN
350
31
  3
BASIC
350
32
  3
BRIGHTEN
350
36
  3
COLORCHANGE
350
3A
  3
CONCEPTUAL
350
34
  3
DIM
350
35
  3
FACEPATTERN
350
39
  3
FLAT
350
2B
  3
FLATWITHEDGES
350
2C
  3
GOURAUD
350
2D
  3
GOURAUDWITHEDGES
350
2E
  3
LINEPATTERN
350
38
  3
REALISTIC
350
33
  3
THICKEN
350
37
1001
ACAD
1000
TREAT_AS_HARD
1070
     0
  0
DICTIONARY
  5
4C
102
{ACAD_REACTORS
330
C
102
}
330
C
100
AcDbDictionary
  3
DIMASSOC
350
4F
  3
HIDETEXT
350
50
1001
ACAD
1000
TREAT_AS_HARD
1070
     0
  0
MATERIAL
  5
3D
102
{ACAD_REACTORS
330
3B
102
}
102
{ACAD_XDICTIONARY
360
53
102
}
330
3B
100
AcDbMaterial
  1
ByBlock
  0
MATERIAL
  5
3C
102
{ACAD_REACTORS
330
3B
102
}
102
{ACAD_XDICTIONARY
360
51
102
}
330
3B
100
AcDbMaterial
  1
ByLayer
  0
MATERIAL
  5
3E
102
{ACAD_REACTORS
330
3B
102
}
102
{ACAD_XDICTIONARY
360
55
102
}
330
3B
100
AcDbMaterial
  1
Global
  0
MLINESTYLE
  5
18
102
{ACAD_REACTORS
330
17
102
}
330
17
100
AcDbMlineStyle
  2
Standard
 70
     0
  3

 62
   256
 51
90.0
 52
90.0
 71
     2
 49
0.5
 62
   256
  6
BYLAYER
 49
-0.5
 62
   256
  6
BYLAYER
  0
ACAD_PROXY_OBJECT
  5
2F
102
{ACAD_REACTORS
330
2A
102
}
330
2A
100
AcDbZombieObject
 90
      499
 91
      501
 93
      436
310
42CC9915DA5C99599C985B595049028333333333333E3BF0000000000000FB0107901411070040501600405405064090741402480A0340
1001
ACAD
1000
AcDbSavedByObjectVersion
1070
     0
  0
ACAD_PROXY_OBJECT
  5
30
102
{ACAD_REACTORS
330
2A
102
}
330
2A
100
AcDbZombieObject
 90
      499
 91
      501
 93
      436
310
42CCD915DA5C99599C985B595059028333333333333E3BF0000000000000FB0107901411070040501600405405064090741402480A0340
1001
ACAD
1000
AcDbSavedByObjectVersion
1070
     0
  0
ACAD_PROXY_OBJECT
  5
31
102
{ACAD_REACTORS
330
2A
102
}
330
2A
100
AcDbZombieObject
 90
      499
 91
      501
 93
      500
310
424CD108121A5919195B90640502408333333333333E3BF0000000000000FB01079024090700405020000000000001110200405405064090740C02480A0340
1001
ACAD
1000
AcDbSavedByObjectVersion
1070
     0
  0
ACAD_PROXY_OBJECT
  5
32
102
{ACAD_REACTORS
330
2A
102
}
330
2A
100
AcDbZombieObject
 90
      499
 91
      501
 93
      388
310
4150985CDA58D07406404333333333333E3BF0000000000000FB0107A41107004050150841D405064090741402480A0350
1001
ACAD
1000
AcDbSavedByObjectVersion
1070
     0
  0
ACAD_PROXY_OBJECT
  5
36
102
{ACAD_REACTORS
330
2A
102
}
330
2A
100
AcDbZombieObject
 90
      499
 91
      501
 93
      428
310
42109C9A59DA1D195B90C409028333333333333E3BF0000000000000FB010790141107004050150841D405064090741402480A029950
1001
ACAD
1000
AcDbSavedByObjectVersion
1070
     0
  0
ACAD_PROXY_OBJECT
  5
3A
102
{ACAD_REACTORS
330
2A
102
}
330
2A
100
AcDbZombieObject
 90
      499
 91
      501
 93
      452
310
42D0DBDB1BDC90DA185B99D95104090240C333333333333E3BF0000000000000FB0108901411070040501508421405064090741402480A0350
1001
ACAD
1000
AcDbSavedByObjectVersion
1070
     0
  0
ACAD_PROXY_OBJECT
  5
34
102
{ACAD_REACTORS
330
2A
102
}
330
2A
100
AcDbZombieObject
 90
      499
 91
      501
 93
      500
310
4290DBDB98D95C1D1D585B10940D028333333333333E3BF0000000000000FB0107902409070040501000000000000111010841D405064090740C02480A0340
1001
ACAD
1000
AcDbSavedByObjectVersion
1070
     0
  0
ACAD_PROXY_OBJECT
  5
35
102
{ACAD_REACTORS
330
2A
102
}
330
2A
100
AcDbZombieObject
 90
      499
 91
      501
 93
      412
310
40D11A5B50B409028333333333333E3BF0000000000000FB010790141107004050150841D405064090741402480A02677FFFFFD0
1001
ACAD
1000
AcDbSavedByObjectVersion
1070
     0
  0
ACAD_PROXY_OBJECT
  5
39
102
{ACAD_REACTORS
330
2A
102
}
330
2A
100
AcDbZombieObject
 90
      499
 91
      501
 93
      444
310
42D19858D95C185D1D195C9B90F409028333333333333E3BF0000000000000FB010790141107004050150841D405064090741402480A0350
1001
ACAD
1000
AcDbSavedByObjectVersion
1070
     0
  0
ACAD_PROXY_OBJECT
  5
2B
102
{ACAD_REACTORS
330
2A
102
}
330
2A
100
AcDbZombieObject
 90
      499
 91
      501
 93
      388
310
41119B185D240901404333333333333E3BF0000000000000F9010740A41107004050150841D405064090741402480A1B50
1001
ACAD
1000
AcDbSavedByObjectVersion
1070
     0
  0
ACAD_PROXY_OBJECT
  5
2C
102
{ACAD_REACTORS
330
2A
102
}
330
2A
100
AcDbZombieObject
 90
      499
 91
      501
 93
      476
310
43519B185D15DA5D1A115919D95CD0140901404333333333333E3BF0000000000000F9010740901411070040501600405405064090741402480A1B50
1001
ACAD
1000
AcDbSavedByObjectVersion
1070
     0
  0
ACAD_PROXY_OBJECT
  5
2D
102
{ACAD_REACTORS
330
2A
102
}
330
2A
100
AcDbZombieObject
 90
      499
 91
      501
 93
      412
310
41D1DBDD5C985D5910240902404333333333333E3BF0000000000000F9010740A411070040501641D405064090741402480A1B50
1001
ACAD
1000
AcDbSavedByObjectVersion
1070
     0
  0
ACAD_PROXY_OBJECT
  5
2E
102
{ACAD_REACTORS
330
2A
102
}
330
2A
100
AcDbZombieObject
 90
      499
 91
      501
 93
      500
310
4411DBDD5C985D5915DA5D1A115919D95CD0340902404333333333333E3BF0000000000000F9010740901411070040501600405405064090741402480A1B50
1001
ACAD
1000
AcDbSavedByObjectVersion
1070
     0
  0
ACAD_PROXY_OBJECT
  5
38
102
{ACAD_REACTORS
330
2A
102
}
330
2A
100
AcDbZombieObject
 90
      499
 91
      501
 93
      444
310
42D31A5B995C185D1D195C9B90E409028333333333333E3BF0000000000000FB010790141107004050750841D405064090741402483A0350
1001
ACAD
1000
AcDbSavedByObjectVersion
1070
     0
  0
ACAD_PROXY_OBJECT
  5
33
102
{ACAD_REACTORS
330
2A
102
}
330
2A
100
AcDbZombieObject
 90
      499
 91
      501
 93
      420
310
425499585B1A5CDD1A58D08409028333333333333E3BF0000000000000FB01079019070040501508421405064090741402480A1B40
1001
ACAD
1000
AcDbSavedByObjectVersion
1070
     0
  0
ACAD_PROXY_OBJECT
  5
37
102
{ACAD_REACTORS
330
2A
102
}
330
2A
100
AcDbZombieObject
 90
      499
 91
      501
 93
      412
310
41D51A1A58DAD95B90D409028333333333333E3BF0000000000000FB010790141107004050150C41D405064090741402480A0350
1001
ACAD
1000
AcDbSavedByObjectVersion
1070
     0
  0
DICTIONARYVAR
  5
4F
102
{ACAD_REACTORS
330
4C
102
}
330
4C
100
DictionaryVariables
280
     0
  1
2
  0
DICTIONARYVAR
  5
50
102
{ACAD_REACTORS
330
4C
102
}
330
4C
100
DictionaryVariables
280
     0
  1
1
  0
DICTIONARY
  5
53
330
3D
100
AcDbDictionary
  3
ACAD_XREC_ROUNDTRIP
360
54
1001
ACAD
1000
TREAT_AS_HARD
1070
     1
  0
DICTIONARY
  5
51
330
3C
100
AcDbDictionary
  3
ACAD_XREC_ROUNDTRIP
360
52
1001
ACAD
1000
TREAT_AS_HARD
1070
     1
  0
DICTIONARY
  5
55
330
3E
100
AcDbDictionary
  3
ACAD_XREC_ROUNDTRIP
360
56
1001
ACAD
1000
TREAT_AS_HARD
1070
     1
  0
XRECORD
  5
54
102
{ACAD_REACTORS
330
53
102
}
330
53
100
AcDbXrecord
102
MATERIAL
148
0.0
149
0.0
149
0.0
 93
        0
 94
      127
282
     0
 72
     1
 77
     1
171
     1
175
     1
179
     1
273
     0
  0
XRECORD
  5
52
102
{ACAD_REACTORS
330
51
102
}
330
51
100
AcDbXrecord
102
MATERIAL
148
0.0
149
0.0
149
0.0
 93
        0
 94
      127
282
     0
 72
     1
 77
     1
171
     1
175
     1
179
     1
273
     0
  0
XRECORD
  5
56
102
{ACAD_REACTORS
330
55
102
}
330
55
100
AcDbXrecord
102
MATERIAL
148
0.0
149
0.0
149
0.0
 93
        0
 94
      127
282
     0
 72
     1
 77
     1
171
     1
175
     1
179
     1
273
     0
  0
ENDSEC
  0
EOF
