  0
SECTION
  2
HEADER
  9
$ACADVER
  1
AC1009
  9
$DWGCODEPAGE
  3
ansi_1252
  9
$INSBASE
 10
0.0
 20
0.0
 30
0.0
  9
$EXTMIN
 10
38.47431689334354
 20
13.99999999999999
 30
0.0
  9
$EXTMAX
 10
472.58
 20
455.22
 30
0.0
  9
$LIMMIN
 10
0.0
 20
0.0
  9
$LIMMAX
 10
12.0
 20
9.0
  9
$ORTHOMODE
 70
     0
  9
$REGENMODE
 70
     1
  9
$FILLMODE
 70
     1
  9
$QTEXTMODE
 70
     0
  9
$MIRRTEXT
 70
     1
  9
$DRAGMODE
 70
     2
  9
$LTSCALE
 40
1.0
  9
$OSMODE
 70
    37
  9
$ATTMODE
 70
     1
  9
$TEXTSIZE
 40
0.2
  9
$TRACEWID
 40
0.05
  9
$TEXTSTYLE
  7
STANDARD
  9
$CLAYER
  8
PREDEFINITO
  9
$CELTYPE
  6
BYLAYER
  9
$CECOLOR
 62
   256
  9
$DIMSCALE
 40
1.0
  9
$DIMASZ
 40
0.18
  9
$DIMEXO
 40
0.0625
  9
$DIMDLI
 40
0.38
  9
$DIMRND
 40
0.0
  9
$DIMDLE
 40
0.0
  9
$DIMEXE
 40
0.18
  9
$DIMTP
 40
0.0
  9
$DIMTM
 40
0.0
  9
$DIMTXT
 40
0.18
  9
$DIMCEN
 40
0.09
  9
$DIMTSZ
 40
0.0
  9
$DIMTOL
 70
     0
  9
$DIMLIM
 70
     0
  9
$DIMTIH
 70
     1
  9
$DIMTOH
 70
     1
  9
$DIMSE1
 70
     0
  9
$DIMSE2
 70
     0
  9
$DIMTAD
 70
     0
  9
$DIMZIN
 70
     0
  9
$DIMBLK
  1

  9
$DIMASO
 70
     1
  9
$DIMSHO
 70
     1
  9
$DIMPOST
  1

  9
$DIMAPOST
  1

  9
$DIMALT
 70
     0
  9
$DIMALTD
 70
     2
  9
$DIMALTF
 40
25.4
  9
$DIMLFAC
 40
1.0
  9
$DIMTOFL
 70
     0
  9
$DIMTVP
 40
0.0
  9
$DIMTIX
 70
     0
  9
$DIMSOXD
 70
     0
  9
$DIMSAH
 70
     0
  9
$DIMBLK1
  1

  9
$DIMBLK2
  1

  9
$DIMSTYLE
  2
STANDARD
  9
$DIMCLRD
 70
     0
  9
$DIMCLRE
 70
     0
  9
$DIMCLRT
 70
     0
  9
$DIMTFAC
 40
1.0
  9
$DIMGAP
 40
0.09
  9
$LUNITS
 70
     2
  9
$LUPREC
 70
     2
  9
$SKETCHINC
 40
0.1
  9
$FILLETRAD
 40
0.5
  9
$AUNITS
 70
     0
  9
$AUPREC
 70
     0
  9
$MENU
  1
.
  9
$ELEVATION
 40
0.0
  9
$PELEVATION
 40
0.0
  9
$THICKNESS
 40
0.0
  9
$LIMCHECK
 70
     0
  9
$CHAMFERA
 40
0.0
  9
$CHAMFERB
 40
0.0
  9
$SKPOLY
 70
     0
  9
$TDCREATE
 40
2457435.665149757
  9
$TDUPDATE
 40
2457435.665166216
  9
$TDINDWG
 40
0.0000000116
  9
$TDUSRTIMER
 40
0.0000000116
  9
$USRTIMER
 70
     1
  9
$ANGBASE
 50
0.0
  9
$ANGDIR
 70
     0
  9
$PDMODE
 70
     0
  9
$PDSIZE
 40
0.0
  9
$PLINEWID
 40
0.0
  9
$COORDS
 70
     1
  9
$SPLFRAME
 70
     0
  9
$SPLINETYPE
 70
     6
  9
$SPLINESEGS
 70
     8
  9
$ATTDIA
 70
     0
  9
$ATTREQ
 70
     1
  9
$HANDLING
 70
     1
  9
$HANDSEED
  5
18C
  9
$SURFTAB1
 70
     6
  9
$SURFTAB2
 70
     6
  9
$SURFTYPE
 70
     6
  9
$SURFU
 70
     6
  9
$SURFV
 70
     6
  9
$UCSNAME
  2

  9
$UCSORG
 10
0.0
 20
0.0
 30
0.0
  9
$UCSXDIR
 10
1.0
 20
0.0
 30
0.0
  9
$UCSYDIR
 10
0.0
 20
1.0
 30
0.0
  9
$PUCSNAME
  2

  9
$PUCSORG
 10
0.0
 20
0.0
 30
0.0
  9
$PUCSXDIR
 10
1.0
 20
0.0
 30
0.0
  9
$PUCSYDIR
 10
0.0
 20
1.0
 30
0.0
  9
$USERI1
 70
     0
  9
$USERI2
 70
     0
  9
$USERI3
 70
     0
  9
$USERI4
 70
     0
  9
$USERI5
 70
     0
  9
$USERR1
 40
0.0
  9
$USERR2
 40
0.0
  9
$USERR3
 40
0.0
  9
$USERR4
 40
0.0
  9
$USERR5
 40
0.0
  9
$WORLDVIEW
 70
     1
  9
$SHADEDGE
 70
     3
  9
$SHADEDIF
 70
    70
  9
$TILEMODE
 70
     1
  9
$MAXACTVP
 70
    64
  9
$PLIMCHECK
 70
     0
  9
$PEXTMIN
 10
1.000000000000000E+20
 20
1.000000000000000E+20
 30
1.000000000000000E+20
  9
$PEXTMAX
 10
-1.000000000000000E+20
 20
-1.000000000000000E+20
 30
-1.000000000000000E+20
  9
$PLIMMIN
 10
0.0
 20
0.0
  9
$PLIMMAX
 10
12.0
 20
9.0
  9
$UNITMODE
 70
     0
  9
$VISRETAIN
 70
     1
  9
$PLINEGEN
 70
     0
  9
$PSLTSCALE
 70
     1
  0
ENDSEC
  0
SECTION
  2
TABLES
  0
TABLE
  2
VPORT
 70
     1
  0
VPORT
  2
*ACTIVE
 70
     0
 10
0.0
 20
0.0
 11
1.0
 21
1.0
 12
255.5271584466718
 22
234.61
 13
0.0
 23
0.0
 14
0.5
 24
0.5
 15
0.5
 25
0.5
 16
0.0
 26
0.0
 36
1.0
 17
0.0
 27
0.0
 37
0.0
 40
450.0444000000001
 41
0.9838758059622329
 42
50.0
 43
0.0
 44
0.0
 50
0.0
 51
0.0
 71
     0
 72
   100
 73
     1
 74
     3
 75
     0
 76
     0
 77
     0
 78
     0
  0
ENDTAB
  0
TABLE
  2
LTYPE
 70
     1
  0
LTYPE
  2
CONTINUOUS
 70
     0
  3
Solid line
 72
    65
 73
     0
 40
0.0
  0
ENDTAB
  0
TABLE
  2
LAYER
 70
     5
  0
LAYER
  2
0
 70
     0
 62
     7
  6
CONTINUOUS
  0
LAYER
  2
INTERNAL_CUT
 70
     0
 62
     5
  6
CONTINUOUS
  0
LAYER
  2
EXTERNAL_CUT
 70
     0
 62
     7
  6
CONTINUOUS
  0
LAYER
  2
BEND
 70
     0
 62
    12
  6
CONTINUOUS
  0
LAYER
  2
PREDEFINITO
 70
     0
 62
     7
  6
CONTINUOUS
  0
ENDTAB
  0
TABLE
  2
STYLE
 70
     1
  0
STYLE
  2
STANDARD
 70
     0
 40
0.0
 41
1.0
 50
0.0
 71
     0
 42
0.2
  3
txt
  4

  0
ENDTAB
  0
TABLE
  2
VIEW
 70
     0
  0
ENDTAB
  0
TABLE
  2
UCS
 70
     0
  0
ENDTAB
  0
TABLE
  2
APPID
 70
     1
  0
APPID
  2
ACAD
 70
     0
  0
ENDTAB
  0
TABLE
  2
DIMSTYLE
 70
     1
  0
DIMSTYLE
  2
STANDARD
 70
     0
  3

  4

  5

  6

  7

 40
1.0
 41
0.18
 42
0.0625
 43
0.38
 44
0.18
 45
0.0
 46
0.0
 47
0.0
 48
0.0
140
0.18
141
0.09
142
0.0
143
25.4
144
1.0
145
0.0
146
1.0
147
0.09
 71
     0
 72
     0
 73
     1
 74
     1
 75
     0
 76
     0
 77
     0
 78
     0
170
     0
171
     2
172
     0
173
     0
174
     0
175
     0
176
     0
177
     0
178
     0
  0
ENDTAB
  0
ENDSEC
  0
SECTION
  2
BLOCKS
  0
BLOCK
  8
0
  2
$MODEL_SPACE
 70
     0
 10
0.0
 20
0.0
 30
0.0
  3
$MODEL_SPACE
  1

  0
ENDBLK
  5
21
  8
0
  0
BLOCK
 67
     1
  8
0
  2
$PAPER_SPACE
 70
     0
 10
0.0
 20
0.0
 30
0.0
  3
$PAPER_SPACE
  1

  0
ENDBLK
  5
1D
 67
     1
  8
0
  0
ENDSEC
  0
SECTION
  2
ENTITIES
  0
LINE
  5
6F
  8
INTERNAL_CUT
 10
462.58
 20
360.2395966179176
 30
0.0
 11
462.58
 21
322.6854033820825
 31
0.0
  0
LINE
  5
70
  8
INTERNAL_CUT
 10
462.58
 20
322.6854033820825
 30
0.0
 11
460.08
 21
322.6854033820825
 31
0.0
  0
LINE
  5
71
  8
INTERNAL_CUT
 10
460.08
 20
322.6854033820825
 30
0.0
 11
460.08
 21
360.2395966179176
 31
0.0
  0
LINE
  5
72
  8
INTERNAL_CUT
 10
460.08
 20
360.2395966179176
 30
0.0
 11
462.58
 21
360.2395966179176
 31
0.0
  0
LINE
  5
74
  8
EXTERNAL_CUT
 10
266.575
 20
376.715
 30
0.0
 11
266.575
 21
384.715
 31
0.0
  0
LINE
  5
75
  8
EXTERNAL_CUT
 10
266.575
 20
384.715
 30
0.0
 11
346.725
 21
384.715
 31
0.0
  0
LINE
  5
76
  8
EXTERNAL_CUT
 10
346.725
 20
384.715
 30
0.0
 11
346.725
 21
401.1904033820825
 31
0.0
  0
LINE
  5
77
  8
EXTERNAL_CUT
 10
346.725
 20
401.1904033820825
 30
0.0
 11
349.225
 21
401.1904033820825
 31
0.0
  0
LINE
  5
78
  8
EXTERNAL_CUT
 10
349.225
 20
401.1904033820825
 30
0.0
 11
349.0908582760532
 21
401.1904033820825
 31
0.0
  0
LINE
  5
79
  8
EXTERNAL_CUT
 10
349.0908582760532
 20
401.1904033820825
 30
0.0
 11
349.0908582760532
 21
391.1904033820825
 31
0.0
  0
ARC
  5
7A
  8
EXTERNAL_CUT
 10
302.4269552940501
 20
419.9675
 30
0.0
 40
54.82372781260646
 50
328.3383387928141
 51
31.66166120718591
  0
LINE
  5
7B
  8
EXTERNAL_CUT
 10
349.0908582760532
 20
448.7445966179175
 30
0.0
 11
349.0908582760532
 21
438.7445966179175
 31
0.0
  0
LINE
  5
7C
  8
EXTERNAL_CUT
 10
349.0908582760532
 20
438.7445966179175
 30
0.0
 11
349.225
 21
438.7445966179175
 31
0.0
  0
LINE
  5
7D
  8
EXTERNAL_CUT
 10
349.225
 20
438.7445966179175
 30
0.0
 11
346.725
 21
438.7445966179175
 31
0.0
  0
LINE
  5
7E
  8
EXTERNAL_CUT
 10
346.725
 20
438.7445966179175
 30
0.0
 11
346.725
 21
455.22
 31
0.0
  0
LINE
  5
7F
  8
EXTERNAL_CUT
 10
346.725
 20
455.22
 30
0.0
 11
50.925
 21
455.22
 31
0.0
  0
LINE
  5
81
  8
BEND
 10
266.575
 20
306.21
 30
0.0
 11
266.575
 21
376.715
 31
0.0
  0
LINE
  5
82
  8
EXTERNAL_CUT
 10
131.075
 20
306.21
 30
0.0
 11
131.075
 21
241.56
 31
0.0
  0
LINE
  5
83
  8
EXTERNAL_CUT
 10
131.075
 20
241.56
 30
0.0
 11
131.075
 21
171.055
 31
0.0
  0
LINE
  5
84
  8
EXTERNAL_CUT
 10
131.075
 20
171.055
 30
0.0
 11
131.075
 21
100.55
 31
0.0
  0
LINE
  5
85
  8
EXTERNAL_CUT
 10
131.075
 20
100.55
 30
0.0
 11
50.925
 21
100.55
 31
0.0
  0
LINE
  5
86
  8
EXTERNAL_CUT
 10
50.925
 20
100.55
 30
0.0
 11
50.925
 21
14.0
 31
0.0
  0
LINE
  5
87
  8
EXTERNAL_CUT
 10
50.925
 20
14.0
 30
0.0
 11
131.075
 21
14.0
 31
0.0
  0
ARC
  5
88
  8
EXTERNAL_CUT
 10
198.825
 20
-6.899999999999999
 30
0.0
 40
70.90044076026608
 50
17.14431868089459
 51
162.8556813191054
  0
LINE
  5
89
  8
EXTERNAL_CUT
 10
266.575
 20
14.0
 30
0.0
 11
346.725
 21
14.0
 31
0.0
  0
LINE
  5
8A
  8
EXTERNAL_CUT
 10
346.725
 20
14.0
 30
0.0
 11
346.725
 21
100.55
 31
0.0
  0
LINE
  5
8B
  8
EXTERNAL_CUT
 10
346.725
 20
100.55
 30
0.0
 11
266.575
 21
100.55
 31
0.0
  0
LINE
  5
8C
  8
EXTERNAL_CUT
 10
266.575
 20
100.55
 30
0.0
 11
266.575
 21
171.055
 31
0.0
  0
LINE
  5
8D
  8
EXTERNAL_CUT
 10
266.575
 20
171.055
 30
0.0
 11
266.575
 21
241.56
 31
0.0
  0
LINE
  5
8E
  8
EXTERNAL_CUT
 10
266.575
 20
241.56
 30
0.0
 11
266.575
 21
306.21
 31
0.0
  0
LINE
  5
8F
  8
BEND
 10
131.075
 20
376.715
 30
0.0
 11
131.075
 21
306.21
 31
0.0
  0
LINE
  5
90
  8
EXTERNAL_CUT
 10
50.925
 20
384.715
 30
0.0
 11
131.075
 21
384.715
 31
0.0
  0
LINE
  5
91
  8
EXTERNAL_CUT
 10
131.075
 20
384.715
 30
0.0
 11
131.075
 21
376.715
 31
0.0
  0
LINE
  5
93
  8
PREDEFINITO
 10
60.56999999999999
 20
306.21
 30
0.0
 11
49.0
 21
306.21
 31
0.0
  0
LINE
  5
94
  8
EXTERNAL_CUT
 10
49.0
 20
376.715
 30
0.0
 11
49.0
 21
360.2395966179175
 31
0.0
  0
LINE
  5
95
  8
EXTERNAL_CUT
 10
49.0
 20
360.2395966179175
 30
0.0
 11
46.5
 21
360.2395966179175
 31
0.0
  0
LINE
  5
96
  8
EXTERNAL_CUT
 10
46.5
 20
360.2395966179175
 30
0.0
 11
46.63414172394684
 21
360.2395966179175
 31
0.0
  0
LINE
  5
97
  8
EXTERNAL_CUT
 10
46.63414172394684
 20
360.2395966179175
 30
0.0
 11
46.63414172394684
 21
370.2395966179175
 31
0.0
  0
ARC
  5
98
  8
EXTERNAL_CUT
 10
93.29804470594999
 20
341.4625
 30
0.0
 40
54.82372781260646
 50
148.3383387928141
 51
211.6616612071859
  0
LINE
  5
99
  8
EXTERNAL_CUT
 10
46.63414172394684
 20
312.6854033820825
 30
0.0
 11
46.63414172394684
 21
322.6854033820825
 31
0.0
  0
LINE
  5
9A
  8
EXTERNAL_CUT
 10
46.63414172394684
 20
322.6854033820825
 30
0.0
 11
46.5
 21
322.6854033820825
 31
0.0
  0
LINE
  5
9B
  8
EXTERNAL_CUT
 10
46.5
 20
322.6854033820825
 30
0.0
 11
49.0
 21
322.6854033820825
 31
0.0
  0
LINE
  5
9C
  8
EXTERNAL_CUT
 10
49.0
 20
322.6854033820825
 30
0.0
 11
49.0
 21
306.21
 31
0.0
  0
LINE
  5
9D
  8
PREDEFINITO
 10
60.56999999999999
 20
376.715
 30
0.0
 11
49.0
 21
376.715
 31
0.0
  0
LINE
  5
9E
  8
EXTERNAL_CUT
 10
50.925
 20
455.22
 30
0.0
 11
50.925
 21
438.7445966179175
 31
0.0
  0
LINE
  5
9F
  8
EXTERNAL_CUT
 10
50.925
 20
438.7445966179175
 30
0.0
 11
48.425
 21
438.7445966179175
 31
0.0
  0
LINE
  5
A0
  8
EXTERNAL_CUT
 10
48.425
 20
438.7445966179175
 30
0.0
 11
48.55914172394684
 21
438.7445966179175
 31
0.0
  0
LINE
  5
A1
  8
EXTERNAL_CUT
 10
48.55914172394684
 20
438.7445966179175
 30
0.0
 11
48.55914172394684
 21
448.7445966179175
 31
0.0
  0
ARC
  5
A2
  8
EXTERNAL_CUT
 10
95.22304470594999
 20
419.9675
 30
0.0
 40
54.82372781260646
 50
148.3383387928141
 51
211.6616612071859
  0
LINE
  5
A3
  8
EXTERNAL_CUT
 10
48.55914172394684
 20
391.1904033820825
 30
0.0
 11
48.55914172394684
 21
401.1904033820825
 31
0.0
  0
LINE
  5
A4
  8
EXTERNAL_CUT
 10
48.55914172394684
 20
401.1904033820825
 30
0.0
 11
48.425
 21
401.1904033820825
 31
0.0
  0
LINE
  5
A5
  8
EXTERNAL_CUT
 10
48.425
 20
401.1904033820825
 30
0.0
 11
50.925
 21
401.1904033820825
 31
0.0
  0
LINE
  5
A6
  8
EXTERNAL_CUT
 10
50.925
 20
401.1904033820825
 30
0.0
 11
50.925
 21
384.715
 31
0.0
  0
LINE
  5
A7
  8
PREDEFINITO
 10
472.58
 20
376.715
 30
0.0
 11
472.58
 21
306.21
 31
0.0
  0
LINE
  5
A8
  8
BEND
 10
60.56999999999999
 20
376.715
 30
0.0
 11
60.56999999999999
 21
306.21
 31
0.0
  0
LINE
  5
A9
  8
EXTERNAL_CUT
 10
131.075
 20
306.21
 30
0.0
 11
126.075
 21
306.21
 31
0.0
  0
LINE
  5
AA
  8
EXTERNAL_CUT
 10
126.075
 20
306.21
 30
0.0
 11
65.57
 21
306.21
 31
0.0
  0
LINE
  5
AB
  8
EXTERNAL_CUT
 10
65.57
 20
306.21
 30
0.0
 11
60.56999999999999
 21
306.21
 31
0.0
  0
LINE
  5
AC
  8
EXTERNAL_CUT
 10
131.075
 20
376.715
 30
0.0
 11
126.075
 21
376.715
 31
0.0
  0
LINE
  5
AD
  8
EXTERNAL_CUT
 10
126.075
 20
376.715
 30
0.0
 11
65.57
 21
376.715
 31
0.0
  0
LINE
  5
AE
  8
EXTERNAL_CUT
 10
65.57
 20
376.715
 30
0.0
 11
60.56999999999999
 21
376.715
 31
0.0
  0
LINE
  5
AF
  8
EXTERNAL_CUT
 10
472.58
 20
376.715
 30
0.0
 11
337.08
 21
376.715
 31
0.0
  0
LINE
  5
B0
  8
EXTERNAL_CUT
 10
472.58
 20
306.21
 30
0.0
 11
337.08
 21
306.21
 31
0.0
  0
LINE
  5
B1
  8
BEND
 10
337.08
 20
376.715
 30
0.0
 11
337.08
 21
306.21
 31
0.0
  0
LINE
  5
B2
  8
EXTERNAL_CUT
 10
337.08
 20
306.21
 30
0.0
 11
332.08
 21
306.21
 31
0.0
  0
LINE
  5
B3
  8
EXTERNAL_CUT
 10
332.08
 20
306.21
 30
0.0
 11
271.575
 21
306.21
 31
0.0
  0
LINE
  5
B4
  8
EXTERNAL_CUT
 10
271.575
 20
306.21
 30
0.0
 11
266.575
 21
306.21
 31
0.0
  0
LINE
  5
B5
  8
EXTERNAL_CUT
 10
337.08
 20
376.715
 30
0.0
 11
332.08
 21
376.715
 31
0.0
  0
LINE
  5
B6
  8
EXTERNAL_CUT
 10
332.08
 20
376.715
 30
0.0
 11
271.575
 21
376.715
 31
0.0
  0
LINE
  5
B7
  8
EXTERNAL_CUT
 10
271.575
 20
376.715
 30
0.0
 11
266.575
 21
376.715
 31
0.0
  0
LINE
  5
B8
  8
BEND
 10
251.575
 20
306.21
 30
0.0
 11
266.575
 21
306.21
 31
0.0
  0
LINE
  5
B9
  8
INTERNAL_CUT
 10
146.075
 20
306.21
 30
0.0
 11
251.575
 21
306.21
 31
0.0
  0
LINE
  5
BA
  8
BEND
 10
131.075
 20
306.21
 30
0.0
 11
146.075
 21
306.21
 31
0.0
  0
LINE
  5
BB
  8
BEND
 10
146.075
 20
376.715
 30
0.0
 11
131.075
 21
376.715
 31
0.0
  0
LINE
  5
BC
  8
INTERNAL_CUT
 10
251.575
 20
376.715
 30
0.0
 11
146.075
 21
376.715
 31
0.0
  0
LINE
  5
BD
  8
BEND
 10
266.575
 20
376.715
 30
0.0
 11
251.575
 21
376.715
 31
0.0
  0
LINE
  5
BE
  8
INTERNAL_CUT
 10
251.575
 20
306.21
 30
0.0
 11
251.575
 21
311.21
 31
0.0
  0
LINE
  5
BF
  8
INTERNAL_CUT
 10
251.575
 20
311.21
 30
0.0
 11
251.575
 21
371.715
 31
0.0
  0
LINE
  5
C0
  8
INTERNAL_CUT
 10
251.575
 20
371.715
 30
0.0
 11
251.575
 21
376.715
 31
0.0
  0
LINE
  5
C1
  8
INTERNAL_CUT
 10
146.075
 20
376.715
 30
0.0
 11
146.075
 21
371.715
 31
0.0
  0
LINE
  5
C2
  8
INTERNAL_CUT
 10
146.075
 20
371.715
 30
0.0
 11
146.075
 21
311.21
 31
0.0
  0
LINE
  5
C3
  8
INTERNAL_CUT
 10
146.075
 20
311.21
 30
0.0
 11
146.075
 21
306.21
 31
0.0
  0
LINE
  5
C4
  8
INTERNAL_CUT
 10
109.7770966179175
 20
90.97812441094224
 30
0.0
 11
72.2229033820825
 21
90.97812441094224
 31
0.0
  0
LINE
  5
C5
  8
INTERNAL_CUT
 10
72.2229033820825
 20
90.97812441094224
 30
0.0
 11
72.2229033820825
 21
93.47812441094224
 31
0.0
  0
LINE
  5
C6
  8
INTERNAL_CUT
 10
72.2229033820825
 20
93.47812441094224
 30
0.0
 11
109.7770966179175
 21
93.47812441094224
 31
0.0
  0
LINE
  5
C7
  8
INTERNAL_CUT
 10
109.7770966179175
 20
93.47812441094224
 30
0.0
 11
109.7770966179175
 21
90.97812441094224
 31
0.0
  0
LINE
  5
C8
  8
INTERNAL_CUT
 10
287.8729033820824
 20
93.47812441094224
 30
0.0
 11
325.4270966179175
 21
93.47812441094224
 31
0.0
  0
LINE
  5
C9
  8
INTERNAL_CUT
 10
325.4270966179175
 20
93.47812441094224
 30
0.0
 11
325.4270966179175
 21
90.97812441094224
 31
0.0
  0
LINE
  5
CA
  8
INTERNAL_CUT
 10
325.4270966179175
 20
90.97812441094224
 30
0.0
 11
287.8729033820824
 21
90.97812441094224
 31
0.0
  0
LINE
  5
CB
  8
INTERNAL_CUT
 10
287.8729033820824
 20
90.97812441094224
 30
0.0
 11
287.8729033820824
 21
93.47812441094224
 31
0.0
  0
LINE
  5
CC
  8
INTERNAL_CUT
 10
182.0
 20
171.055
 30
0.0
 11
183.062158203125
 21
172.807529296875
 31
0.0
  0
LINE
  5
CD
  8
INTERNAL_CUT
 10
183.062158203125
 20
172.807529296875
 30
0.0
 11
184.1236328125
 21
174.4469921875
 31
0.0
  0
LINE
  5
CE
  8
INTERNAL_CUT
 10
184.1236328125
 20
174.4469921875
 30
0.0
 11
185.184423828125
 21
175.973388671875
 31
0.0
  0
LINE
  5
CF
  8
INTERNAL_CUT
 10
185.184423828125
 20
175.973388671875
 30
0.0
 11
185.7145629882812
 21
176.6941870117188
 31
0.0
  0
LINE
  5
D0
  8
INTERNAL_CUT
 10
185.7145629882812
 20
176.6941870117188
 30
0.0
 11
186.24453125
 21
177.38671875
 31
0.0
  0
LINE
  5
D1
  8
INTERNAL_CUT
 10
186.24453125
 20
177.38671875
 30
0.0
 11
186.7743286132813
 21
178.0509838867188
 31
0.0
  0
LINE
  5
D2
  8
INTERNAL_CUT
 10
186.7743286132813
 20
178.0509838867188
 30
0.0
 11
187.303955078125
 21
178.686982421875
 31
0.0
  0
LINE
  5
D3
  8
INTERNAL_CUT
 10
187.303955078125
 20
178.686982421875
 30
0.0
 11
187.8334106445313
 21
179.2947143554688
 31
0.0
  0
LINE
  5
D4
  8
INTERNAL_CUT
 10
187.8334106445313
 20
179.2947143554688
 30
0.0
 11
188.3626953125
 21
179.8741796875
 31
0.0
  0
LINE
  5
D5
  8
INTERNAL_CUT
 10
188.3626953125
 20
179.8741796875
 30
0.0
 11
188.8918090820312
 21
180.4253784179687
 31
0.0
  0
LINE
  5
D6
  8
INTERNAL_CUT
 10
188.8918090820312
 20
180.4253784179687
 30
0.0
 11
189.420751953125
 21
180.948310546875
 31
0.0
  0
LINE
  5
D7
  8
INTERNAL_CUT
 10
189.420751953125
 20
180.948310546875
 30
0.0
 11
189.9495239257812
 21
181.4429760742188
 31
0.0
  0
LINE
  5
D8
  8
INTERNAL_CUT
 10
189.9495239257812
 20
181.4429760742188
 30
0.0
 11
190.478125
 21
181.909375
 31
0.0
  0
LINE
  5
D9
  8
INTERNAL_CUT
 10
190.478125
 20
181.909375
 30
0.0
 11
191.0065551757812
 21
182.3475073242188
 31
0.0
  0
LINE
  5
DA
  8
INTERNAL_CUT
 10
191.0065551757812
 20
182.3475073242188
 30
0.0
 11
191.534814453125
 21
182.757373046875
 31
0.0
  0
LINE
  5
DB
  8
INTERNAL_CUT
 10
191.534814453125
 20
182.757373046875
 30
0.0
 11
191.7988800048828
 21
182.9517059326172
 31
0.0
  0
LINE
  5
DC
  8
INTERNAL_CUT
 10
191.7988800048828
 20
182.9517059326172
 30
0.0
 11
192.0629028320313
 21
183.1389721679687
 31
0.0
  0
LINE
  5
DD
  8
INTERNAL_CUT
 10
192.0629028320313
 20
183.1389721679687
 30
0.0
 11
192.3268829345703
 21
183.3191717529297
 31
0.0
  0
LINE
  5
DE
  8
INTERNAL_CUT
 10
192.3268829345703
 20
183.3191717529297
 30
0.0
 11
192.5908203125
 21
183.4923046875
 31
0.0
  0
LINE
  5
DF
  8
INTERNAL_CUT
 10
192.5908203125
 20
183.4923046875
 30
0.0
 11
192.8547149658203
 21
183.6583709716797
 31
0.0
  0
LINE
  5
E0
  8
INTERNAL_CUT
 10
192.8547149658203
 20
183.6583709716797
 30
0.0
 11
193.1185668945313
 21
183.8173706054687
 31
0.0
  0
LINE
  5
E1
  8
INTERNAL_CUT
 10
193.1185668945313
 20
183.8173706054687
 30
0.0
 11
193.3823760986328
 21
183.9693035888672
 31
0.0
  0
LINE
  5
E2
  8
INTERNAL_CUT
 10
193.3823760986328
 20
183.9693035888672
 30
0.0
 11
193.646142578125
 21
184.114169921875
 31
0.0
  0
LINE
  5
E3
  8
INTERNAL_CUT
 10
193.646142578125
 20
184.114169921875
 30
0.0
 11
193.9098663330078
 21
184.2519696044922
 31
0.0
  0
LINE
  5
E4
  8
INTERNAL_CUT
 10
193.9098663330078
 20
184.2519696044922
 30
0.0
 11
194.1735473632812
 21
184.3827026367187
 31
0.0
  0
LINE
  5
E5
  8
INTERNAL_CUT
 10
194.1735473632812
 20
184.3827026367187
 30
0.0
 11
194.4371856689453
 21
184.5063690185547
 31
0.0
  0
LINE
  5
E6
  8
INTERNAL_CUT
 10
194.4371856689453
 20
184.5063690185547
 30
0.0
 11
194.70078125
 21
184.62296875
 31
0.0
  0
LINE
  5
E7
  8
INTERNAL_CUT
 10
194.70078125
 20
184.62296875
 30
0.0
 11
194.9643341064453
 21
184.7325018310547
 31
0.0
  0
LINE
  5
E8
  8
INTERNAL_CUT
 10
194.9643341064453
 20
184.7325018310547
 30
0.0
 11
195.2278442382812
 21
184.8349682617187
 31
0.0
  0
LINE
  5
E9
  8
INTERNAL_CUT
 10
195.2278442382812
 20
184.8349682617187
 30
0.0
 11
195.4913116455078
 21
184.9303680419922
 31
0.0
  0
LINE
  5
EA
  8
INTERNAL_CUT
 10
195.4913116455078
 20
184.9303680419922
 30
0.0
 11
195.754736328125
 21
185.018701171875
 31
0.0
  0
LINE
  5
EB
  8
INTERNAL_CUT
 10
195.754736328125
 20
185.018701171875
 30
0.0
 11
196.0181182861328
 21
185.0999676513672
 31
0.0
  0
LINE
  5
EC
  8
INTERNAL_CUT
 10
196.0181182861328
 20
185.0999676513672
 30
0.0
 11
196.2814575195312
 21
185.1741674804687
 31
0.0
  0
LINE
  5
ED
  8
INTERNAL_CUT
 10
196.2814575195312
 20
185.1741674804687
 30
0.0
 11
196.5447540283203
 21
185.2413006591797
 31
0.0
  0
LINE
  5
EE
  8
INTERNAL_CUT
 10
196.5447540283203
 20
185.2413006591797
 30
0.0
 11
196.8080078125
 21
185.3013671875
 31
0.0
  0
LINE
  5
EF
  8
INTERNAL_CUT
 10
196.8080078125
 20
185.3013671875
 30
0.0
 11
197.0712188720703
 21
185.3543670654297
 31
0.0
  0
LINE
  5
F0
  8
INTERNAL_CUT
 10
197.0712188720703
 20
185.3543670654297
 30
0.0
 11
197.3343872070313
 21
185.4003002929688
 31
0.0
  0
LINE
  5
F1
  8
INTERNAL_CUT
 10
197.3343872070313
 20
185.4003002929688
 30
0.0
 11
197.5975128173828
 21
185.4391668701172
 31
0.0
  0
LINE
  5
F2
  8
INTERNAL_CUT
 10
197.5975128173828
 20
185.4391668701172
 30
0.0
 11
197.860595703125
 21
185.470966796875
 31
0.0
  0
LINE
  5
F3
  8
INTERNAL_CUT
 10
197.860595703125
 20
185.470966796875
 30
0.0
 11
198.1236358642578
 21
185.4957000732422
 31
0.0
  0
LINE
  5
F4
  8
INTERNAL_CUT
 10
198.1236358642578
 20
185.4957000732422
 30
0.0
 11
198.3866333007813
 21
185.5133666992188
 31
0.0
  0
LINE
  5
F5
  8
INTERNAL_CUT
 10
198.3866333007813
 20
185.5133666992188
 30
0.0
 11
198.6495880126953
 21
185.5239666748047
 31
0.0
  0
LINE
  5
F6
  8
INTERNAL_CUT
 10
198.6495880126953
 20
185.5239666748047
 30
0.0
 11
198.9125
 21
185.5275
 31
0.0
  0
LINE
  5
F7
  8
INTERNAL_CUT
 10
198.9125
 20
185.5275
 30
0.0
 11
199.1753692626953
 21
185.5239666748047
 31
0.0
  0
LINE
  5
F8
  8
INTERNAL_CUT
 10
199.1753692626953
 20
185.5239666748047
 30
0.0
 11
199.4381958007812
 21
185.5133666992188
 31
0.0
  0
LINE
  5
F9
  8
INTERNAL_CUT
 10
199.4381958007812
 20
185.5133666992188
 30
0.0
 11
199.7009796142578
 21
185.4957000732422
 31
0.0
  0
LINE
  5
FA
  8
INTERNAL_CUT
 10
199.7009796142578
 20
185.4957000732422
 30
0.0
 11
199.963720703125
 21
185.470966796875
 31
0.0
  0
LINE
  5
FB
  8
INTERNAL_CUT
 10
199.963720703125
 20
185.470966796875
 30
0.0
 11
200.2264190673828
 21
185.4391668701172
 31
0.0
  0
LINE
  5
FC
  8
INTERNAL_CUT
 10
200.2264190673828
 20
185.4391668701172
 30
0.0
 11
200.4890747070312
 21
185.4003002929688
 31
0.0
  0
LINE
  5
FD
  8
INTERNAL_CUT
 10
200.4890747070312
 20
185.4003002929688
 30
0.0
 11
200.7516876220703
 21
185.3543670654297
 31
0.0
  0
LINE
  5
FE
  8
INTERNAL_CUT
 10
200.7516876220703
 20
185.3543670654297
 30
0.0
 11
201.0142578125
 21
185.3013671875
 31
0.0
  0
LINE
  5
FF
  8
INTERNAL_CUT
 10
201.0142578125
 20
185.3013671875
 30
0.0
 11
201.2767852783203
 21
185.2413006591797
 31
0.0
  0
LINE
  5
100
  8
INTERNAL_CUT
 10
201.2767852783203
 20
185.2413006591797
 30
0.0
 11
201.5392700195312
 21
185.1741674804687
 31
0.0
  0
LINE
  5
101
  8
INTERNAL_CUT
 10
201.5392700195312
 20
185.1741674804687
 30
0.0
 11
201.8017120361328
 21
185.0999676513672
 31
0.0
  0
LINE
  5
102
  8
INTERNAL_CUT
 10
201.8017120361328
 20
185.0999676513672
 30
0.0
 11
202.064111328125
 21
185.018701171875
 31
0.0
  0
LINE
  5
103
  8
INTERNAL_CUT
 10
202.064111328125
 20
185.018701171875
 30
0.0
 11
202.3264678955078
 21
184.9303680419922
 31
0.0
  0
LINE
  5
104
  8
INTERNAL_CUT
 10
202.3264678955078
 20
184.9303680419922
 30
0.0
 11
202.5887817382813
 21
184.8349682617187
 31
0.0
  0
LINE
  5
105
  8
INTERNAL_CUT
 10
202.5887817382813
 20
184.8349682617187
 30
0.0
 11
202.8510528564453
 21
184.7325018310547
 31
0.0
  0
LINE
  5
106
  8
INTERNAL_CUT
 10
202.8510528564453
 20
184.7325018310547
 30
0.0
 11
203.11328125
 21
184.62296875
 31
0.0
  0
LINE
  5
107
  8
INTERNAL_CUT
 10
203.11328125
 20
184.62296875
 30
0.0
 11
203.3754669189453
 21
184.5063690185547
 31
0.0
  0
LINE
  5
108
  8
INTERNAL_CUT
 10
203.3754669189453
 20
184.5063690185547
 30
0.0
 11
203.6376098632813
 21
184.3827026367187
 31
0.0
  0
LINE
  5
109
  8
INTERNAL_CUT
 10
203.6376098632813
 20
184.3827026367187
 30
0.0
 11
203.8997100830078
 21
184.2519696044922
 31
0.0
  0
LINE
  5
10A
  8
INTERNAL_CUT
 10
203.8997100830078
 20
184.2519696044922
 30
0.0
 11
204.161767578125
 21
184.114169921875
 31
0.0
  0
LINE
  5
10B
  8
INTERNAL_CUT
 10
204.161767578125
 20
184.114169921875
 30
0.0
 11
204.4237823486328
 21
183.9693035888672
 31
0.0
  0
LINE
  5
10C
  8
INTERNAL_CUT
 10
204.4237823486328
 20
183.9693035888672
 30
0.0
 11
204.6857543945312
 21
183.8173706054687
 31
0.0
  0
LINE
  5
10D
  8
INTERNAL_CUT
 10
204.6857543945312
 20
183.8173706054687
 30
0.0
 11
204.9476837158203
 21
183.6583709716797
 31
0.0
  0
LINE
  5
10E
  8
INTERNAL_CUT
 10
204.9476837158203
 20
183.6583709716797
 30
0.0
 11
205.2095703125
 21
183.4923046875
 31
0.0
  0
LINE
  5
10F
  8
INTERNAL_CUT
 10
205.2095703125
 20
183.4923046875
 30
0.0
 11
205.4714141845703
 21
183.3191717529297
 31
0.0
  0
LINE
  5
110
  8
INTERNAL_CUT
 10
205.4714141845703
 20
183.3191717529297
 30
0.0
 11
205.7332153320312
 21
183.1389721679687
 31
0.0
  0
LINE
  5
111
  8
INTERNAL_CUT
 10
205.7332153320312
 20
183.1389721679687
 30
0.0
 11
205.9949737548828
 21
182.9517059326172
 31
0.0
  0
LINE
  5
112
  8
INTERNAL_CUT
 10
205.9949737548828
 20
182.9517059326172
 30
0.0
 11
206.256689453125
 21
182.757373046875
 31
0.0
  0
LINE
  5
113
  8
INTERNAL_CUT
 10
206.256689453125
 20
182.757373046875
 30
0.0
 11
206.7799926757812
 21
182.3475073242188
 31
0.0
  0
LINE
  5
114
  8
INTERNAL_CUT
 10
206.7799926757812
 20
182.3475073242188
 30
0.0
 11
207.303125
 21
181.909375
 31
0.0
  0
LINE
  5
115
  8
INTERNAL_CUT
 10
207.303125
 20
181.909375
 30
0.0
 11
207.8260864257812
 21
181.4429760742188
 31
0.0
  0
LINE
  5
116
  8
INTERNAL_CUT
 10
207.8260864257812
 20
181.4429760742188
 30
0.0
 11
208.348876953125
 21
180.948310546875
 31
0.0
  0
LINE
  5
117
  8
INTERNAL_CUT
 10
208.348876953125
 20
180.948310546875
 30
0.0
 11
208.8714965820312
 21
180.4253784179687
 31
0.0
  0
LINE
  5
118
  8
INTERNAL_CUT
 10
208.8714965820312
 20
180.4253784179687
 30
0.0
 11
209.3939453125
 21
179.8741796875
 31
0.0
  0
LINE
  5
119
  8
INTERNAL_CUT
 10
209.3939453125
 20
179.8741796875
 30
0.0
 11
209.9162231445312
 21
179.2947143554688
 31
0.0
  0
LINE
  5
11A
  8
INTERNAL_CUT
 10
209.9162231445312
 20
179.2947143554688
 30
0.0
 11
210.438330078125
 21
178.686982421875
 31
0.0
  0
LINE
  5
11B
  8
INTERNAL_CUT
 10
210.438330078125
 20
178.686982421875
 30
0.0
 11
210.9602661132812
 21
178.0509838867188
 31
0.0
  0
LINE
  5
11C
  8
INTERNAL_CUT
 10
210.9602661132812
 20
178.0509838867188
 30
0.0
 11
211.48203125
 21
177.38671875
 31
0.0
  0
LINE
  5
11D
  8
INTERNAL_CUT
 10
211.48203125
 20
177.38671875
 30
0.0
 11
212.0036254882812
 21
176.6941870117188
 31
0.0
  0
LINE
  5
11E
  8
INTERNAL_CUT
 10
212.0036254882812
 20
176.6941870117188
 30
0.0
 11
212.525048828125
 21
175.973388671875
 31
0.0
  0
LINE
  5
11F
  8
INTERNAL_CUT
 10
212.525048828125
 20
175.973388671875
 30
0.0
 11
213.5673828125
 21
174.4469921875
 31
0.0
  0
LINE
  5
120
  8
INTERNAL_CUT
 10
213.5673828125
 20
174.4469921875
 30
0.0
 11
214.609033203125
 21
172.807529296875
 31
0.0
  0
LINE
  5
121
  8
INTERNAL_CUT
 10
214.609033203125
 20
172.807529296875
 30
0.0
 11
215.65
 21
171.055
 31
0.0
  0
LINE
  5
122
  8
INTERNAL_CUT
 10
182.0
 20
171.055
 30
0.0
 11
183.062158203125
 21
169.302470703125
 31
0.0
  0
LINE
  5
123
  8
INTERNAL_CUT
 10
183.062158203125
 20
169.302470703125
 30
0.0
 11
184.1236328125
 21
167.6630078125
 31
0.0
  0
LINE
  5
124
  8
INTERNAL_CUT
 10
184.1236328125
 20
167.6630078125
 30
0.0
 11
185.184423828125
 21
166.136611328125
 31
0.0
  0
LINE
  5
125
  8
INTERNAL_CUT
 10
185.184423828125
 20
166.136611328125
 30
0.0
 11
185.7145629882812
 21
165.4158129882813
 31
0.0
  0
LINE
  5
126
  8
INTERNAL_CUT
 10
185.7145629882812
 20
165.4158129882813
 30
0.0
 11
186.24453125
 21
164.72328125
 31
0.0
  0
LINE
  5
127
  8
INTERNAL_CUT
 10
186.24453125
 20
164.72328125
 30
0.0
 11
186.7743286132813
 21
164.0590161132812
 31
0.0
  0
LINE
  5
128
  8
INTERNAL_CUT
 10
186.7743286132813
 20
164.0590161132812
 30
0.0
 11
187.303955078125
 21
163.423017578125
 31
0.0
  0
LINE
  5
129
  8
INTERNAL_CUT
 10
187.303955078125
 20
163.423017578125
 30
0.0
 11
187.8334106445313
 21
162.8152856445313
 31
0.0
  0
LINE
  5
12A
  8
INTERNAL_CUT
 10
187.8334106445313
 20
162.8152856445313
 30
0.0
 11
188.3626953125
 21
162.2358203125
 31
0.0
  0
LINE
  5
12B
  8
INTERNAL_CUT
 10
188.3626953125
 20
162.2358203125
 30
0.0
 11
188.8918090820312
 21
161.6846215820313
 31
0.0
  0
LINE
  5
12C
  8
INTERNAL_CUT
 10
188.8918090820312
 20
161.6846215820313
 30
0.0
 11
189.420751953125
 21
161.161689453125
 31
0.0
  0
LINE
  5
12D
  8
INTERNAL_CUT
 10
189.420751953125
 20
161.161689453125
 30
0.0
 11
189.9495239257812
 21
160.6670239257813
 31
0.0
  0
LINE
  5
12E
  8
INTERNAL_CUT
 10
189.9495239257812
 20
160.6670239257813
 30
0.0
 11
190.478125
 21
160.200625
 31
0.0
  0
LINE
  5
12F
  8
INTERNAL_CUT
 10
190.478125
 20
160.200625
 30
0.0
 11
191.0065551757812
 21
159.7624926757813
 31
0.0
  0
LINE
  5
130
  8
INTERNAL_CUT
 10
191.0065551757812
 20
159.7624926757813
 30
0.0
 11
191.534814453125
 21
159.352626953125
 31
0.0
  0
LINE
  5
131
  8
INTERNAL_CUT
 10
191.534814453125
 20
159.352626953125
 30
0.0
 11
191.7988800048828
 21
159.1582940673828
 31
0.0
  0
LINE
  5
132
  8
INTERNAL_CUT
 10
191.7988800048828
 20
159.1582940673828
 30
0.0
 11
192.0629028320313
 21
158.9710278320313
 31
0.0
  0
LINE
  5
133
  8
INTERNAL_CUT
 10
192.0629028320313
 20
158.9710278320313
 30
0.0
 11
192.3268829345703
 21
158.7908282470703
 31
0.0
  0
LINE
  5
134
  8
INTERNAL_CUT
 10
192.3268829345703
 20
158.7908282470703
 30
0.0
 11
192.5908203125
 21
158.6176953125
 31
0.0
  0
LINE
  5
135
  8
INTERNAL_CUT
 10
192.5908203125
 20
158.6176953125
 30
0.0
 11
192.8547149658203
 21
158.4516290283203
 31
0.0
  0
LINE
  5
136
  8
INTERNAL_CUT
 10
192.8547149658203
 20
158.4516290283203
 30
0.0
 11
193.1185668945313
 21
158.2926293945313
 31
0.0
  0
LINE
  5
137
  8
INTERNAL_CUT
 10
193.1185668945313
 20
158.2926293945313
 30
0.0
 11
193.3823760986328
 21
158.1406964111328
 31
0.0
  0
LINE
  5
138
  8
INTERNAL_CUT
 10
193.3823760986328
 20
158.1406964111328
 30
0.0
 11
193.646142578125
 21
157.995830078125
 31
0.0
  0
LINE
  5
139
  8
INTERNAL_CUT
 10
193.646142578125
 20
157.995830078125
 30
0.0
 11
193.9098663330078
 21
157.8580303955079
 31
0.0
  0
LINE
  5
13A
  8
INTERNAL_CUT
 10
193.9098663330078
 20
157.8580303955079
 30
0.0
 11
194.1735473632812
 21
157.7272973632813
 31
0.0
  0
LINE
  5
13B
  8
INTERNAL_CUT
 10
194.1735473632812
 20
157.7272973632813
 30
0.0
 11
194.4371856689453
 21
157.6036309814453
 31
0.0
  0
LINE
  5
13C
  8
INTERNAL_CUT
 10
194.4371856689453
 20
157.6036309814453
 30
0.0
 11
194.70078125
 21
157.48703125
 31
0.0
  0
LINE
  5
13D
  8
INTERNAL_CUT
 10
194.70078125
 20
157.48703125
 30
0.0
 11
194.9643341064453
 21
157.3774981689454
 31
0.0
  0
LINE
  5
13E
  8
INTERNAL_CUT
 10
194.9643341064453
 20
157.3774981689454
 30
0.0
 11
195.2278442382812
 21
157.2750317382813
 31
0.0
  0
LINE
  5
13F
  8
INTERNAL_CUT
 10
195.2278442382812
 20
157.2750317382813
 30
0.0
 11
195.4913116455078
 21
157.1796319580079
 31
0.0
  0
LINE
  5
140
  8
INTERNAL_CUT
 10
195.4913116455078
 20
157.1796319580079
 30
0.0
 11
195.754736328125
 21
157.091298828125
 31
0.0
  0
LINE
  5
141
  8
INTERNAL_CUT
 10
195.754736328125
 20
157.091298828125
 30
0.0
 11
196.0181182861328
 21
157.0100323486328
 31
0.0
  0
LINE
  5
142
  8
INTERNAL_CUT
 10
196.0181182861328
 20
157.0100323486328
 30
0.0
 11
196.2814575195312
 21
156.9358325195313
 31
0.0
  0
LINE
  5
143
  8
INTERNAL_CUT
 10
196.2814575195312
 20
156.9358325195313
 30
0.0
 11
196.5447540283203
 21
156.8686993408203
 31
0.0
  0
LINE
  5
144
  8
INTERNAL_CUT
 10
196.5447540283203
 20
156.8686993408203
 30
0.0
 11
196.8080078125
 21
156.8086328125
 31
0.0
  0
LINE
  5
145
  8
INTERNAL_CUT
 10
196.8080078125
 20
156.8086328125
 30
0.0
 11
197.0712188720703
 21
156.7556329345703
 31
0.0
  0
LINE
  5
146
  8
INTERNAL_CUT
 10
197.0712188720703
 20
156.7556329345703
 30
0.0
 11
197.3343872070313
 21
156.7096997070313
 31
0.0
  0
LINE
  5
147
  8
INTERNAL_CUT
 10
197.3343872070313
 20
156.7096997070313
 30
0.0
 11
197.5975128173828
 21
156.6708331298828
 31
0.0
  0
LINE
  5
148
  8
INTERNAL_CUT
 10
197.5975128173828
 20
156.6708331298828
 30
0.0
 11
197.860595703125
 21
156.639033203125
 31
0.0
  0
LINE
  5
149
  8
INTERNAL_CUT
 10
197.860595703125
 20
156.639033203125
 30
0.0
 11
198.1236358642578
 21
156.6142999267578
 31
0.0
  0
LINE
  5
14A
  8
INTERNAL_CUT
 10
198.1236358642578
 20
156.6142999267578
 30
0.0
 11
198.3866333007813
 21
156.5966333007813
 31
0.0
  0
LINE
  5
14B
  8
INTERNAL_CUT
 10
198.3866333007813
 20
156.5966333007813
 30
0.0
 11
198.6495880126953
 21
156.5860333251953
 31
0.0
  0
LINE
  5
14C
  8
INTERNAL_CUT
 10
198.6495880126953
 20
156.5860333251953
 30
0.0
 11
198.9125
 21
156.5825
 31
0.0
  0
LINE
  5
14D
  8
INTERNAL_CUT
 10
198.9125
 20
156.5825
 30
0.0
 11
199.1753692626953
 21
156.5860333251953
 31
0.0
  0
LINE
  5
14E
  8
INTERNAL_CUT
 10
199.1753692626953
 20
156.5860333251953
 30
0.0
 11
199.4381958007812
 21
156.5966333007813
 31
0.0
  0
LINE
  5
14F
  8
INTERNAL_CUT
 10
199.4381958007812
 20
156.5966333007813
 30
0.0
 11
199.7009796142578
 21
156.6142999267578
 31
0.0
  0
LINE
  5
150
  8
INTERNAL_CUT
 10
199.7009796142578
 20
156.6142999267578
 30
0.0
 11
199.963720703125
 21
156.639033203125
 31
0.0
  0
LINE
  5
151
  8
INTERNAL_CUT
 10
199.963720703125
 20
156.639033203125
 30
0.0
 11
200.2264190673828
 21
156.6708331298828
 31
0.0
  0
LINE
  5
152
  8
INTERNAL_CUT
 10
200.2264190673828
 20
156.6708331298828
 30
0.0
 11
200.4890747070312
 21
156.7096997070313
 31
0.0
  0
LINE
  5
153
  8
INTERNAL_CUT
 10
200.4890747070312
 20
156.7096997070313
 30
0.0
 11
200.7516876220703
 21
156.7556329345703
 31
0.0
  0
LINE
  5
154
  8
INTERNAL_CUT
 10
200.7516876220703
 20
156.7556329345703
 30
0.0
 11
201.0142578125
 21
156.8086328125
 31
0.0
  0
LINE
  5
155
  8
INTERNAL_CUT
 10
201.0142578125
 20
156.8086328125
 30
0.0
 11
201.2767852783203
 21
156.8686993408203
 31
0.0
  0
LINE
  5
156
  8
INTERNAL_CUT
 10
201.2767852783203
 20
156.8686993408203
 30
0.0
 11
201.5392700195312
 21
156.9358325195313
 31
0.0
  0
LINE
  5
157
  8
INTERNAL_CUT
 10
201.5392700195312
 20
156.9358325195313
 30
0.0
 11
201.8017120361328
 21
157.0100323486328
 31
0.0
  0
LINE
  5
158
  8
INTERNAL_CUT
 10
201.8017120361328
 20
157.0100323486328
 30
0.0
 11
202.064111328125
 21
157.091298828125
 31
0.0
  0
LINE
  5
159
  8
INTERNAL_CUT
 10
202.064111328125
 20
157.091298828125
 30
0.0
 11
202.3264678955078
 21
157.1796319580079
 31
0.0
  0
LINE
  5
15A
  8
INTERNAL_CUT
 10
202.3264678955078
 20
157.1796319580079
 30
0.0
 11
202.5887817382813
 21
157.2750317382813
 31
0.0
  0
LINE
  5
15B
  8
INTERNAL_CUT
 10
202.5887817382813
 20
157.2750317382813
 30
0.0
 11
202.8510528564453
 21
157.3774981689454
 31
0.0
  0
LINE
  5
15C
  8
INTERNAL_CUT
 10
202.8510528564453
 20
157.3774981689454
 30
0.0
 11
203.11328125
 21
157.48703125
 31
0.0
  0
LINE
  5
15D
  8
INTERNAL_CUT
 10
203.11328125
 20
157.48703125
 30
0.0
 11
203.3754669189453
 21
157.6036309814453
 31
0.0
  0
LINE
  5
15E
  8
INTERNAL_CUT
 10
203.3754669189453
 20
157.6036309814453
 30
0.0
 11
203.6376098632813
 21
157.7272973632813
 31
0.0
  0
LINE
  5
15F
  8
INTERNAL_CUT
 10
203.6376098632813
 20
157.7272973632813
 30
0.0
 11
203.8997100830078
 21
157.8580303955079
 31
0.0
  0
LINE
  5
160
  8
INTERNAL_CUT
 10
203.8997100830078
 20
157.8580303955079
 30
0.0
 11
204.161767578125
 21
157.995830078125
 31
0.0
  0
LINE
  5
161
  8
INTERNAL_CUT
 10
204.161767578125
 20
157.995830078125
 30
0.0
 11
204.4237823486328
 21
158.1406964111328
 31
0.0
  0
LINE
  5
162
  8
INTERNAL_CUT
 10
204.4237823486328
 20
158.1406964111328
 30
0.0
 11
204.6857543945312
 21
158.2926293945313
 31
0.0
  0
LINE
  5
163
  8
INTERNAL_CUT
 10
204.6857543945312
 20
158.2926293945313
 30
0.0
 11
204.9476837158203
 21
158.4516290283203
 31
0.0
  0
LINE
  5
164
  8
INTERNAL_CUT
 10
204.9476837158203
 20
158.4516290283203
 30
0.0
 11
205.2095703125
 21
158.6176953125
 31
0.0
  0
LINE
  5
165
  8
INTERNAL_CUT
 10
205.2095703125
 20
158.6176953125
 30
0.0
 11
205.4714141845703
 21
158.7908282470703
 31
0.0
  0
LINE
  5
166
  8
INTERNAL_CUT
 10
205.4714141845703
 20
158.7908282470703
 30
0.0
 11
205.7332153320312
 21
158.9710278320313
 31
0.0
  0
LINE
  5
167
  8
INTERNAL_CUT
 10
205.7332153320312
 20
158.9710278320313
 30
0.0
 11
205.9949737548828
 21
159.1582940673828
 31
0.0
  0
LINE
  5
168
  8
INTERNAL_CUT
 10
205.9949737548828
 20
159.1582940673828
 30
0.0
 11
206.256689453125
 21
159.352626953125
 31
0.0
  0
LINE
  5
169
  8
INTERNAL_CUT
 10
206.256689453125
 20
159.352626953125
 30
0.0
 11
206.7799926757812
 21
159.7624926757813
 31
0.0
  0
LINE
  5
16A
  8
INTERNAL_CUT
 10
206.7799926757812
 20
159.7624926757813
 30
0.0
 11
207.303125
 21
160.200625
 31
0.0
  0
LINE
  5
16B
  8
INTERNAL_CUT
 10
207.303125
 20
160.200625
 30
0.0
 11
207.8260864257812
 21
160.6670239257813
 31
0.0
  0
LINE
  5
16C
  8
INTERNAL_CUT
 10
207.8260864257812
 20
160.6670239257813
 30
0.0
 11
208.348876953125
 21
161.161689453125
 31
0.0
  0
LINE
  5
16D
  8
INTERNAL_CUT
 10
208.348876953125
 20
161.161689453125
 30
0.0
 11
208.8714965820312
 21
161.6846215820313
 31
0.0
  0
LINE
  5
16E
  8
INTERNAL_CUT
 10
208.8714965820312
 20
161.6846215820313
 30
0.0
 11
209.3939453125
 21
162.2358203125
 31
0.0
  0
LINE
  5
16F
  8
INTERNAL_CUT
 10
209.3939453125
 20
162.2358203125
 30
0.0
 11
209.9162231445312
 21
162.8152856445313
 31
0.0
  0
LINE
  5
170
  8
INTERNAL_CUT
 10
209.9162231445312
 20
162.8152856445313
 30
0.0
 11
210.438330078125
 21
163.423017578125
 31
0.0
  0
LINE
  5
171
  8
INTERNAL_CUT
 10
210.438330078125
 20
163.423017578125
 30
0.0
 11
210.9602661132812
 21
164.0590161132812
 31
0.0
  0
LINE
  5
172
  8
INTERNAL_CUT
 10
210.9602661132812
 20
164.0590161132812
 30
0.0
 11
211.48203125
 21
164.72328125
 31
0.0
  0
LINE
  5
173
  8
INTERNAL_CUT
 10
211.48203125
 20
164.72328125
 30
0.0
 11
212.0036254882812
 21
165.4158129882813
 31
0.0
  0
LINE
  5
174
  8
INTERNAL_CUT
 10
212.0036254882812
 20
165.4158129882813
 30
0.0
 11
212.525048828125
 21
166.136611328125
 31
0.0
  0
LINE
  5
175
  8
INTERNAL_CUT
 10
212.525048828125
 20
166.136611328125
 30
0.0
 11
213.5673828125
 21
167.6630078125
 31
0.0
  0
LINE
  5
176
  8
INTERNAL_CUT
 10
213.5673828125
 20
167.6630078125
 30
0.0
 11
214.609033203125
 21
169.302470703125
 31
0.0
  0
LINE
  5
177
  8
INTERNAL_CUT
 10
214.609033203125
 20
169.302470703125
 30
0.0
 11
215.65
 21
171.055
 31
0.0
  0
LINE
  5
178
  8
BEND
 10
182.0
 20
171.055
 30
0.0
 11
131.075
 21
171.055
 31
0.0
  0
LINE
  5
179
  8
BEND
 10
215.65
 20
171.055
 30
0.0
 11
266.575
 21
171.055
 31
0.0
  0
LINE
  5
17A
  8
BEND
 10
266.575
 20
384.715
 30
0.0
 11
266.575
 21
455.0
 31
0.0
  0
LINE
  5
17B
  8
BEND
 10
131.075
 20
384.715
 30
0.0
 11
131.075
 21
455.0
 31
0.0
  0
LINE
  5
17C
  8
BEND
 10
131.075
 20
14.0
 30
0.0
 11
131.075
 21
100.55
 31
0.0
  0
CIRCLE
  5
17D
  8
INTERNAL_CUT
 10
228.825
 20
135.8025
 30
0.0
 40
25.0
  0
CIRCLE
  5
17E
  8
INTERNAL_CUT
 10
168.825
 20
135.8025
 30
0.0
 40
25.0
  0
CIRCLE
  5
17F
  8
INTERNAL_CUT
 10
168.825
 20
206.3075
 30
0.0
 40
25.0
  0
CIRCLE
  5
180
  8
INTERNAL_CUT
 10
228.825
 20
206.3075
 30
0.0
 40
25.0
  0
LINE
  5
181
  8
BEND
 10
131.075
 20
100.55
 30
0.0
 11
266.575
 21
100.55
 31
0.0
  0
LINE
  5
182
  8
BEND
 10
266.575
 20
241.56
 30
0.0
 11
131.075
 21
241.56
 31
0.0
  0
LINE
  5
183
  8
BEND
 10
266.575
 20
14.0
 30
0.0
 11
266.575
 21
100.55
 31
0.0
  0
LINE
  5
184
  8
BEND
 10
131.075
 20
384.715
 30
0.0
 11
266.575
 21
384.715
 31
0.0
  0
ENDSEC
  0
EOF
