  0
SECTION
  2
HEADER
  9
$ACADVER
  1
AC1009
  9
$DWGCODEPAGE
  3
ansi_1252
  9
$INSBASE
 10
0.0
 20
0.0
 30
0.0
  9
$EXTMIN
 10
878.2824613844466
 20
-1649.196161305976
 30
0.0
  9
$EXTMAX
 10
1728.282461384446
 20
-1049.196161305976
 30
0.0
  9
$LIMMIN
 10
0.0
 20
0.0
  9
$LIMMAX
 10
12.0
 20
9.0
  9
$ORTHOMODE
 70
     0
  9
$REGENMODE
 70
     1
  9
$FILLMODE
 70
     1
  9
$QTEXTMODE
 70
     0
  9
$MIRRTEXT
 70
     1
  9
$DRAGMODE
 70
     2
  9
$LTSCALE
 40
1.0
  9
$OSMODE
 70
    37
  9
$ATTMODE
 70
     1
  9
$TEXTSIZE
 40
0.2
  9
$TRACEWID
 40
0.05
  9
$TEXTSTYLE
  7
STANDARD
  9
$CLAYER
  8
0
  9
$CELTYPE
  6
BYLAYER
  9
$CECOLOR
 62
   256
  9
$DIMSCALE
 40
1.0
  9
$DIMASZ
 40
0.18
  9
$DIMEXO
 40
0.0625
  9
$DIMDLI
 40
0.38
  9
$DIMRND
 40
0.0
  9
$DIMDLE
 40
0.0
  9
$DIMEXE
 40
0.18
  9
$DIMTP
 40
0.0
  9
$DIMTM
 40
0.0
  9
$DIMTXT
 40
0.18
  9
$DIMCEN
 40
0.09
  9
$DIMTSZ
 40
0.0
  9
$DIMTOL
 70
     0
  9
$DIMLIM
 70
     0
  9
$DIMTIH
 70
     1
  9
$DIMTOH
 70
     1
  9
$DIMSE1
 70
     0
  9
$DIMSE2
 70
     0
  9
$DIMTAD
 70
     0
  9
$DIMZIN
 70
     0
  9
$DIMBLK
  1

  9
$DIMASO
 70
     1
  9
$DIMSHO
 70
     1
  9
$DIMPOST
  1

  9
$DIMAPOST
  1

  9
$DIMALT
 70
     0
  9
$DIMALTD
 70
     2
  9
$DIMALTF
 40
25.4
  9
$DIMLFAC
 40
1.0
  9
$DIMTOFL
 70
     0
  9
$DIMTVP
 40
0.0
  9
$DIMTIX
 70
     0
  9
$DIMSOXD
 70
     0
  9
$DIMSAH
 70
     0
  9
$DIMBLK1
  1

  9
$DIMBLK2
  1

  9
$DIMSTYLE
  2
STANDARD
  9
$DIMCLRD
 70
     0
  9
$DIMCLRE
 70
     0
  9
$DIMCLRT
 70
     0
  9
$DIMTFAC
 40
1.0
  9
$DIMGAP
 40
0.09
  9
$LUNITS
 70
     2
  9
$LUPREC
 70
     3
  9
$SKETCHINC
 40
0.1
  9
$FILLETRAD
 40
0.5
  9
$AUNITS
 70
     0
  9
$AUPREC
 70
     0
  9
$MENU
  1
.
  9
$ELEVATION
 40
0.0
  9
$PELEVATION
 40
0.0
  9
$THICKNESS
 40
0.0
  9
$LIMCHECK
 70
     0
  9
$CHAMFERA
 40
0.0
  9
$CHAMFERB
 40
0.0
  9
$SKPOLY
 70
     0
  9
$TDCREATE
 40
2457491.691254896
  9
$TDUPDATE
 40
2457491.691277002
  9
$TDINDWG
 40
0.0000000116
  9
$TDUSRTIMER
 40
0.0000000116
  9
$USRTIMER
 70
     1
  9
$ANGBASE
 50
0.0
  9
$ANGDIR
 70
     0
  9
$PDMODE
 70
     0
  9
$PDSIZE
 40
0.0
  9
$PLINEWID
 40
0.0
  9
$COORDS
 70
     1
  9
$SPLFRAME
 70
     0
  9
$SPLINETYPE
 70
     6
  9
$SPLINESEGS
 70
     8
  9
$ATTDIA
 70
     0
  9
$ATTREQ
 70
     1
  9
$HANDLING
 70
     1
  9
$HANDSEED
  5
48C
  9
$SURFTAB1
 70
     6
  9
$SURFTAB2
 70
     6
  9
$SURFTYPE
 70
     6
  9
$SURFU
 70
     6
  9
$SURFV
 70
     6
  9
$UCSNAME
  2

  9
$UCSORG
 10
0.0
 20
0.0
 30
0.0
  9
$UCSXDIR
 10
1.0
 20
0.0
 30
0.0
  9
$UCSYDIR
 10
0.0
 20
1.0
 30
0.0
  9
$PUCSNAME
  2

  9
$PUCSORG
 10
0.0
 20
0.0
 30
0.0
  9
$PUCSXDIR
 10
1.0
 20
0.0
 30
0.0
  9
$PUCSYDIR
 10
0.0
 20
1.0
 30
0.0
  9
$USERI1
 70
     0
  9
$USERI2
 70
     0
  9
$USERI3
 70
     0
  9
$USERI4
 70
     0
  9
$USERI5
 70
     0
  9
$USERR1
 40
0.0
  9
$USERR2
 40
0.0
  9
$USERR3
 40
0.0
  9
$USERR4
 40
0.0
  9
$USERR5
 40
0.0
  9
$WORLDVIEW
 70
     1
  9
$SHADEDGE
 70
     3
  9
$SHADEDIF
 70
    70
  9
$TILEMODE
 70
     1
  9
$MAXACTVP
 70
    64
  9
$PLIMCHECK
 70
     0
  9
$PEXTMIN
 10
1.000000000000000E+20
 20
1.000000000000000E+20
 30
1.000000000000000E+20
  9
$PEXTMAX
 10
-1.000000000000000E+20
 20
-1.000000000000000E+20
 30
-1.000000000000000E+20
  9
$PLIMMIN
 10
0.0
 20
0.0
  9
$PLIMMAX
 10
12.0
 20
9.0
  9
$UNITMODE
 70
     0
  9
$VISRETAIN
 70
     1
  9
$PLINEGEN
 70
     0
  9
$PSLTSCALE
 70
     1
  0
ENDSEC
  0
SECTION
  2
TABLES
  0
TABLE
  2
VPORT
 70
     1
  0
VPORT
  2
*ACTIVE
 70
     0
 10
0.0
 20
0.0
 11
1.0
 21
1.0
 12
1303.282461384446
 22
-1349.196161305976
 13
0.0
 23
0.0
 14
0.5
 24
0.5
 15
0.5
 25
0.5
 16
0.0
 26
0.0
 36
1.0
 17
0.0
 27
0.0
 37
0.0
 40
612.0
 41
1.416666666666667
 42
50.0
 43
0.0
 44
0.0
 50
0.0
 51
0.0
 71
     0
 72
   100
 73
     1
 74
     3
 75
     0
 76
     0
 77
     0
 78
     0
  0
ENDTAB
  0
TABLE
  2
LTYPE
 70
     1
  0
LTYPE
  2
CONTINUOUS
 70
     0
  3
Solid line
 72
    65
 73
     0
 40
0.0
  0
ENDTAB
  0
TABLE
  2
LAYER
 70
     4
  0
LAYER
  2
0
 70
     0
 62
     7
  6
CONTINUOUS
  0
LAYER
  2
PREDEFINITO
 70
     0
 62
     7
  6
CONTINUOUS
  0
LAYER
  2
TUBBBI
 70
     0
 62
   106
  6
CONTINUOUS
  0
LAYER
  2
TAGLIO
 70
     0
 62
    40
  6
CONTINUOUS
  0
ENDTAB
  0
TABLE
  2
STYLE
 70
     1
  0
STYLE
  2
STANDARD
 70
     0
 40
0.0
 41
1.0
 50
0.0
 71
     0
 42
0.2
  3
txt
  4

  0
ENDTAB
  0
TABLE
  2
VIEW
 70
     0
  0
ENDTAB
  0
TABLE
  2
UCS
 70
     0
  0
ENDTAB
  0
TABLE
  2
APPID
 70
     1
  0
APPID
  2
ACAD
 70
     0
  0
ENDTAB
  0
TABLE
  2
DIMSTYLE
 70
     1
  0
DIMSTYLE
  2
STANDARD
 70
     0
  3

  4

  5

  6

  7

 40
1.0
 41
0.18
 42
0.0625
 43
0.38
 44
0.18
 45
0.0
 46
0.0
 47
0.0
 48
0.0
140
0.18
141
0.09
142
0.0
143
25.4
144
1.0
145
0.0
146
1.0
147
0.09
 71
     0
 72
     0
 73
     1
 74
     1
 75
     0
 76
     0
 77
     0
 78
     0
170
     0
171
     2
172
     0
173
     0
174
     0
175
     0
176
     0
177
     0
178
     0
  0
ENDTAB
  0
ENDSEC
  0
SECTION
  2
BLOCKS
  0
BLOCK
  8
0
  2
$MODEL_SPACE
 70
     0
 10
0.0
 20
0.0
 30
0.0
  3
$MODEL_SPACE
  1

  0
ENDBLK
  5
21
  8
0
  0
BLOCK
 67
     1
  8
0
  2
$PAPER_SPACE
 70
     0
 10
0.0
 20
0.0
 30
0.0
  3
$PAPER_SPACE
  1

  0
ENDBLK
  5
1D
 67
     1
  8
0
  0
ENDSEC
  0
SECTION
  2
ENTITIES
  0
LINE
  5
6F
  8
PREDEFINITO
 10
1330.170514130475
 20
-1407.789685882396
 30
0.0
 11
1340.170514130476
 21
-1407.789685882396
 31
0.0
  0
LINE
  5
70
  8
PREDEFINITO
 10
1340.170514130476
 20
-1407.789685882396
 30
0.0
 11
1360.210514130476
 21
-1407.789685882396
 31
0.0
  0
LINE
  5
71
  8
PREDEFINITO
 10
1360.210514130476
 20
-1407.789685882396
 30
0.0
 11
1360.210514130476
 21
-1425.878474410475
 31
0.0
  0
LINE
  5
72
  8
PREDEFINITO
 10
1360.210514130476
 20
-1425.878474410475
 30
0.0
 11
1360.210514130476
 21
-1435.878474410475
 31
0.0
  0
LINE
  5
73
  8
PREDEFINITO
 10
1360.210514130476
 20
-1435.878474410475
 30
0.0
 11
1366.210514130476
 21
-1435.878474410475
 31
0.0
  0
LINE
  5
74
  8
PREDEFINITO
 10
1366.210514130476
 20
-1435.878474410475
 30
0.0
 11
1366.210514130476
 21
-1447.878474410475
 31
0.0
  0
LINE
  5
75
  8
PREDEFINITO
 10
1366.210514130476
 20
-1447.878474410475
 30
0.0
 11
1360.210514130476
 21
-1447.878474410475
 31
0.0
  0
LINE
  5
76
  8
PREDEFINITO
 10
1360.210514130476
 20
-1447.878474410475
 30
0.0
 11
1360.210514130476
 21
-1466.289685882396
 31
0.0
  0
LINE
  5
77
  8
PREDEFINITO
 10
1360.210514130476
 20
-1466.289685882396
 30
0.0
 11
1366.210514130476
 21
-1466.289685882396
 31
0.0
  0
LINE
  5
78
  8
PREDEFINITO
 10
1366.210514130476
 20
-1466.289685882396
 30
0.0
 11
1366.210514130476
 21
-1478.289685882396
 31
0.0
  0
LINE
  5
79
  8
PREDEFINITO
 10
1366.210514130476
 20
-1478.289685882396
 30
0.0
 11
1360.210514130476
 21
-1478.289685882396
 31
0.0
  0
LINE
  5
7A
  8
PREDEFINITO
 10
1360.210514130476
 20
-1478.289685882396
 30
0.0
 11
1360.210514130476
 21
-1490.200897354318
 31
0.0
  0
LINE
  5
7B
  8
PREDEFINITO
 10
1360.210514130476
 20
-1490.200897354318
 30
0.0
 11
1340.170514130476
 21
-1490.200897354318
 31
0.0
  0
LINE
  5
7C
  8
PREDEFINITO
 10
1340.170514130476
 20
-1490.200897354318
 30
0.0
 11
1330.170514130475
 21
-1490.200897354318
 31
0.0
  0
LINE
  5
7D
  8
PREDEFINITO
 10
1330.170514130475
 20
-1490.200897354318
 30
0.0
 11
1330.170514130475
 21
-1496.200897354318
 31
0.0
  0
LINE
  5
7E
  8
PREDEFINITO
 10
1330.170514130475
 20
-1496.200897354318
 30
0.0
 11
1318.170514130475
 21
-1496.200897354318
 31
0.0
  0
LINE
  5
7F
  8
PREDEFINITO
 10
1318.170514130475
 20
-1496.200897354318
 30
0.0
 11
1318.170514130475
 21
-1490.200897354318
 31
0.0
  0
LINE
  5
80
  8
PREDEFINITO
 10
1318.170514130475
 20
-1490.200897354318
 30
0.0
 11
1306.170514130475
 21
-1490.200897354318
 31
0.0
  0
LINE
  5
81
  8
PREDEFINITO
 10
1306.170514130475
 20
-1490.200897354318
 30
0.0
 11
1306.170514130475
 21
-1496.200897354318
 31
0.0
  0
LINE
  5
82
  8
PREDEFINITO
 10
1306.170514130475
 20
-1496.200897354318
 30
0.0
 11
1288.170514130475
 21
-1496.200897354318
 31
0.0
  0
LINE
  5
83
  8
PREDEFINITO
 10
1288.170514130475
 20
-1496.200897354318
 30
0.0
 11
1288.170514130475
 21
-1490.200897354318
 31
0.0
  0
LINE
  5
84
  8
PREDEFINITO
 10
1288.170514130475
 20
-1490.200897354318
 30
0.0
 11
1276.170514130475
 21
-1490.200897354318
 31
0.0
  0
LINE
  5
85
  8
PREDEFINITO
 10
1276.170514130475
 20
-1490.200897354318
 30
0.0
 11
1276.170514130475
 21
-1496.200897354318
 31
0.0
  0
LINE
  5
86
  8
PREDEFINITO
 10
1276.170514130475
 20
-1496.200897354318
 30
0.0
 11
1264.170514130475
 21
-1496.200897354318
 31
0.0
  0
LINE
  5
87
  8
PREDEFINITO
 10
1264.170514130475
 20
-1496.200897354318
 30
0.0
 11
1264.170514130475
 21
-1490.200897354318
 31
0.0
  0
LINE
  5
88
  8
PREDEFINITO
 10
1264.170514130475
 20
-1490.200897354318
 30
0.0
 11
1250.130514130475
 21
-1490.200897354318
 31
0.0
  0
LINE
  5
89
  8
PREDEFINITO
 10
1250.130514130475
 20
-1490.200897354318
 30
0.0
 11
1250.130514130475
 21
-1478.289685882396
 31
0.0
  0
LINE
  5
8A
  8
PREDEFINITO
 10
1250.130514130475
 20
-1478.289685882396
 30
0.0
 11
1244.130514130475
 21
-1478.289685882396
 31
0.0
  0
LINE
  5
8B
  8
PREDEFINITO
 10
1244.130514130475
 20
-1478.289685882396
 30
0.0
 11
1244.130514130475
 21
-1466.289685882396
 31
0.0
  0
LINE
  5
8C
  8
PREDEFINITO
 10
1244.130514130475
 20
-1466.289685882396
 30
0.0
 11
1250.130514130475
 21
-1466.289685882396
 31
0.0
  0
LINE
  5
8D
  8
PREDEFINITO
 10
1250.130514130475
 20
-1466.289685882396
 30
0.0
 11
1250.130514130475
 21
-1447.878474410475
 31
0.0
  0
LINE
  5
8E
  8
PREDEFINITO
 10
1250.130514130475
 20
-1447.878474410475
 30
0.0
 11
1244.130514130475
 21
-1447.878474410475
 31
0.0
  0
LINE
  5
8F
  8
PREDEFINITO
 10
1244.130514130475
 20
-1447.878474410475
 30
0.0
 11
1244.130514130475
 21
-1435.878474410475
 31
0.0
  0
LINE
  5
90
  8
PREDEFINITO
 10
1244.130514130475
 20
-1435.878474410475
 30
0.0
 11
1250.130514130475
 21
-1435.878474410475
 31
0.0
  0
LINE
  5
91
  8
PREDEFINITO
 10
1250.130514130475
 20
-1435.878474410475
 30
0.0
 11
1250.130514130475
 21
-1425.878474410475
 31
0.0
  0
LINE
  5
92
  8
PREDEFINITO
 10
1250.130514130475
 20
-1425.878474410475
 30
0.0
 11
1250.130514130475
 21
-1407.789685882396
 31
0.0
  0
LINE
  5
93
  8
PREDEFINITO
 10
1250.130514130475
 20
-1407.789685882396
 30
0.0
 11
1264.170514130475
 21
-1407.789685882396
 31
0.0
  0
LINE
  5
94
  8
PREDEFINITO
 10
1264.170514130475
 20
-1407.789685882396
 30
0.0
 11
1264.170514130475
 21
-1401.789685882396
 31
0.0
  0
LINE
  5
95
  8
PREDEFINITO
 10
1264.170514130475
 20
-1401.789685882396
 30
0.0
 11
1276.170514130475
 21
-1401.789685882396
 31
0.0
  0
LINE
  5
96
  8
PREDEFINITO
 10
1276.170514130475
 20
-1401.789685882396
 30
0.0
 11
1276.170514130475
 21
-1407.789685882396
 31
0.0
  0
LINE
  5
97
  8
PREDEFINITO
 10
1276.170514130475
 20
-1407.789685882396
 30
0.0
 11
1288.170514130475
 21
-1407.789685882396
 31
0.0
  0
LINE
  5
98
  8
PREDEFINITO
 10
1288.170514130475
 20
-1407.789685882396
 30
0.0
 11
1288.170514130475
 21
-1401.789685882396
 31
0.0
  0
LINE
  5
99
  8
PREDEFINITO
 10
1288.170514130475
 20
-1401.789685882396
 30
0.0
 11
1306.170514130475
 21
-1401.789685882396
 31
0.0
  0
LINE
  5
9A
  8
PREDEFINITO
 10
1306.170514130475
 20
-1401.789685882396
 30
0.0
 11
1306.170514130475
 21
-1407.789685882396
 31
0.0
  0
LINE
  5
9B
  8
PREDEFINITO
 10
1306.170514130475
 20
-1407.789685882396
 30
0.0
 11
1318.170514130475
 21
-1407.789685882396
 31
0.0
  0
LINE
  5
9C
  8
PREDEFINITO
 10
1318.170514130475
 20
-1407.789685882396
 30
0.0
 11
1318.170514130475
 21
-1401.789685882396
 31
0.0
  0
LINE
  5
9D
  8
PREDEFINITO
 10
1318.170514130475
 20
-1401.789685882396
 30
0.0
 11
1330.170514130475
 21
-1401.789685882396
 31
0.0
  0
LINE
  5
9E
  8
PREDEFINITO
 10
1330.170514130475
 20
-1401.789685882396
 30
0.0
 11
1330.170514130475
 21
-1407.789685882396
 31
0.0
  0
CIRCLE
  5
A0
  8
TUBBBI
 10
1338.670514130475
 20
-1473.249685882396
 30
0.0
 40
4.764999999999873
  0
CIRCLE
  5
A1
  8
TUBBBI
 10
1267.670514130475
 20
-1473.249685882396
 30
0.0
 40
4.7650000000001
  0
CIRCLE
  5
A2
  8
TUBBBI
 10
1267.670514130475
 20
-1326.349094721613
 30
0.0
 40
4.7650000000001
  0
CIRCLE
  5
A3
  8
TUBBBI
 10
1338.670514130475
 20
-1326.349094721613
 30
0.0
 40
4.764999999999873
  0
LINE
  5
A4
  8
PREDEFINITO
 10
1330.170514130475
 20
-1391.809094721613
 30
0.0
 11
1340.170514130476
 21
-1391.809094721613
 31
0.0
  0
LINE
  5
A5
  8
PREDEFINITO
 10
1340.170514130476
 20
-1391.809094721613
 30
0.0
 11
1360.210514130476
 21
-1391.809094721613
 31
0.0
  0
LINE
  5
A6
  8
PREDEFINITO
 10
1360.210514130476
 20
-1391.809094721613
 30
0.0
 11
1360.210514130476
 21
-1373.720306193534
 31
0.0
  0
LINE
  5
A7
  8
PREDEFINITO
 10
1360.210514130476
 20
-1373.720306193534
 30
0.0
 11
1360.210514130476
 21
-1363.720306193534
 31
0.0
  0
LINE
  5
A8
  8
PREDEFINITO
 10
1360.210514130476
 20
-1363.720306193534
 30
0.0
 11
1366.210514130476
 21
-1363.720306193534
 31
0.0
  0
LINE
  5
A9
  8
PREDEFINITO
 10
1366.210514130476
 20
-1363.720306193534
 30
0.0
 11
1366.210514130476
 21
-1351.720306193534
 31
0.0
  0
LINE
  5
AA
  8
PREDEFINITO
 10
1366.210514130476
 20
-1351.720306193534
 30
0.0
 11
1360.210514130476
 21
-1351.720306193534
 31
0.0
  0
LINE
  5
AB
  8
PREDEFINITO
 10
1360.210514130476
 20
-1351.720306193534
 30
0.0
 11
1360.210514130476
 21
-1333.309094721613
 31
0.0
  0
LINE
  5
AC
  8
PREDEFINITO
 10
1360.210514130476
 20
-1333.309094721613
 30
0.0
 11
1366.210514130476
 21
-1333.309094721613
 31
0.0
  0
LINE
  5
AD
  8
PREDEFINITO
 10
1366.210514130476
 20
-1333.309094721613
 30
0.0
 11
1366.210514130476
 21
-1321.309094721613
 31
0.0
  0
LINE
  5
AE
  8
PREDEFINITO
 10
1366.210514130476
 20
-1321.309094721613
 30
0.0
 11
1360.210514130476
 21
-1321.309094721613
 31
0.0
  0
LINE
  5
AF
  8
PREDEFINITO
 10
1360.210514130476
 20
-1321.309094721613
 30
0.0
 11
1360.210514130476
 21
-1309.397883249691
 31
0.0
  0
LINE
  5
B0
  8
PREDEFINITO
 10
1360.210514130476
 20
-1309.397883249691
 30
0.0
 11
1340.170514130476
 21
-1309.397883249691
 31
0.0
  0
LINE
  5
B1
  8
PREDEFINITO
 10
1340.170514130476
 20
-1309.397883249691
 30
0.0
 11
1330.170514130475
 21
-1309.397883249691
 31
0.0
  0
LINE
  5
B2
  8
PREDEFINITO
 10
1330.170514130475
 20
-1309.397883249691
 30
0.0
 11
1330.170514130475
 21
-1303.397883249691
 31
0.0
  0
LINE
  5
B3
  8
PREDEFINITO
 10
1330.170514130475
 20
-1303.397883249691
 30
0.0
 11
1318.170514130475
 21
-1303.397883249691
 31
0.0
  0
LINE
  5
B4
  8
PREDEFINITO
 10
1318.170514130475
 20
-1303.397883249691
 30
0.0
 11
1318.170514130475
 21
-1309.397883249691
 31
0.0
  0
LINE
  5
B5
  8
PREDEFINITO
 10
1318.170514130475
 20
-1309.397883249691
 30
0.0
 11
1306.170514130475
 21
-1309.397883249691
 31
0.0
  0
LINE
  5
B6
  8
PREDEFINITO
 10
1306.170514130475
 20
-1309.397883249691
 30
0.0
 11
1306.170514130475
 21
-1303.397883249691
 31
0.0
  0
LINE
  5
B7
  8
PREDEFINITO
 10
1306.170514130475
 20
-1303.397883249691
 30
0.0
 11
1288.170514130475
 21
-1303.397883249691
 31
0.0
  0
LINE
  5
B8
  8
PREDEFINITO
 10
1288.170514130475
 20
-1303.397883249691
 30
0.0
 11
1288.170514130475
 21
-1309.397883249691
 31
0.0
  0
LINE
  5
B9
  8
PREDEFINITO
 10
1288.170514130475
 20
-1309.397883249691
 30
0.0
 11
1276.170514130475
 21
-1309.397883249691
 31
0.0
  0
LINE
  5
BA
  8
PREDEFINITO
 10
1276.170514130475
 20
-1309.397883249691
 30
0.0
 11
1276.170514130475
 21
-1303.397883249691
 31
0.0
  0
LINE
  5
BB
  8
PREDEFINITO
 10
1276.170514130475
 20
-1303.397883249691
 30
0.0
 11
1264.170514130475
 21
-1303.397883249691
 31
0.0
  0
LINE
  5
BC
  8
PREDEFINITO
 10
1264.170514130475
 20
-1303.397883249691
 30
0.0
 11
1264.170514130475
 21
-1309.397883249691
 31
0.0
  0
LINE
  5
BD
  8
PREDEFINITO
 10
1264.170514130475
 20
-1309.397883249691
 30
0.0
 11
1250.130514130475
 21
-1309.397883249691
 31
0.0
  0
LINE
  5
BE
  8
PREDEFINITO
 10
1250.130514130475
 20
-1309.397883249691
 30
0.0
 11
1250.130514130475
 21
-1321.309094721613
 31
0.0
  0
LINE
  5
BF
  8
PREDEFINITO
 10
1250.130514130475
 20
-1321.309094721613
 30
0.0
 11
1244.130514130475
 21
-1321.309094721613
 31
0.0
  0
LINE
  5
C0
  8
PREDEFINITO
 10
1244.130514130475
 20
-1321.309094721613
 30
0.0
 11
1244.130514130475
 21
-1333.309094721613
 31
0.0
  0
LINE
  5
C1
  8
PREDEFINITO
 10
1244.130514130475
 20
-1333.309094721613
 30
0.0
 11
1250.130514130475
 21
-1333.309094721613
 31
0.0
  0
LINE
  5
C2
  8
PREDEFINITO
 10
1250.130514130475
 20
-1333.309094721613
 30
0.0
 11
1250.130514130475
 21
-1351.720306193534
 31
0.0
  0
LINE
  5
C3
  8
PREDEFINITO
 10
1250.130514130475
 20
-1351.720306193534
 30
0.0
 11
1244.130514130475
 21
-1351.720306193534
 31
0.0
  0
LINE
  5
C4
  8
PREDEFINITO
 10
1244.130514130475
 20
-1351.720306193534
 30
0.0
 11
1244.130514130475
 21
-1363.720306193534
 31
0.0
  0
LINE
  5
C5
  8
PREDEFINITO
 10
1244.130514130475
 20
-1363.720306193534
 30
0.0
 11
1250.130514130475
 21
-1363.720306193534
 31
0.0
  0
LINE
  5
C6
  8
PREDEFINITO
 10
1250.130514130475
 20
-1363.720306193534
 30
0.0
 11
1250.130514130475
 21
-1373.720306193534
 31
0.0
  0
LINE
  5
C7
  8
PREDEFINITO
 10
1250.130514130475
 20
-1373.720306193534
 30
0.0
 11
1250.130514130475
 21
-1391.809094721613
 31
0.0
  0
LINE
  5
C8
  8
PREDEFINITO
 10
1250.130514130475
 20
-1391.809094721613
 30
0.0
 11
1264.170514130475
 21
-1391.809094721613
 31
0.0
  0
LINE
  5
C9
  8
PREDEFINITO
 10
1264.170514130475
 20
-1391.809094721613
 30
0.0
 11
1264.170514130475
 21
-1397.809094721613
 31
0.0
  0
LINE
  5
CA
  8
PREDEFINITO
 10
1264.170514130475
 20
-1397.809094721613
 30
0.0
 11
1276.170514130475
 21
-1397.809094721613
 31
0.0
  0
LINE
  5
CB
  8
PREDEFINITO
 10
1276.170514130475
 20
-1397.809094721613
 30
0.0
 11
1276.170514130475
 21
-1391.809094721613
 31
0.0
  0
LINE
  5
CC
  8
PREDEFINITO
 10
1276.170514130475
 20
-1391.809094721613
 30
0.0
 11
1288.170514130475
 21
-1391.809094721613
 31
0.0
  0
LINE
  5
CD
  8
PREDEFINITO
 10
1288.170514130475
 20
-1391.809094721613
 30
0.0
 11
1288.170514130475
 21
-1397.809094721613
 31
0.0
  0
LINE
  5
CE
  8
PREDEFINITO
 10
1288.170514130475
 20
-1397.809094721613
 30
0.0
 11
1306.170514130475
 21
-1397.809094721613
 31
0.0
  0
LINE
  5
CF
  8
PREDEFINITO
 10
1306.170514130475
 20
-1397.809094721613
 30
0.0
 11
1306.170514130475
 21
-1391.809094721613
 31
0.0
  0
LINE
  5
D0
  8
PREDEFINITO
 10
1306.170514130475
 20
-1391.809094721613
 30
0.0
 11
1318.170514130475
 21
-1391.809094721613
 31
0.0
  0
LINE
  5
D1
  8
PREDEFINITO
 10
1318.170514130475
 20
-1391.809094721613
 30
0.0
 11
1318.170514130475
 21
-1397.809094721613
 31
0.0
  0
LINE
  5
D2
  8
PREDEFINITO
 10
1318.170514130475
 20
-1397.809094721613
 30
0.0
 11
1330.170514130475
 21
-1397.809094721613
 31
0.0
  0
LINE
  5
D3
  8
PREDEFINITO
 10
1330.170514130475
 20
-1397.809094721613
 30
0.0
 11
1330.170514130475
 21
-1391.809094721613
 31
0.0
  0
CIRCLE
  5
D4
  8
TUBBBI
 10
1288.120514130475
 20
-1315.259094721613
 30
0.0
 40
1.25
  0
CIRCLE
  5
D5
  8
TUBBBI
 10
1288.120514130475
 20
-1345.359094721613
 30
0.0
 40
1.25
  0
CIRCLE
  5
D6
  8
TUBBBI
 10
1318.220514130475
 20
-1345.359094721613
 30
0.0
 40
1.25
  0
CIRCLE
  5
D7
  8
TUBBBI
 10
1318.220514130475
 20
-1315.259094721613
 30
0.0
 40
1.25
  0
CIRCLE
  5
D8
  8
TUBBBI
 10
1303.170514130475
 20
-1330.309094721613
 30
0.0
 40
11.0
  0
CIRCLE
  5
D9
  8
TUBBBI
 10
1288.120514130475
 20
-1454.239685882397
 30
0.0
 40
1.25
  0
CIRCLE
  5
DA
  8
TUBBBI
 10
1288.120514130475
 20
-1484.339685882396
 30
0.0
 40
1.25
  0
CIRCLE
  5
DB
  8
TUBBBI
 10
1318.220514130475
 20
-1484.339685882396
 30
0.0
 40
1.25
  0
CIRCLE
  5
DC
  8
TUBBBI
 10
1318.220514130475
 20
-1454.239685882397
 30
0.0
 40
1.25
  0
CIRCLE
  5
DD
  8
TUBBBI
 10
1303.170514130475
 20
-1469.289685882397
 30
0.0
 40
11.0
  0
CIRCLE
  5
DE
  8
TUBBBI
 10
1433.093305327676
 20
-1330.992147854749
 30
0.0
 40
11.0
  0
CIRCLE
  5
DF
  8
TUBBBI
 10
1448.143305327676
 20
-1346.04214785475
 30
0.0
 40
1.25
  0
CIRCLE
  5
E0
  8
TUBBBI
 10
1448.143305327676
 20
-1315.942147854749
 30
0.0
 40
1.25
  0
CIRCLE
  5
E1
  8
TUBBBI
 10
1418.043305327676
 20
-1315.942147854749
 30
0.0
 40
1.25
  0
CIRCLE
  5
E2
  8
TUBBBI
 10
1418.043305327676
 20
-1346.04214785475
 30
0.0
 40
1.25
  0
CIRCLE
  5
E3
  8
TUBBBI
 10
1433.093305327676
 20
-1469.972739015534
 30
0.0
 40
11.00000000000023
  0
CIRCLE
  5
E4
  8
TUBBBI
 10
1448.143305327676
 20
-1485.022739015533
 30
0.0
 40
1.25
  0
CIRCLE
  5
E5
  8
TUBBBI
 10
1448.143305327676
 20
-1454.922739015534
 30
0.0
 40
1.25
  0
CIRCLE
  5
E6
  8
TUBBBI
 10
1418.043305327676
 20
-1454.922739015534
 30
0.0
 40
1.25
  0
CIRCLE
  5
E7
  8
TUBBBI
 10
1418.043305327676
 20
-1485.022739015533
 30
0.0
 40
1.25
  0
LINE
  5
E8
  8
PREDEFINITO
 10
1460.093305327676
 20
-1408.472739015533
 30
0.0
 11
1470.093305327677
 21
-1408.472739015533
 31
0.0
  0
LINE
  5
E9
  8
PREDEFINITO
 10
1470.093305327677
 20
-1408.472739015533
 30
0.0
 11
1490.133305327677
 21
-1408.472739015533
 31
0.0
  0
LINE
  5
EA
  8
PREDEFINITO
 10
1490.133305327677
 20
-1408.472739015533
 30
0.0
 11
1490.133305327677
 21
-1426.561527543612
 31
0.0
  0
LINE
  5
EB
  8
PREDEFINITO
 10
1490.133305327677
 20
-1426.561527543612
 30
0.0
 11
1490.133305327677
 21
-1436.561527543612
 31
0.0
  0
LINE
  5
EC
  8
PREDEFINITO
 10
1490.133305327677
 20
-1436.561527543612
 30
0.0
 11
1496.133305327677
 21
-1436.561527543612
 31
0.0
  0
LINE
  5
ED
  8
PREDEFINITO
 10
1496.133305327677
 20
-1436.561527543612
 30
0.0
 11
1496.133305327677
 21
-1448.561527543612
 31
0.0
  0
LINE
  5
EE
  8
PREDEFINITO
 10
1496.133305327677
 20
-1448.561527543612
 30
0.0
 11
1490.133305327677
 21
-1448.561527543612
 31
0.0
  0
LINE
  5
EF
  8
PREDEFINITO
 10
1490.133305327677
 20
-1448.561527543612
 30
0.0
 11
1490.133305327677
 21
-1466.972739015533
 31
0.0
  0
LINE
  5
F0
  8
PREDEFINITO
 10
1490.133305327677
 20
-1466.972739015533
 30
0.0
 11
1496.133305327677
 21
-1466.972739015533
 31
0.0
  0
LINE
  5
F1
  8
PREDEFINITO
 10
1496.133305327677
 20
-1466.972739015533
 30
0.0
 11
1496.133305327677
 21
-1478.972739015533
 31
0.0
  0
LINE
  5
F2
  8
PREDEFINITO
 10
1496.133305327677
 20
-1478.972739015533
 30
0.0
 11
1490.133305327677
 21
-1478.972739015533
 31
0.0
  0
LINE
  5
F3
  8
PREDEFINITO
 10
1490.133305327677
 20
-1478.972739015533
 30
0.0
 11
1490.133305327677
 21
-1490.883950487455
 31
0.0
  0
LINE
  5
F4
  8
PREDEFINITO
 10
1490.133305327677
 20
-1490.883950487455
 30
0.0
 11
1470.093305327677
 21
-1490.883950487455
 31
0.0
  0
LINE
  5
F5
  8
PREDEFINITO
 10
1470.093305327677
 20
-1490.883950487455
 30
0.0
 11
1460.093305327676
 21
-1490.883950487455
 31
0.0
  0
LINE
  5
F6
  8
PREDEFINITO
 10
1460.093305327676
 20
-1490.883950487455
 30
0.0
 11
1460.093305327676
 21
-1496.883950487455
 31
0.0
  0
LINE
  5
F7
  8
PREDEFINITO
 10
1460.093305327676
 20
-1496.883950487455
 30
0.0
 11
1448.093305327676
 21
-1496.883950487455
 31
0.0
  0
LINE
  5
F8
  8
PREDEFINITO
 10
1448.093305327676
 20
-1496.883950487455
 30
0.0
 11
1448.093305327676
 21
-1490.883950487455
 31
0.0
  0
LINE
  5
F9
  8
PREDEFINITO
 10
1448.093305327676
 20
-1490.883950487455
 30
0.0
 11
1436.093305327676
 21
-1490.883950487455
 31
0.0
  0
LINE
  5
FA
  8
PREDEFINITO
 10
1436.093305327676
 20
-1490.883950487455
 30
0.0
 11
1436.093305327676
 21
-1496.883950487455
 31
0.0
  0
LINE
  5
FB
  8
PREDEFINITO
 10
1436.093305327676
 20
-1496.883950487455
 30
0.0
 11
1418.093305327676
 21
-1496.883950487455
 31
0.0
  0
LINE
  5
FC
  8
PREDEFINITO
 10
1418.093305327676
 20
-1496.883950487455
 30
0.0
 11
1418.093305327676
 21
-1490.883950487455
 31
0.0
  0
LINE
  5
FD
  8
PREDEFINITO
 10
1418.093305327676
 20
-1490.883950487455
 30
0.0
 11
1406.093305327676
 21
-1490.883950487455
 31
0.0
  0
LINE
  5
FE
  8
PREDEFINITO
 10
1406.093305327676
 20
-1490.883950487455
 30
0.0
 11
1406.093305327676
 21
-1496.883950487455
 31
0.0
  0
LINE
  5
FF
  8
PREDEFINITO
 10
1406.093305327676
 20
-1496.883950487455
 30
0.0
 11
1394.093305327676
 21
-1496.883950487455
 31
0.0
  0
LINE
  5
100
  8
PREDEFINITO
 10
1394.093305327676
 20
-1496.883950487455
 30
0.0
 11
1394.093305327676
 21
-1490.883950487455
 31
0.0
  0
LINE
  5
101
  8
PREDEFINITO
 10
1394.093305327676
 20
-1490.883950487455
 30
0.0
 11
1380.053305327676
 21
-1490.883950487455
 31
0.0
  0
LINE
  5
102
  8
PREDEFINITO
 10
1380.053305327676
 20
-1490.883950487455
 30
0.0
 11
1380.053305327676
 21
-1478.972739015533
 31
0.0
  0
LINE
  5
103
  8
PREDEFINITO
 10
1380.053305327676
 20
-1478.972739015533
 30
0.0
 11
1374.053305327676
 21
-1478.972739015533
 31
0.0
  0
LINE
  5
104
  8
PREDEFINITO
 10
1374.053305327676
 20
-1478.972739015533
 30
0.0
 11
1374.053305327676
 21
-1466.972739015533
 31
0.0
  0
LINE
  5
105
  8
PREDEFINITO
 10
1374.053305327676
 20
-1466.972739015533
 30
0.0
 11
1380.053305327676
 21
-1466.972739015533
 31
0.0
  0
LINE
  5
106
  8
PREDEFINITO
 10
1380.053305327676
 20
-1466.972739015533
 30
0.0
 11
1380.053305327676
 21
-1448.561527543612
 31
0.0
  0
LINE
  5
107
  8
PREDEFINITO
 10
1380.053305327676
 20
-1448.561527543612
 30
0.0
 11
1374.053305327676
 21
-1448.561527543612
 31
0.0
  0
LINE
  5
108
  8
PREDEFINITO
 10
1374.053305327676
 20
-1448.561527543612
 30
0.0
 11
1374.053305327676
 21
-1436.561527543612
 31
0.0
  0
LINE
  5
109
  8
PREDEFINITO
 10
1374.053305327676
 20
-1436.561527543612
 30
0.0
 11
1380.053305327676
 21
-1436.561527543612
 31
0.0
  0
LINE
  5
10A
  8
PREDEFINITO
 10
1380.053305327676
 20
-1436.561527543612
 30
0.0
 11
1380.053305327676
 21
-1426.561527543612
 31
0.0
  0
LINE
  5
10B
  8
PREDEFINITO
 10
1380.053305327676
 20
-1426.561527543612
 30
0.0
 11
1380.053305327676
 21
-1408.472739015533
 31
0.0
  0
LINE
  5
10C
  8
PREDEFINITO
 10
1380.053305327676
 20
-1408.472739015533
 30
0.0
 11
1394.093305327676
 21
-1408.472739015533
 31
0.0
  0
LINE
  5
10D
  8
PREDEFINITO
 10
1394.093305327676
 20
-1408.472739015533
 30
0.0
 11
1394.093305327676
 21
-1402.472739015533
 31
0.0
  0
LINE
  5
10E
  8
PREDEFINITO
 10
1394.093305327676
 20
-1402.472739015533
 30
0.0
 11
1406.093305327676
 21
-1402.472739015533
 31
0.0
  0
LINE
  5
10F
  8
PREDEFINITO
 10
1406.093305327676
 20
-1402.472739015533
 30
0.0
 11
1406.093305327676
 21
-1408.472739015533
 31
0.0
  0
LINE
  5
110
  8
PREDEFINITO
 10
1406.093305327676
 20
-1408.472739015533
 30
0.0
 11
1418.093305327676
 21
-1408.472739015533
 31
0.0
  0
LINE
  5
111
  8
PREDEFINITO
 10
1418.093305327676
 20
-1408.472739015533
 30
0.0
 11
1418.093305327676
 21
-1402.472739015533
 31
0.0
  0
LINE
  5
112
  8
PREDEFINITO
 10
1418.093305327676
 20
-1402.472739015533
 30
0.0
 11
1436.093305327676
 21
-1402.472739015533
 31
0.0
  0
LINE
  5
113
  8
PREDEFINITO
 10
1436.093305327676
 20
-1402.472739015533
 30
0.0
 11
1436.093305327676
 21
-1408.472739015533
 31
0.0
  0
LINE
  5
114
  8
PREDEFINITO
 10
1436.093305327676
 20
-1408.472739015533
 30
0.0
 11
1448.093305327676
 21
-1408.472739015533
 31
0.0
  0
LINE
  5
115
  8
PREDEFINITO
 10
1448.093305327676
 20
-1408.472739015533
 30
0.0
 11
1448.093305327676
 21
-1402.472739015533
 31
0.0
  0
LINE
  5
116
  8
PREDEFINITO
 10
1448.093305327676
 20
-1402.472739015533
 30
0.0
 11
1460.093305327676
 21
-1402.472739015533
 31
0.0
  0
LINE
  5
117
  8
PREDEFINITO
 10
1460.093305327676
 20
-1402.472739015533
 30
0.0
 11
1460.093305327676
 21
-1408.472739015533
 31
0.0
  0
CIRCLE
  5
118
  8
TUBBBI
 10
1468.593305327676
 20
-1473.932739015533
 30
0.0
 40
4.764999999999873
  0
CIRCLE
  5
119
  8
TUBBBI
 10
1397.593305327676
 20
-1473.932739015533
 30
0.0
 40
4.7650000000001
  0
CIRCLE
  5
11A
  8
TUBBBI
 10
1397.593305327676
 20
-1327.03214785475
 30
0.0
 40
4.7650000000001
  0
CIRCLE
  5
11B
  8
TUBBBI
 10
1468.593305327676
 20
-1327.03214785475
 30
0.0
 40
4.764999999999873
  0
LINE
  5
11C
  8
PREDEFINITO
 10
1460.093305327676
 20
-1392.49214785475
 30
0.0
 11
1470.093305327677
 21
-1392.49214785475
 31
0.0
  0
LINE
  5
11D
  8
PREDEFINITO
 10
1470.093305327677
 20
-1392.49214785475
 30
0.0
 11
1490.133305327677
 21
-1392.49214785475
 31
0.0
  0
LINE
  5
11E
  8
PREDEFINITO
 10
1490.133305327677
 20
-1392.49214785475
 30
0.0
 11
1490.133305327677
 21
-1374.403359326671
 31
0.0
  0
LINE
  5
11F
  8
PREDEFINITO
 10
1490.133305327677
 20
-1374.403359326671
 30
0.0
 11
1490.133305327677
 21
-1364.403359326671
 31
0.0
  0
LINE
  5
120
  8
PREDEFINITO
 10
1490.133305327677
 20
-1364.403359326671
 30
0.0
 11
1496.133305327677
 21
-1364.403359326671
 31
0.0
  0
LINE
  5
121
  8
PREDEFINITO
 10
1496.133305327677
 20
-1364.403359326671
 30
0.0
 11
1496.133305327677
 21
-1352.403359326671
 31
0.0
  0
LINE
  5
122
  8
PREDEFINITO
 10
1496.133305327677
 20
-1352.403359326671
 30
0.0
 11
1490.133305327677
 21
-1352.403359326671
 31
0.0
  0
LINE
  5
123
  8
PREDEFINITO
 10
1490.133305327677
 20
-1352.403359326671
 30
0.0
 11
1490.133305327677
 21
-1333.99214785475
 31
0.0
  0
LINE
  5
124
  8
PREDEFINITO
 10
1490.133305327677
 20
-1333.99214785475
 30
0.0
 11
1496.133305327677
 21
-1333.99214785475
 31
0.0
  0
LINE
  5
125
  8
PREDEFINITO
 10
1496.133305327677
 20
-1333.99214785475
 30
0.0
 11
1496.133305327677
 21
-1321.99214785475
 31
0.0
  0
LINE
  5
126
  8
PREDEFINITO
 10
1496.133305327677
 20
-1321.99214785475
 30
0.0
 11
1490.133305327677
 21
-1321.99214785475
 31
0.0
  0
LINE
  5
127
  8
PREDEFINITO
 10
1490.133305327677
 20
-1321.99214785475
 30
0.0
 11
1490.133305327677
 21
-1310.080936382828
 31
0.0
  0
LINE
  5
128
  8
PREDEFINITO
 10
1490.133305327677
 20
-1310.080936382828
 30
0.0
 11
1470.093305327677
 21
-1310.080936382828
 31
0.0
  0
LINE
  5
129
  8
PREDEFINITO
 10
1470.093305327677
 20
-1310.080936382828
 30
0.0
 11
1460.093305327676
 21
-1310.080936382828
 31
0.0
  0
LINE
  5
12A
  8
PREDEFINITO
 10
1460.093305327676
 20
-1310.080936382828
 30
0.0
 11
1460.093305327676
 21
-1304.080936382828
 31
0.0
  0
LINE
  5
12B
  8
PREDEFINITO
 10
1460.093305327676
 20
-1304.080936382828
 30
0.0
 11
1448.093305327676
 21
-1304.080936382828
 31
0.0
  0
LINE
  5
12C
  8
PREDEFINITO
 10
1448.093305327676
 20
-1304.080936382828
 30
0.0
 11
1448.093305327676
 21
-1310.080936382828
 31
0.0
  0
LINE
  5
12D
  8
PREDEFINITO
 10
1448.093305327676
 20
-1310.080936382828
 30
0.0
 11
1436.093305327676
 21
-1310.080936382828
 31
0.0
  0
LINE
  5
12E
  8
PREDEFINITO
 10
1436.093305327676
 20
-1310.080936382828
 30
0.0
 11
1436.093305327676
 21
-1304.080936382828
 31
0.0
  0
LINE
  5
12F
  8
PREDEFINITO
 10
1436.093305327676
 20
-1304.080936382828
 30
0.0
 11
1418.093305327676
 21
-1304.080936382828
 31
0.0
  0
LINE
  5
130
  8
PREDEFINITO
 10
1418.093305327676
 20
-1304.080936382828
 30
0.0
 11
1418.093305327676
 21
-1310.080936382828
 31
0.0
  0
LINE
  5
131
  8
PREDEFINITO
 10
1418.093305327676
 20
-1310.080936382828
 30
0.0
 11
1406.093305327676
 21
-1310.080936382828
 31
0.0
  0
LINE
  5
132
  8
PREDEFINITO
 10
1406.093305327676
 20
-1310.080936382828
 30
0.0
 11
1406.093305327676
 21
-1304.080936382828
 31
0.0
  0
LINE
  5
133
  8
PREDEFINITO
 10
1406.093305327676
 20
-1304.080936382828
 30
0.0
 11
1394.093305327676
 21
-1304.080936382828
 31
0.0
  0
LINE
  5
134
  8
PREDEFINITO
 10
1394.093305327676
 20
-1304.080936382828
 30
0.0
 11
1394.093305327676
 21
-1310.080936382828
 31
0.0
  0
LINE
  5
135
  8
PREDEFINITO
 10
1394.093305327676
 20
-1310.080936382828
 30
0.0
 11
1380.053305327676
 21
-1310.080936382828
 31
0.0
  0
LINE
  5
136
  8
PREDEFINITO
 10
1380.053305327676
 20
-1310.080936382828
 30
0.0
 11
1380.053305327676
 21
-1321.99214785475
 31
0.0
  0
LINE
  5
137
  8
PREDEFINITO
 10
1380.053305327676
 20
-1321.99214785475
 30
0.0
 11
1374.053305327676
 21
-1321.99214785475
 31
0.0
  0
LINE
  5
138
  8
PREDEFINITO
 10
1374.053305327676
 20
-1321.99214785475
 30
0.0
 11
1374.053305327676
 21
-1333.99214785475
 31
0.0
  0
LINE
  5
139
  8
PREDEFINITO
 10
1374.053305327676
 20
-1333.99214785475
 30
0.0
 11
1380.053305327676
 21
-1333.99214785475
 31
0.0
  0
LINE
  5
13A
  8
PREDEFINITO
 10
1380.053305327676
 20
-1333.99214785475
 30
0.0
 11
1380.053305327676
 21
-1352.403359326671
 31
0.0
  0
LINE
  5
13B
  8
PREDEFINITO
 10
1380.053305327676
 20
-1352.403359326671
 30
0.0
 11
1374.053305327676
 21
-1352.403359326671
 31
0.0
  0
LINE
  5
13C
  8
PREDEFINITO
 10
1374.053305327676
 20
-1352.403359326671
 30
0.0
 11
1374.053305327676
 21
-1364.403359326671
 31
0.0
  0
LINE
  5
13D
  8
PREDEFINITO
 10
1374.053305327676
 20
-1364.403359326671
 30
0.0
 11
1380.053305327676
 21
-1364.403359326671
 31
0.0
  0
LINE
  5
13E
  8
PREDEFINITO
 10
1380.053305327676
 20
-1364.403359326671
 30
0.0
 11
1380.053305327676
 21
-1374.403359326671
 31
0.0
  0
LINE
  5
13F
  8
PREDEFINITO
 10
1380.053305327676
 20
-1374.403359326671
 30
0.0
 11
1380.053305327676
 21
-1392.49214785475
 31
0.0
  0
LINE
  5
140
  8
PREDEFINITO
 10
1380.053305327676
 20
-1392.49214785475
 30
0.0
 11
1394.093305327676
 21
-1392.49214785475
 31
0.0
  0
LINE
  5
141
  8
PREDEFINITO
 10
1394.093305327676
 20
-1392.49214785475
 30
0.0
 11
1394.093305327676
 21
-1398.49214785475
 31
0.0
  0
LINE
  5
142
  8
PREDEFINITO
 10
1394.093305327676
 20
-1398.49214785475
 30
0.0
 11
1406.093305327676
 21
-1398.49214785475
 31
0.0
  0
LINE
  5
143
  8
PREDEFINITO
 10
1406.093305327676
 20
-1398.49214785475
 30
0.0
 11
1406.093305327676
 21
-1392.49214785475
 31
0.0
  0
LINE
  5
144
  8
PREDEFINITO
 10
1406.093305327676
 20
-1392.49214785475
 30
0.0
 11
1418.093305327676
 21
-1392.49214785475
 31
0.0
  0
LINE
  5
145
  8
PREDEFINITO
 10
1418.093305327676
 20
-1392.49214785475
 30
0.0
 11
1418.093305327676
 21
-1398.49214785475
 31
0.0
  0
LINE
  5
146
  8
PREDEFINITO
 10
1418.093305327676
 20
-1398.49214785475
 30
0.0
 11
1436.093305327676
 21
-1398.49214785475
 31
0.0
  0
LINE
  5
147
  8
PREDEFINITO
 10
1436.093305327676
 20
-1398.49214785475
 30
0.0
 11
1436.093305327676
 21
-1392.49214785475
 31
0.0
  0
LINE
  5
148
  8
PREDEFINITO
 10
1436.093305327676
 20
-1392.49214785475
 30
0.0
 11
1448.093305327676
 21
-1392.49214785475
 31
0.0
  0
LINE
  5
149
  8
PREDEFINITO
 10
1448.093305327676
 20
-1392.49214785475
 30
0.0
 11
1448.093305327676
 21
-1398.49214785475
 31
0.0
  0
LINE
  5
14A
  8
PREDEFINITO
 10
1448.093305327676
 20
-1398.49214785475
 30
0.0
 11
1460.093305327676
 21
-1398.49214785475
 31
0.0
  0
LINE
  5
14B
  8
PREDEFINITO
 10
1460.093305327676
 20
-1398.49214785475
 30
0.0
 11
1460.093305327676
 21
-1392.49214785475
 31
0.0
  0
LINE
  5
14C
  8
PREDEFINITO
 10
1361.436840214044
 20
-1145.095373009619
 30
0.0
 11
1361.436840214044
 21
-1114.684161537697
 31
0.0
  0
LINE
  5
14D
  8
PREDEFINITO
 10
1361.436840214044
 20
-1114.684161537697
 30
0.0
 11
1361.436840214044
 21
-1104.684161537697
 31
0.0
  0
LINE
  5
14E
  8
PREDEFINITO
 10
1361.436840214044
 20
-1104.684161537697
 30
0.0
 11
1367.436840214044
 21
-1104.684161537697
 31
0.0
  0
LINE
  5
14F
  8
PREDEFINITO
 10
1367.436840214044
 20
-1104.684161537697
 30
0.0
 11
1367.436840214044
 21
-1092.684161537697
 31
0.0
  0
LINE
  5
150
  8
PREDEFINITO
 10
1367.436840214044
 20
-1092.684161537697
 30
0.0
 11
1361.436840214044
 21
-1092.684161537697
 31
0.0
  0
LINE
  5
151
  8
PREDEFINITO
 10
1361.436840214044
 20
-1092.684161537697
 30
0.0
 11
1361.436840214044
 21
-1086.684161537697
 31
0.0
  0
LINE
  5
152
  8
PREDEFINITO
 10
1361.436840214044
 20
-1086.684161537697
 30
0.0
 11
1367.436840214044
 21
-1086.684161537697
 31
0.0
  0
LINE
  5
153
  8
PREDEFINITO
 10
1367.436840214044
 20
-1086.684161537697
 30
0.0
 11
1367.436840214044
 21
-1080.684161537697
 31
0.0
  0
LINE
  5
154
  8
PREDEFINITO
 10
1367.436840214044
 20
-1080.684161537697
 30
0.0
 11
1355.436840214044
 21
-1080.684161537697
 31
0.0
  0
LINE
  5
155
  8
PREDEFINITO
 10
1355.436840214044
 20
-1080.684161537697
 30
0.0
 11
1355.436840214044
 21
-1074.684161537697
 31
0.0
  0
LINE
  5
156
  8
PREDEFINITO
 10
1355.436840214044
 20
-1074.684161537697
 30
0.0
 11
1349.436840214044
 21
-1074.684161537697
 31
0.0
  0
LINE
  5
157
  8
PREDEFINITO
 10
1349.436840214044
 20
-1074.684161537697
 30
0.0
 11
1349.436840214044
 21
-1080.684161537697
 31
0.0
  0
LINE
  5
158
  8
PREDEFINITO
 10
1349.436840214044
 20
-1080.684161537697
 30
0.0
 11
1343.436840214044
 21
-1080.684161537697
 31
0.0
  0
LINE
  5
159
  8
PREDEFINITO
 10
1343.436840214044
 20
-1080.684161537697
 30
0.0
 11
1343.436840214044
 21
-1074.684161537697
 31
0.0
  0
LINE
  5
15A
  8
PREDEFINITO
 10
1343.436840214044
 20
-1074.684161537697
 30
0.0
 11
1337.436840214044
 21
-1074.684161537697
 31
0.0
  0
LINE
  5
15B
  8
PREDEFINITO
 10
1337.436840214044
 20
-1074.684161537697
 30
0.0
 11
1337.436840214044
 21
-1080.684161537697
 31
0.0
  0
LINE
  5
15C
  8
PREDEFINITO
 10
1337.436840214044
 20
-1080.684161537697
 30
0.0
 11
1325.436840214044
 21
-1080.684161537697
 31
0.0
  0
LINE
  5
15D
  8
PREDEFINITO
 10
1325.436840214044
 20
-1080.684161537697
 30
0.0
 11
1325.436840214044
 21
-1074.684161537697
 31
0.0
  0
LINE
  5
15E
  8
PREDEFINITO
 10
1325.436840214044
 20
-1074.684161537697
 30
0.0
 11
1291.356840214044
 21
-1074.684161537697
 31
0.0
  0
LINE
  5
15F
  8
PREDEFINITO
 10
1291.356840214044
 20
-1074.684161537697
 30
0.0
 11
1291.356840214044
 21
-1080.684161537697
 31
0.0
  0
LINE
  5
160
  8
PREDEFINITO
 10
1291.356840214044
 20
-1080.684161537697
 30
0.0
 11
1279.356840214044
 21
-1080.684161537697
 31
0.0
  0
LINE
  5
161
  8
PREDEFINITO
 10
1279.356840214044
 20
-1080.684161537697
 30
0.0
 11
1279.356840214044
 21
-1074.684161537697
 31
0.0
  0
LINE
  5
162
  8
PREDEFINITO
 10
1279.356840214044
 20
-1074.684161537697
 30
0.0
 11
1273.356840214044
 21
-1074.684161537697
 31
0.0
  0
LINE
  5
163
  8
PREDEFINITO
 10
1273.356840214044
 20
-1074.684161537697
 30
0.0
 11
1273.356840214044
 21
-1080.684161537697
 31
0.0
  0
LINE
  5
164
  8
PREDEFINITO
 10
1273.356840214044
 20
-1080.684161537697
 30
0.0
 11
1267.356840214044
 21
-1080.684161537697
 31
0.0
  0
LINE
  5
165
  8
PREDEFINITO
 10
1267.356840214044
 20
-1080.684161537697
 30
0.0
 11
1267.356840214044
 21
-1074.684161537697
 31
0.0
  0
LINE
  5
166
  8
PREDEFINITO
 10
1267.356840214044
 20
-1074.684161537697
 30
0.0
 11
1261.356840214044
 21
-1074.684161537697
 31
0.0
  0
LINE
  5
167
  8
PREDEFINITO
 10
1261.356840214044
 20
-1074.684161537697
 30
0.0
 11
1261.356840214044
 21
-1080.684161537697
 31
0.0
  0
LINE
  5
168
  8
PREDEFINITO
 10
1261.356840214044
 20
-1080.684161537697
 30
0.0
 11
1251.356840214044
 21
-1080.684161537697
 31
0.0
  0
LINE
  5
169
  8
PREDEFINITO
 10
1251.356840214044
 20
-1080.684161537697
 30
0.0
 11
1245.356840214044
 21
-1080.684161537697
 31
0.0
  0
LINE
  5
16A
  8
PREDEFINITO
 10
1245.356840214044
 20
-1080.684161537697
 30
0.0
 11
1245.356840214044
 21
-1086.684161537697
 31
0.0
  0
LINE
  5
16B
  8
PREDEFINITO
 10
1245.356840214044
 20
-1086.684161537697
 30
0.0
 11
1251.356840214044
 21
-1086.684161537697
 31
0.0
  0
LINE
  5
16C
  8
PREDEFINITO
 10
1251.356840214044
 20
-1086.684161537697
 30
0.0
 11
1251.356840214044
 21
-1092.684161537697
 31
0.0
  0
LINE
  5
16D
  8
PREDEFINITO
 10
1251.356840214044
 20
-1092.684161537697
 30
0.0
 11
1245.356840214044
 21
-1092.684161537697
 31
0.0
  0
LINE
  5
16E
  8
PREDEFINITO
 10
1245.356840214044
 20
-1092.684161537697
 30
0.0
 11
1245.356840214044
 21
-1104.684161537697
 31
0.0
  0
LINE
  5
16F
  8
PREDEFINITO
 10
1245.356840214044
 20
-1104.684161537697
 30
0.0
 11
1251.356840214044
 21
-1104.684161537697
 31
0.0
  0
LINE
  5
170
  8
PREDEFINITO
 10
1251.356840214044
 20
-1104.684161537697
 30
0.0
 11
1251.356840214044
 21
-1114.684161537697
 31
0.0
  0
LINE
  5
171
  8
PREDEFINITO
 10
1251.356840214044
 20
-1114.684161537697
 30
0.0
 11
1251.356840214044
 21
-1145.095373009619
 31
0.0
  0
LINE
  5
172
  8
PREDEFINITO
 10
1251.356840214044
 20
-1145.095373009619
 30
0.0
 11
1245.356840214044
 21
-1145.095373009619
 31
0.0
  0
LINE
  5
173
  8
PREDEFINITO
 10
1245.356840214044
 20
-1145.095373009619
 30
0.0
 11
1245.356840214044
 21
-1157.095373009619
 31
0.0
  0
LINE
  5
174
  8
PREDEFINITO
 10
1245.356840214044
 20
-1157.095373009619
 30
0.0
 11
1251.356840214044
 21
-1157.095373009619
 31
0.0
  0
LINE
  5
175
  8
PREDEFINITO
 10
1251.356840214044
 20
-1157.095373009619
 30
0.0
 11
1251.356840214044
 21
-1163.095373009619
 31
0.0
  0
LINE
  5
176
  8
PREDEFINITO
 10
1251.356840214044
 20
-1163.095373009619
 30
0.0
 11
1245.356840214044
 21
-1163.095373009619
 31
0.0
  0
LINE
  5
177
  8
PREDEFINITO
 10
1245.356840214044
 20
-1163.095373009619
 30
0.0
 11
1245.356840214044
 21
-1169.184161537697
 31
0.0
  0
LINE
  5
178
  8
PREDEFINITO
 10
1245.356840214044
 20
-1169.184161537697
 30
0.0
 11
1255.356840214044
 21
-1169.184161537697
 31
0.0
  0
LINE
  5
179
  8
PREDEFINITO
 10
1255.356840214044
 20
-1169.184161537697
 30
0.0
 11
1273.356840214044
 21
-1169.184161537697
 31
0.0
  0
LINE
  5
17A
  8
PREDEFINITO
 10
1273.356840214044
 20
-1169.184161537697
 30
0.0
 11
1273.356840214044
 21
-1163.184161537697
 31
0.0
  0
LINE
  5
17B
  8
PREDEFINITO
 10
1273.356840214044
 20
-1163.184161537697
 30
0.0
 11
1285.356840214044
 21
-1163.184161537697
 31
0.0
  0
LINE
  5
17C
  8
PREDEFINITO
 10
1285.356840214044
 20
-1163.184161537697
 30
0.0
 11
1285.356840214044
 21
-1169.184161537697
 31
0.0
  0
LINE
  5
17D
  8
PREDEFINITO
 10
1285.356840214044
 20
-1169.184161537697
 30
0.0
 11
1297.356840214044
 21
-1169.184161537697
 31
0.0
  0
LINE
  5
17E
  8
PREDEFINITO
 10
1297.356840214044
 20
-1169.184161537697
 30
0.0
 11
1297.356840214044
 21
-1163.184161537697
 31
0.0
  0
LINE
  5
17F
  8
PREDEFINITO
 10
1297.356840214044
 20
-1163.184161537697
 30
0.0
 11
1325.436840214044
 21
-1163.184161537697
 31
0.0
  0
LINE
  5
180
  8
PREDEFINITO
 10
1325.436840214044
 20
-1163.184161537697
 30
0.0
 11
1325.436840214044
 21
-1169.184161537697
 31
0.0
  0
LINE
  5
181
  8
PREDEFINITO
 10
1325.436840214044
 20
-1169.184161537697
 30
0.0
 11
1337.436840214044
 21
-1169.184161537697
 31
0.0
  0
LINE
  5
182
  8
PREDEFINITO
 10
1337.436840214044
 20
-1169.184161537697
 30
0.0
 11
1337.436840214044
 21
-1163.184161537697
 31
0.0
  0
LINE
  5
183
  8
PREDEFINITO
 10
1337.436840214044
 20
-1163.184161537697
 30
0.0
 11
1349.436840214044
 21
-1163.184161537697
 31
0.0
  0
LINE
  5
184
  8
PREDEFINITO
 10
1349.436840214044
 20
-1163.184161537697
 30
0.0
 11
1349.436840214044
 21
-1169.184161537697
 31
0.0
  0
LINE
  5
185
  8
PREDEFINITO
 10
1349.436840214044
 20
-1169.184161537697
 30
0.0
 11
1367.436840214044
 21
-1169.184161537697
 31
0.0
  0
LINE
  5
186
  8
PREDEFINITO
 10
1367.436840214044
 20
-1169.184161537697
 30
0.0
 11
1367.436840214044
 21
-1163.095373009619
 31
0.0
  0
LINE
  5
187
  8
PREDEFINITO
 10
1367.436840214044
 20
-1163.095373009619
 30
0.0
 11
1361.436840214044
 21
-1163.095373009619
 31
0.0
  0
LINE
  5
188
  8
PREDEFINITO
 10
1361.436840214044
 20
-1163.095373009619
 30
0.0
 11
1361.436840214044
 21
-1157.095373009619
 31
0.0
  0
LINE
  5
189
  8
PREDEFINITO
 10
1361.436840214044
 20
-1157.095373009619
 30
0.0
 11
1367.436840214044
 21
-1157.095373009619
 31
0.0
  0
LINE
  5
18A
  8
PREDEFINITO
 10
1367.436840214044
 20
-1157.095373009619
 30
0.0
 11
1367.436840214044
 21
-1145.095373009619
 31
0.0
  0
LINE
  5
18B
  8
PREDEFINITO
 10
1367.436840214044
 20
-1145.095373009619
 30
0.0
 11
1361.436840214044
 21
-1145.095373009619
 31
0.0
  0
CIRCLE
  5
18C
  8
TUBBBI
 10
1273.8860913734
 20
-1258.238557713896
 30
0.0
 40
4.764999999999873
  0
CIRCLE
  5
18D
  8
TUBBBI
 10
1344.8860913734
 20
-1258.238557713896
 30
0.0
 40
4.7650000000001
  0
LINE
  5
18E
  8
PREDEFINITO
 10
1252.3460913734
 20
-1192.867346241975
 30
0.0
 11
1246.3460913734
 21
-1192.867346241975
 31
0.0
  0
LINE
  5
18F
  8
PREDEFINITO
 10
1246.3460913734
 20
-1192.867346241975
 30
0.0
 11
1246.3460913734
 21
-1186.778557713896
 31
0.0
  0
LINE
  5
190
  8
PREDEFINITO
 10
1246.3460913734
 20
-1186.778557713896
 30
0.0
 11
1256.3460913734
 21
-1186.778557713896
 31
0.0
  0
LINE
  5
191
  8
PREDEFINITO
 10
1256.3460913734
 20
-1186.778557713896
 30
0.0
 11
1274.3460913734
 21
-1186.778557713896
 31
0.0
  0
LINE
  5
192
  8
PREDEFINITO
 10
1274.3460913734
 20
-1186.778557713896
 30
0.0
 11
1274.3460913734
 21
-1192.778557713896
 31
0.0
  0
LINE
  5
193
  8
PREDEFINITO
 10
1274.3460913734
 20
-1192.778557713896
 30
0.0
 11
1286.3460913734
 21
-1192.778557713896
 31
0.0
  0
LINE
  5
194
  8
PREDEFINITO
 10
1286.3460913734
 20
-1192.778557713896
 30
0.0
 11
1286.3460913734
 21
-1186.778557713896
 31
0.0
  0
LINE
  5
195
  8
PREDEFINITO
 10
1286.3460913734
 20
-1186.778557713896
 30
0.0
 11
1298.3460913734
 21
-1186.778557713896
 31
0.0
  0
LINE
  5
196
  8
PREDEFINITO
 10
1298.3460913734
 20
-1186.778557713896
 30
0.0
 11
1298.3460913734
 21
-1192.778557713896
 31
0.0
  0
LINE
  5
197
  8
PREDEFINITO
 10
1298.3460913734
 20
-1192.778557713896
 30
0.0
 11
1326.4260913734
 21
-1192.778557713896
 31
0.0
  0
LINE
  5
198
  8
PREDEFINITO
 10
1326.4260913734
 20
-1192.778557713896
 30
0.0
 11
1326.4260913734
 21
-1186.778557713896
 31
0.0
  0
LINE
  5
199
  8
PREDEFINITO
 10
1326.4260913734
 20
-1186.778557713896
 30
0.0
 11
1338.4260913734
 21
-1186.778557713896
 31
0.0
  0
LINE
  5
19A
  8
PREDEFINITO
 10
1338.4260913734
 20
-1186.778557713896
 30
0.0
 11
1338.4260913734
 21
-1192.778557713896
 31
0.0
  0
LINE
  5
19B
  8
PREDEFINITO
 10
1338.4260913734
 20
-1192.778557713896
 30
0.0
 11
1350.4260913734
 21
-1192.778557713896
 31
0.0
  0
LINE
  5
19C
  8
PREDEFINITO
 10
1350.4260913734
 20
-1192.778557713896
 30
0.0
 11
1350.4260913734
 21
-1186.778557713896
 31
0.0
  0
LINE
  5
19D
  8
PREDEFINITO
 10
1350.4260913734
 20
-1186.778557713896
 30
0.0
 11
1368.4260913734
 21
-1186.778557713896
 31
0.0
  0
LINE
  5
19E
  8
PREDEFINITO
 10
1368.4260913734
 20
-1186.778557713896
 30
0.0
 11
1368.4260913734
 21
-1192.867346241975
 31
0.0
  0
LINE
  5
19F
  8
PREDEFINITO
 10
1368.4260913734
 20
-1192.867346241975
 30
0.0
 11
1362.4260913734
 21
-1192.867346241975
 31
0.0
  0
LINE
  5
1A0
  8
PREDEFINITO
 10
1362.4260913734
 20
-1192.867346241975
 30
0.0
 11
1362.4260913734
 21
-1198.867346241975
 31
0.0
  0
LINE
  5
1A1
  8
PREDEFINITO
 10
1362.4260913734
 20
-1198.867346241975
 30
0.0
 11
1368.4260913734
 21
-1198.867346241975
 31
0.0
  0
LINE
  5
1A2
  8
PREDEFINITO
 10
1368.4260913734
 20
-1198.867346241975
 30
0.0
 11
1368.4260913734
 21
-1210.867346241975
 31
0.0
  0
LINE
  5
1A3
  8
PREDEFINITO
 10
1368.4260913734
 20
-1210.867346241975
 30
0.0
 11
1362.4260913734
 21
-1210.867346241975
 31
0.0
  0
LINE
  5
1A4
  8
PREDEFINITO
 10
1362.4260913734
 20
-1210.867346241975
 30
0.0
 11
1362.4260913734
 21
-1241.278557713896
 31
0.0
  0
LINE
  5
1A5
  8
PREDEFINITO
 10
1362.4260913734
 20
-1241.278557713896
 30
0.0
 11
1362.4260913734
 21
-1251.278557713896
 31
0.0
  0
LINE
  5
1A6
  8
PREDEFINITO
 10
1362.4260913734
 20
-1251.278557713896
 30
0.0
 11
1368.4260913734
 21
-1251.278557713896
 31
0.0
  0
LINE
  5
1A7
  8
PREDEFINITO
 10
1368.4260913734
 20
-1251.278557713896
 30
0.0
 11
1368.4260913734
 21
-1263.278557713896
 31
0.0
  0
LINE
  5
1A8
  8
PREDEFINITO
 10
1368.4260913734
 20
-1263.278557713896
 30
0.0
 11
1362.4260913734
 21
-1263.278557713896
 31
0.0
  0
LINE
  5
1A9
  8
PREDEFINITO
 10
1362.4260913734
 20
-1263.278557713896
 30
0.0
 11
1362.4260913734
 21
-1269.278557713896
 31
0.0
  0
LINE
  5
1AA
  8
PREDEFINITO
 10
1362.4260913734
 20
-1269.278557713896
 30
0.0
 11
1368.4260913734
 21
-1269.278557713896
 31
0.0
  0
LINE
  5
1AB
  8
PREDEFINITO
 10
1368.4260913734
 20
-1269.278557713896
 30
0.0
 11
1368.4260913734
 21
-1275.278557713896
 31
0.0
  0
LINE
  5
1AC
  8
PREDEFINITO
 10
1368.4260913734
 20
-1275.278557713896
 30
0.0
 11
1356.4260913734
 21
-1275.278557713896
 31
0.0
  0
LINE
  5
1AD
  8
PREDEFINITO
 10
1356.4260913734
 20
-1275.278557713896
 30
0.0
 11
1356.4260913734
 21
-1281.278557713896
 31
0.0
  0
LINE
  5
1AE
  8
PREDEFINITO
 10
1356.4260913734
 20
-1281.278557713896
 30
0.0
 11
1350.4260913734
 21
-1281.278557713896
 31
0.0
  0
LINE
  5
1AF
  8
PREDEFINITO
 10
1350.4260913734
 20
-1281.278557713896
 30
0.0
 11
1350.4260913734
 21
-1275.278557713896
 31
0.0
  0
LINE
  5
1B0
  8
PREDEFINITO
 10
1350.4260913734
 20
-1275.278557713896
 30
0.0
 11
1344.4260913734
 21
-1275.278557713896
 31
0.0
  0
LINE
  5
1B1
  8
PREDEFINITO
 10
1344.4260913734
 20
-1275.278557713896
 30
0.0
 11
1344.4260913734
 21
-1281.278557713896
 31
0.0
  0
LINE
  5
1B2
  8
PREDEFINITO
 10
1344.4260913734
 20
-1281.278557713896
 30
0.0
 11
1338.4260913734
 21
-1281.278557713896
 31
0.0
  0
LINE
  5
1B3
  8
PREDEFINITO
 10
1338.4260913734
 20
-1281.278557713896
 30
0.0
 11
1338.4260913734
 21
-1275.278557713896
 31
0.0
  0
LINE
  5
1B4
  8
PREDEFINITO
 10
1338.4260913734
 20
-1275.278557713896
 30
0.0
 11
1326.4260913734
 21
-1275.278557713896
 31
0.0
  0
LINE
  5
1B5
  8
PREDEFINITO
 10
1326.4260913734
 20
-1275.278557713896
 30
0.0
 11
1326.4260913734
 21
-1281.278557713896
 31
0.0
  0
LINE
  5
1B6
  8
PREDEFINITO
 10
1326.4260913734
 20
-1281.278557713896
 30
0.0
 11
1292.3460913734
 21
-1281.278557713896
 31
0.0
  0
LINE
  5
1B7
  8
PREDEFINITO
 10
1292.3460913734
 20
-1281.278557713896
 30
0.0
 11
1292.3460913734
 21
-1275.278557713896
 31
0.0
  0
LINE
  5
1B8
  8
PREDEFINITO
 10
1292.3460913734
 20
-1275.278557713896
 30
0.0
 11
1280.3460913734
 21
-1275.278557713896
 31
0.0
  0
LINE
  5
1B9
  8
PREDEFINITO
 10
1280.3460913734
 20
-1275.278557713896
 30
0.0
 11
1280.3460913734
 21
-1281.278557713896
 31
0.0
  0
LINE
  5
1BA
  8
PREDEFINITO
 10
1280.3460913734
 20
-1281.278557713896
 30
0.0
 11
1274.3460913734
 21
-1281.278557713896
 31
0.0
  0
LINE
  5
1BB
  8
PREDEFINITO
 10
1274.3460913734
 20
-1281.278557713896
 30
0.0
 11
1274.3460913734
 21
-1275.278557713896
 31
0.0
  0
LINE
  5
1BC
  8
PREDEFINITO
 10
1274.3460913734
 20
-1275.278557713896
 30
0.0
 11
1268.3460913734
 21
-1275.278557713896
 31
0.0
  0
LINE
  5
1BD
  8
PREDEFINITO
 10
1268.3460913734
 20
-1275.278557713896
 30
0.0
 11
1268.3460913734
 21
-1281.278557713896
 31
0.0
  0
LINE
  5
1BE
  8
PREDEFINITO
 10
1268.3460913734
 20
-1281.278557713896
 30
0.0
 11
1262.3460913734
 21
-1281.278557713896
 31
0.0
  0
LINE
  5
1BF
  8
PREDEFINITO
 10
1262.3460913734
 20
-1281.278557713896
 30
0.0
 11
1252.3460913734
 21
-1281.278557713896
 31
0.0
  0
LINE
  5
1C0
  8
PREDEFINITO
 10
1252.3460913734
 20
-1281.278557713896
 30
0.0
 11
1252.3460913734
 21
-1275.278557713896
 31
0.0
  0
LINE
  5
1C1
  8
PREDEFINITO
 10
1252.3460913734
 20
-1275.278557713896
 30
0.0
 11
1246.3460913734
 21
-1275.278557713896
 31
0.0
  0
LINE
  5
1C2
  8
PREDEFINITO
 10
1246.3460913734
 20
-1275.278557713896
 30
0.0
 11
1246.3460913734
 21
-1269.278557713896
 31
0.0
  0
LINE
  5
1C3
  8
PREDEFINITO
 10
1246.3460913734
 20
-1269.278557713896
 30
0.0
 11
1252.3460913734
 21
-1269.278557713896
 31
0.0
  0
LINE
  5
1C4
  8
PREDEFINITO
 10
1252.3460913734
 20
-1269.278557713896
 30
0.0
 11
1252.3460913734
 21
-1263.278557713896
 31
0.0
  0
LINE
  5
1C5
  8
PREDEFINITO
 10
1252.3460913734
 20
-1263.278557713896
 30
0.0
 11
1246.3460913734
 21
-1263.278557713896
 31
0.0
  0
LINE
  5
1C6
  8
PREDEFINITO
 10
1246.3460913734
 20
-1263.278557713896
 30
0.0
 11
1246.3460913734
 21
-1251.278557713896
 31
0.0
  0
LINE
  5
1C7
  8
PREDEFINITO
 10
1246.3460913734
 20
-1251.278557713896
 30
0.0
 11
1252.3460913734
 21
-1251.278557713896
 31
0.0
  0
LINE
  5
1C8
  8
PREDEFINITO
 10
1252.3460913734
 20
-1251.278557713896
 30
0.0
 11
1252.3460913734
 21
-1241.278557713896
 31
0.0
  0
LINE
  5
1C9
  8
PREDEFINITO
 10
1252.3460913734
 20
-1241.278557713896
 30
0.0
 11
1252.3460913734
 21
-1210.867346241975
 31
0.0
  0
LINE
  5
1CA
  8
PREDEFINITO
 10
1252.3460913734
 20
-1210.867346241975
 30
0.0
 11
1246.3460913734
 21
-1210.867346241975
 31
0.0
  0
LINE
  5
1CB
  8
PREDEFINITO
 10
1246.3460913734
 20
-1210.867346241975
 30
0.0
 11
1246.3460913734
 21
-1198.867346241975
 31
0.0
  0
LINE
  5
1CC
  8
PREDEFINITO
 10
1246.3460913734
 20
-1198.867346241975
 30
0.0
 11
1252.3460913734
 21
-1198.867346241975
 31
0.0
  0
LINE
  5
1CD
  8
PREDEFINITO
 10
1252.3460913734
 20
-1198.867346241975
 30
0.0
 11
1252.3460913734
 21
-1192.867346241975
 31
0.0
  0
LINE
  5
1CE
  8
PREDEFINITO
 10
1492.630038941805
 20
-1192.867346241975
 30
0.0
 11
1498.630038941805
 21
-1192.867346241975
 31
0.0
  0
LINE
  5
1CF
  8
PREDEFINITO
 10
1498.630038941805
 20
-1192.867346241975
 30
0.0
 11
1498.630038941805
 21
-1186.778557713896
 31
0.0
  0
LINE
  5
1D0
  8
PREDEFINITO
 10
1498.630038941805
 20
-1186.778557713896
 30
0.0
 11
1488.630038941805
 21
-1186.778557713896
 31
0.0
  0
LINE
  5
1D1
  8
PREDEFINITO
 10
1488.630038941805
 20
-1186.778557713896
 30
0.0
 11
1470.630038941805
 21
-1186.778557713896
 31
0.0
  0
LINE
  5
1D2
  8
PREDEFINITO
 10
1470.630038941805
 20
-1186.778557713896
 30
0.0
 11
1470.630038941805
 21
-1192.778557713896
 31
0.0
  0
LINE
  5
1D3
  8
PREDEFINITO
 10
1470.630038941805
 20
-1192.778557713896
 30
0.0
 11
1458.630038941804
 21
-1192.778557713896
 31
0.0
  0
LINE
  5
1D4
  8
PREDEFINITO
 10
1458.630038941804
 20
-1192.778557713896
 30
0.0
 11
1458.630038941804
 21
-1186.778557713896
 31
0.0
  0
LINE
  5
1D5
  8
PREDEFINITO
 10
1458.630038941804
 20
-1186.778557713896
 30
0.0
 11
1446.630038941804
 21
-1186.778557713896
 31
0.0
  0
LINE
  5
1D6
  8
PREDEFINITO
 10
1446.630038941804
 20
-1186.778557713896
 30
0.0
 11
1446.630038941804
 21
-1192.778557713896
 31
0.0
  0
LINE
  5
1D7
  8
PREDEFINITO
 10
1446.630038941804
 20
-1192.778557713896
 30
0.0
 11
1418.550038941804
 21
-1192.778557713896
 31
0.0
  0
LINE
  5
1D8
  8
PREDEFINITO
 10
1418.550038941804
 20
-1192.778557713896
 30
0.0
 11
1418.550038941804
 21
-1186.778557713896
 31
0.0
  0
LINE
  5
1D9
  8
PREDEFINITO
 10
1418.550038941804
 20
-1186.778557713896
 30
0.0
 11
1406.550038941804
 21
-1186.778557713896
 31
0.0
  0
LINE
  5
1DA
  8
PREDEFINITO
 10
1406.550038941804
 20
-1186.778557713896
 30
0.0
 11
1406.550038941804
 21
-1192.778557713896
 31
0.0
  0
LINE
  5
1DB
  8
PREDEFINITO
 10
1406.550038941804
 20
-1192.778557713896
 30
0.0
 11
1394.550038941804
 21
-1192.778557713896
 31
0.0
  0
LINE
  5
1DC
  8
PREDEFINITO
 10
1394.550038941804
 20
-1192.778557713896
 30
0.0
 11
1394.550038941804
 21
-1186.778557713896
 31
0.0
  0
LINE
  5
1DD
  8
PREDEFINITO
 10
1394.550038941804
 20
-1186.778557713896
 30
0.0
 11
1376.550038941804
 21
-1186.778557713896
 31
0.0
  0
LINE
  5
1DE
  8
PREDEFINITO
 10
1376.550038941804
 20
-1186.778557713896
 30
0.0
 11
1376.550038941804
 21
-1192.867346241975
 31
0.0
  0
LINE
  5
1DF
  8
PREDEFINITO
 10
1376.550038941804
 20
-1192.867346241975
 30
0.0
 11
1382.550038941804
 21
-1192.867346241975
 31
0.0
  0
LINE
  5
1E0
  8
PREDEFINITO
 10
1382.550038941804
 20
-1192.867346241975
 30
0.0
 11
1382.550038941804
 21
-1198.867346241975
 31
0.0
  0
LINE
  5
1E1
  8
PREDEFINITO
 10
1382.550038941804
 20
-1198.867346241975
 30
0.0
 11
1376.550038941804
 21
-1198.867346241975
 31
0.0
  0
LINE
  5
1E2
  8
PREDEFINITO
 10
1376.550038941804
 20
-1198.867346241975
 30
0.0
 11
1376.550038941804
 21
-1210.867346241975
 31
0.0
  0
LINE
  5
1E3
  8
PREDEFINITO
 10
1376.550038941804
 20
-1210.867346241975
 30
0.0
 11
1382.550038941804
 21
-1210.867346241975
 31
0.0
  0
LINE
  5
1E4
  8
PREDEFINITO
 10
1382.550038941804
 20
-1210.867346241975
 30
0.0
 11
1382.550038941804
 21
-1241.278557713896
 31
0.0
  0
LINE
  5
1E5
  8
PREDEFINITO
 10
1382.550038941804
 20
-1241.278557713896
 30
0.0
 11
1382.550038941804
 21
-1251.278557713896
 31
0.0
  0
LINE
  5
1E6
  8
PREDEFINITO
 10
1382.550038941804
 20
-1251.278557713896
 30
0.0
 11
1376.550038941804
 21
-1251.278557713896
 31
0.0
  0
LINE
  5
1E7
  8
PREDEFINITO
 10
1376.550038941804
 20
-1251.278557713896
 30
0.0
 11
1376.550038941804
 21
-1263.278557713896
 31
0.0
  0
LINE
  5
1E8
  8
PREDEFINITO
 10
1376.550038941804
 20
-1263.278557713896
 30
0.0
 11
1382.550038941804
 21
-1263.278557713896
 31
0.0
  0
LINE
  5
1E9
  8
PREDEFINITO
 10
1382.550038941804
 20
-1263.278557713896
 30
0.0
 11
1382.550038941804
 21
-1269.278557713896
 31
0.0
  0
LINE
  5
1EA
  8
PREDEFINITO
 10
1382.550038941804
 20
-1269.278557713896
 30
0.0
 11
1376.550038941804
 21
-1269.278557713896
 31
0.0
  0
LINE
  5
1EB
  8
PREDEFINITO
 10
1376.550038941804
 20
-1269.278557713896
 30
0.0
 11
1376.550038941804
 21
-1275.278557713896
 31
0.0
  0
LINE
  5
1EC
  8
PREDEFINITO
 10
1376.550038941804
 20
-1275.278557713896
 30
0.0
 11
1388.550038941804
 21
-1275.278557713896
 31
0.0
  0
LINE
  5
1ED
  8
PREDEFINITO
 10
1388.550038941804
 20
-1275.278557713896
 30
0.0
 11
1388.550038941804
 21
-1281.278557713896
 31
0.0
  0
LINE
  5
1EE
  8
PREDEFINITO
 10
1388.550038941804
 20
-1281.278557713896
 30
0.0
 11
1394.550038941804
 21
-1281.278557713896
 31
0.0
  0
LINE
  5
1EF
  8
PREDEFINITO
 10
1394.550038941804
 20
-1281.278557713896
 30
0.0
 11
1394.550038941804
 21
-1275.278557713896
 31
0.0
  0
LINE
  5
1F0
  8
PREDEFINITO
 10
1394.550038941804
 20
-1275.278557713896
 30
0.0
 11
1400.550038941804
 21
-1275.278557713896
 31
0.0
  0
LINE
  5
1F1
  8
PREDEFINITO
 10
1400.550038941804
 20
-1275.278557713896
 30
0.0
 11
1400.550038941804
 21
-1281.278557713896
 31
0.0
  0
LINE
  5
1F2
  8
PREDEFINITO
 10
1400.550038941804
 20
-1281.278557713896
 30
0.0
 11
1406.550038941804
 21
-1281.278557713896
 31
0.0
  0
LINE
  5
1F3
  8
PREDEFINITO
 10
1406.550038941804
 20
-1281.278557713896
 30
0.0
 11
1406.550038941804
 21
-1275.278557713896
 31
0.0
  0
LINE
  5
1F4
  8
PREDEFINITO
 10
1406.550038941804
 20
-1275.278557713896
 30
0.0
 11
1418.550038941804
 21
-1275.278557713896
 31
0.0
  0
LINE
  5
1F5
  8
PREDEFINITO
 10
1418.550038941804
 20
-1275.278557713896
 30
0.0
 11
1418.550038941804
 21
-1281.278557713896
 31
0.0
  0
LINE
  5
1F6
  8
PREDEFINITO
 10
1418.550038941804
 20
-1281.278557713896
 30
0.0
 11
1452.630038941804
 21
-1281.278557713896
 31
0.0
  0
LINE
  5
1F7
  8
PREDEFINITO
 10
1452.630038941804
 20
-1281.278557713896
 30
0.0
 11
1452.630038941804
 21
-1275.278557713896
 31
0.0
  0
LINE
  5
1F8
  8
PREDEFINITO
 10
1452.630038941804
 20
-1275.278557713896
 30
0.0
 11
1464.630038941804
 21
-1275.278557713896
 31
0.0
  0
LINE
  5
1F9
  8
PREDEFINITO
 10
1464.630038941804
 20
-1275.278557713896
 30
0.0
 11
1464.630038941804
 21
-1281.278557713896
 31
0.0
  0
LINE
  5
1FA
  8
PREDEFINITO
 10
1464.630038941804
 20
-1281.278557713896
 30
0.0
 11
1470.630038941805
 21
-1281.278557713896
 31
0.0
  0
LINE
  5
1FB
  8
PREDEFINITO
 10
1470.630038941805
 20
-1281.278557713896
 30
0.0
 11
1470.630038941805
 21
-1275.278557713896
 31
0.0
  0
LINE
  5
1FC
  8
PREDEFINITO
 10
1470.630038941805
 20
-1275.278557713896
 30
0.0
 11
1476.630038941805
 21
-1275.278557713896
 31
0.0
  0
LINE
  5
1FD
  8
PREDEFINITO
 10
1476.630038941805
 20
-1275.278557713896
 30
0.0
 11
1476.630038941805
 21
-1281.278557713896
 31
0.0
  0
LINE
  5
1FE
  8
PREDEFINITO
 10
1476.630038941805
 20
-1281.278557713896
 30
0.0
 11
1482.630038941805
 21
-1281.278557713896
 31
0.0
  0
LINE
  5
1FF
  8
PREDEFINITO
 10
1482.630038941805
 20
-1281.278557713896
 30
0.0
 11
1492.630038941805
 21
-1281.278557713896
 31
0.0
  0
LINE
  5
200
  8
PREDEFINITO
 10
1492.630038941805
 20
-1281.278557713896
 30
0.0
 11
1492.630038941805
 21
-1275.278557713896
 31
0.0
  0
LINE
  5
201
  8
PREDEFINITO
 10
1492.630038941805
 20
-1275.278557713896
 30
0.0
 11
1498.630038941805
 21
-1275.278557713896
 31
0.0
  0
LINE
  5
202
  8
PREDEFINITO
 10
1498.630038941805
 20
-1275.278557713896
 30
0.0
 11
1498.630038941805
 21
-1269.278557713896
 31
0.0
  0
LINE
  5
203
  8
PREDEFINITO
 10
1498.630038941805
 20
-1269.278557713896
 30
0.0
 11
1492.630038941805
 21
-1269.278557713896
 31
0.0
  0
LINE
  5
204
  8
PREDEFINITO
 10
1492.630038941805
 20
-1269.278557713896
 30
0.0
 11
1492.630038941805
 21
-1263.278557713896
 31
0.0
  0
LINE
  5
205
  8
PREDEFINITO
 10
1492.630038941805
 20
-1263.278557713896
 30
0.0
 11
1498.630038941804
 21
-1263.278557713896
 31
0.0
  0
LINE
  5
206
  8
PREDEFINITO
 10
1498.630038941804
 20
-1263.278557713896
 30
0.0
 11
1498.630038941804
 21
-1251.278557713896
 31
0.0
  0
LINE
  5
207
  8
PREDEFINITO
 10
1498.630038941804
 20
-1251.278557713896
 30
0.0
 11
1492.630038941804
 21
-1251.278557713896
 31
0.0
  0
LINE
  5
208
  8
PREDEFINITO
 10
1492.630038941804
 20
-1251.278557713896
 30
0.0
 11
1492.630038941804
 21
-1241.278557713896
 31
0.0
  0
LINE
  5
209
  8
PREDEFINITO
 10
1492.630038941804
 20
-1241.278557713896
 30
0.0
 11
1492.630038941805
 21
-1210.867346241975
 31
0.0
  0
LINE
  5
20A
  8
PREDEFINITO
 10
1492.630038941805
 20
-1210.867346241975
 30
0.0
 11
1498.630038941805
 21
-1210.867346241975
 31
0.0
  0
LINE
  5
20B
  8
PREDEFINITO
 10
1498.630038941805
 20
-1210.867346241975
 30
0.0
 11
1498.630038941805
 21
-1198.867346241975
 31
0.0
  0
LINE
  5
20C
  8
PREDEFINITO
 10
1498.630038941805
 20
-1198.867346241975
 30
0.0
 11
1492.630038941805
 21
-1198.867346241975
 31
0.0
  0
LINE
  5
20D
  8
PREDEFINITO
 10
1492.630038941805
 20
-1198.867346241975
 30
0.0
 11
1492.630038941805
 21
-1192.867346241975
 31
0.0
  0
CIRCLE
  5
20E
  8
TUBBBI
 10
1400.090038941804
 20
-1258.238557713896
 30
0.0
 40
4.7650000000001
  0
CIRCLE
  5
20F
  8
TUBBBI
 10
1471.090038941805
 20
-1258.238557713896
 30
0.0
 40
4.764999999999873
  0
LINE
  5
210
  8
PREDEFINITO
 10
1384.290936309263
 20
-1145.095373009619
 30
0.0
 11
1384.290936309263
 21
-1114.684161537697
 31
0.0
  0
LINE
  5
211
  8
PREDEFINITO
 10
1384.290936309263
 20
-1114.684161537697
 30
0.0
 11
1384.290936309263
 21
-1104.684161537697
 31
0.0
  0
LINE
  5
212
  8
PREDEFINITO
 10
1384.290936309263
 20
-1104.684161537697
 30
0.0
 11
1378.290936309263
 21
-1104.684161537697
 31
0.0
  0
LINE
  5
213
  8
PREDEFINITO
 10
1378.290936309263
 20
-1104.684161537697
 30
0.0
 11
1378.290936309263
 21
-1092.684161537697
 31
0.0
  0
LINE
  5
214
  8
PREDEFINITO
 10
1378.290936309263
 20
-1092.684161537697
 30
0.0
 11
1384.290936309263
 21
-1092.684161537697
 31
0.0
  0
LINE
  5
215
  8
PREDEFINITO
 10
1384.290936309263
 20
-1092.684161537697
 30
0.0
 11
1384.290936309263
 21
-1086.684161537697
 31
0.0
  0
LINE
  5
216
  8
PREDEFINITO
 10
1384.290936309263
 20
-1086.684161537697
 30
0.0
 11
1378.290936309263
 21
-1086.684161537697
 31
0.0
  0
LINE
  5
217
  8
PREDEFINITO
 10
1378.290936309263
 20
-1086.684161537697
 30
0.0
 11
1378.290936309263
 21
-1080.684161537697
 31
0.0
  0
LINE
  5
218
  8
PREDEFINITO
 10
1378.290936309263
 20
-1080.684161537697
 30
0.0
 11
1390.290936309263
 21
-1080.684161537697
 31
0.0
  0
LINE
  5
219
  8
PREDEFINITO
 10
1390.290936309263
 20
-1080.684161537697
 30
0.0
 11
1390.290936309263
 21
-1074.684161537697
 31
0.0
  0
LINE
  5
21A
  8
PREDEFINITO
 10
1390.290936309263
 20
-1074.684161537697
 30
0.0
 11
1396.290936309263
 21
-1074.684161537697
 31
0.0
  0
LINE
  5
21B
  8
PREDEFINITO
 10
1396.290936309263
 20
-1074.684161537697
 30
0.0
 11
1396.290936309263
 21
-1080.684161537697
 31
0.0
  0
LINE
  5
21C
  8
PREDEFINITO
 10
1396.290936309263
 20
-1080.684161537697
 30
0.0
 11
1402.290936309263
 21
-1080.684161537697
 31
0.0
  0
LINE
  5
21D
  8
PREDEFINITO
 10
1402.290936309263
 20
-1080.684161537697
 30
0.0
 11
1402.290936309263
 21
-1074.684161537697
 31
0.0
  0
LINE
  5
21E
  8
PREDEFINITO
 10
1402.290936309263
 20
-1074.684161537697
 30
0.0
 11
1408.290936309263
 21
-1074.684161537697
 31
0.0
  0
LINE
  5
21F
  8
PREDEFINITO
 10
1408.290936309263
 20
-1074.684161537697
 30
0.0
 11
1408.290936309263
 21
-1080.684161537697
 31
0.0
  0
LINE
  5
220
  8
PREDEFINITO
 10
1408.290936309263
 20
-1080.684161537697
 30
0.0
 11
1420.290936309263
 21
-1080.684161537697
 31
0.0
  0
LINE
  5
221
  8
PREDEFINITO
 10
1420.290936309263
 20
-1080.684161537697
 30
0.0
 11
1420.290936309263
 21
-1074.684161537697
 31
0.0
  0
LINE
  5
222
  8
PREDEFINITO
 10
1420.290936309263
 20
-1074.684161537697
 30
0.0
 11
1454.370936309263
 21
-1074.684161537697
 31
0.0
  0
LINE
  5
223
  8
PREDEFINITO
 10
1454.370936309263
 20
-1074.684161537697
 30
0.0
 11
1454.370936309263
 21
-1080.684161537697
 31
0.0
  0
LINE
  5
224
  8
PREDEFINITO
 10
1454.370936309263
 20
-1080.684161537697
 30
0.0
 11
1466.370936309263
 21
-1080.684161537697
 31
0.0
  0
LINE
  5
225
  8
PREDEFINITO
 10
1466.370936309263
 20
-1080.684161537697
 30
0.0
 11
1466.370936309263
 21
-1074.684161537697
 31
0.0
  0
LINE
  5
226
  8
PREDEFINITO
 10
1466.370936309263
 20
-1074.684161537697
 30
0.0
 11
1472.370936309263
 21
-1074.684161537697
 31
0.0
  0
LINE
  5
227
  8
PREDEFINITO
 10
1472.370936309263
 20
-1074.684161537697
 30
0.0
 11
1472.370936309263
 21
-1080.684161537697
 31
0.0
  0
LINE
  5
228
  8
PREDEFINITO
 10
1472.370936309263
 20
-1080.684161537697
 30
0.0
 11
1478.370936309263
 21
-1080.684161537697
 31
0.0
  0
LINE
  5
229
  8
PREDEFINITO
 10
1478.370936309263
 20
-1080.684161537697
 30
0.0
 11
1478.370936309263
 21
-1074.684161537697
 31
0.0
  0
LINE
  5
22A
  8
PREDEFINITO
 10
1478.370936309263
 20
-1074.684161537697
 30
0.0
 11
1484.370936309263
 21
-1074.684161537697
 31
0.0
  0
LINE
  5
22B
  8
PREDEFINITO
 10
1484.370936309263
 20
-1074.684161537697
 30
0.0
 11
1484.370936309263
 21
-1080.684161537697
 31
0.0
  0
LINE
  5
22C
  8
PREDEFINITO
 10
1484.370936309263
 20
-1080.684161537697
 30
0.0
 11
1494.370936309263
 21
-1080.684161537697
 31
0.0
  0
LINE
  5
22D
  8
PREDEFINITO
 10
1494.370936309263
 20
-1080.684161537697
 30
0.0
 11
1500.370936309263
 21
-1080.684161537697
 31
0.0
  0
LINE
  5
22E
  8
PREDEFINITO
 10
1500.370936309263
 20
-1080.684161537697
 30
0.0
 11
1500.370936309263
 21
-1086.684161537697
 31
0.0
  0
LINE
  5
22F
  8
PREDEFINITO
 10
1500.370936309263
 20
-1086.684161537697
 30
0.0
 11
1494.370936309263
 21
-1086.684161537697
 31
0.0
  0
LINE
  5
230
  8
PREDEFINITO
 10
1494.370936309263
 20
-1086.684161537697
 30
0.0
 11
1494.370936309263
 21
-1092.684161537697
 31
0.0
  0
LINE
  5
231
  8
PREDEFINITO
 10
1494.370936309263
 20
-1092.684161537697
 30
0.0
 11
1500.370936309263
 21
-1092.684161537697
 31
0.0
  0
LINE
  5
232
  8
PREDEFINITO
 10
1500.370936309263
 20
-1092.684161537697
 30
0.0
 11
1500.370936309263
 21
-1104.684161537697
 31
0.0
  0
LINE
  5
233
  8
PREDEFINITO
 10
1500.370936309263
 20
-1104.684161537697
 30
0.0
 11
1494.370936309263
 21
-1104.684161537697
 31
0.0
  0
LINE
  5
234
  8
PREDEFINITO
 10
1494.370936309263
 20
-1104.684161537697
 30
0.0
 11
1494.370936309263
 21
-1114.684161537697
 31
0.0
  0
LINE
  5
235
  8
PREDEFINITO
 10
1494.370936309263
 20
-1114.684161537697
 30
0.0
 11
1494.370936309263
 21
-1145.095373009619
 31
0.0
  0
LINE
  5
236
  8
PREDEFINITO
 10
1494.370936309263
 20
-1145.095373009619
 30
0.0
 11
1500.370936309263
 21
-1145.095373009619
 31
0.0
  0
LINE
  5
237
  8
PREDEFINITO
 10
1500.370936309263
 20
-1145.095373009619
 30
0.0
 11
1500.370936309263
 21
-1157.095373009619
 31
0.0
  0
LINE
  5
238
  8
PREDEFINITO
 10
1500.370936309263
 20
-1157.095373009619
 30
0.0
 11
1494.370936309263
 21
-1157.095373009619
 31
0.0
  0
LINE
  5
239
  8
PREDEFINITO
 10
1494.370936309263
 20
-1157.095373009619
 30
0.0
 11
1494.370936309263
 21
-1163.095373009619
 31
0.0
  0
LINE
  5
23A
  8
PREDEFINITO
 10
1494.370936309263
 20
-1163.095373009619
 30
0.0
 11
1500.370936309263
 21
-1163.095373009619
 31
0.0
  0
LINE
  5
23B
  8
PREDEFINITO
 10
1500.370936309263
 20
-1163.095373009619
 30
0.0
 11
1500.370936309263
 21
-1169.184161537697
 31
0.0
  0
LINE
  5
23C
  8
PREDEFINITO
 10
1500.370936309263
 20
-1169.184161537697
 30
0.0
 11
1490.370936309263
 21
-1169.184161537697
 31
0.0
  0
LINE
  5
23D
  8
PREDEFINITO
 10
1490.370936309263
 20
-1169.184161537697
 30
0.0
 11
1472.370936309263
 21
-1169.184161537697
 31
0.0
  0
LINE
  5
23E
  8
PREDEFINITO
 10
1472.370936309263
 20
-1169.184161537697
 30
0.0
 11
1472.370936309263
 21
-1163.184161537697
 31
0.0
  0
LINE
  5
23F
  8
PREDEFINITO
 10
1472.370936309263
 20
-1163.184161537697
 30
0.0
 11
1460.370936309263
 21
-1163.184161537697
 31
0.0
  0
LINE
  5
240
  8
PREDEFINITO
 10
1460.370936309263
 20
-1163.184161537697
 30
0.0
 11
1460.370936309263
 21
-1169.184161537697
 31
0.0
  0
LINE
  5
241
  8
PREDEFINITO
 10
1460.370936309263
 20
-1169.184161537697
 30
0.0
 11
1448.370936309263
 21
-1169.184161537697
 31
0.0
  0
LINE
  5
242
  8
PREDEFINITO
 10
1448.370936309263
 20
-1169.184161537697
 30
0.0
 11
1448.370936309263
 21
-1163.184161537697
 31
0.0
  0
LINE
  5
243
  8
PREDEFINITO
 10
1448.370936309263
 20
-1163.184161537697
 30
0.0
 11
1420.290936309263
 21
-1163.184161537697
 31
0.0
  0
LINE
  5
244
  8
PREDEFINITO
 10
1420.290936309263
 20
-1163.184161537697
 30
0.0
 11
1420.290936309263
 21
-1169.184161537697
 31
0.0
  0
LINE
  5
245
  8
PREDEFINITO
 10
1420.290936309263
 20
-1169.184161537697
 30
0.0
 11
1408.290936309263
 21
-1169.184161537697
 31
0.0
  0
LINE
  5
246
  8
PREDEFINITO
 10
1408.290936309263
 20
-1169.184161537697
 30
0.0
 11
1408.290936309263
 21
-1163.184161537697
 31
0.0
  0
LINE
  5
247
  8
PREDEFINITO
 10
1408.290936309263
 20
-1163.184161537697
 30
0.0
 11
1396.290936309263
 21
-1163.184161537697
 31
0.0
  0
LINE
  5
248
  8
PREDEFINITO
 10
1396.290936309263
 20
-1163.184161537697
 30
0.0
 11
1396.290936309263
 21
-1169.184161537697
 31
0.0
  0
LINE
  5
249
  8
PREDEFINITO
 10
1396.290936309263
 20
-1169.184161537697
 30
0.0
 11
1378.290936309263
 21
-1169.184161537697
 31
0.0
  0
LINE
  5
24A
  8
PREDEFINITO
 10
1378.290936309263
 20
-1169.184161537697
 30
0.0
 11
1378.290936309263
 21
-1163.095373009619
 31
0.0
  0
LINE
  5
24B
  8
PREDEFINITO
 10
1378.290936309263
 20
-1163.095373009619
 30
0.0
 11
1384.290936309263
 21
-1163.095373009619
 31
0.0
  0
LINE
  5
24C
  8
PREDEFINITO
 10
1384.290936309263
 20
-1163.095373009619
 30
0.0
 11
1384.290936309263
 21
-1157.095373009619
 31
0.0
  0
LINE
  5
24D
  8
PREDEFINITO
 10
1384.290936309263
 20
-1157.095373009619
 30
0.0
 11
1378.290936309263
 21
-1157.095373009619
 31
0.0
  0
LINE
  5
24E
  8
PREDEFINITO
 10
1378.290936309263
 20
-1157.095373009619
 30
0.0
 11
1378.290936309263
 21
-1145.095373009619
 31
0.0
  0
LINE
  5
24F
  8
PREDEFINITO
 10
1378.290936309263
 20
-1145.095373009619
 30
0.0
 11
1384.290936309263
 21
-1145.095373009619
 31
0.0
  0
CIRCLE
  5
250
  8
TUBBBI
 10
1437.330936309263
 20
-1105.684161537697
 30
0.0
 40
11.00000000000023
  0
CIRCLE
  5
251
  8
TUBBBI
 10
1308.396840214044
 20
-1105.684161537697
 30
0.0
 40
11.0
  0
CIRCLE
  5
252
  8
TUBBBI
 10
1520.134752701261
 20
-1194.410099992233
 30
0.0
 40
6.25
  0
CIRCLE
  5
253
  8
TUBBBI
 10
1591.134752701261
 20
-1194.410099992233
 30
0.0
 40
6.25
  0
LINE
  5
254
  8
PREDEFINITO
 10
1511.239752701261
 20
-1196.459591549128
 30
0.0
 11
1511.239752701261
 21
-1216.459591549128
 31
0.0
  0
LINE
  5
255
  8
PREDEFINITO
 10
1511.239752701261
 20
-1216.459591549128
 30
0.0
 11
1600.029752701261
 21
-1216.459591549128
 31
0.0
  0
LINE
  5
256
  8
PREDEFINITO
 10
1600.029752701261
 20
-1216.459591549128
 30
0.0
 11
1600.029752701261
 21
-1196.459591549128
 31
0.0
  0
LINE
  5
257
  8
PREDEFINITO
 10
1600.029752701261
 20
-1196.459591549128
 30
0.0
 11
1600.029752701261
 21
-1142.451773627025
 31
0.0
  0
LINE
  5
258
  8
PREDEFINITO
 10
1600.029752701261
 20
-1142.451773627025
 30
0.0
 11
1594.029752701261
 21
-1142.451773627025
 31
0.0
  0
LINE
  5
259
  8
PREDEFINITO
 10
1594.029752701261
 20
-1142.451773627025
 30
0.0
 11
1594.029752701261
 21
-1148.451773627025
 31
0.0
  0
LINE
  5
25A
  8
PREDEFINITO
 10
1594.029752701261
 20
-1148.451773627025
 30
0.0
 11
1588.029752701261
 21
-1148.451773627025
 31
0.0
  0
LINE
  5
25B
  8
PREDEFINITO
 10
1588.029752701261
 20
-1148.451773627025
 30
0.0
 11
1588.029752701261
 21
-1142.451773627025
 31
0.0
  0
LINE
  5
25C
  8
PREDEFINITO
 10
1588.029752701261
 20
-1142.451773627025
 30
0.0
 11
1523.239752701261
 21
-1142.451773627025
 31
0.0
  0
LINE
  5
25D
  8
PREDEFINITO
 10
1523.239752701261
 20
-1142.451773627025
 30
0.0
 11
1523.239752701261
 21
-1148.451773627025
 31
0.0
  0
LINE
  5
25E
  8
PREDEFINITO
 10
1523.239752701261
 20
-1148.451773627025
 30
0.0
 11
1517.239752701261
 21
-1148.451773627025
 31
0.0
  0
LINE
  5
25F
  8
PREDEFINITO
 10
1517.239752701261
 20
-1148.451773627025
 30
0.0
 11
1517.239752701261
 21
-1142.451773627025
 31
0.0
  0
LINE
  5
260
  8
PREDEFINITO
 10
1517.239752701261
 20
-1142.451773627025
 30
0.0
 11
1511.239752701261
 21
-1142.451773627025
 31
0.0
  0
LINE
  5
261
  8
PREDEFINITO
 10
1511.239752701261
 20
-1142.451773627025
 30
0.0
 11
1511.239752701261
 21
-1196.459591549128
 31
0.0
  0
LINE
  5
262
  8
TUBBBI
 10
1576.634752701261
 20
-1190.459591549128
 30
0.0
 11
1576.634752701261
 21
-1184.459591549128
 31
0.0
  0
LINE
  5
263
  8
TUBBBI
 10
1576.63475270126
 20
-1178.459591549128
 30
0.0
 11
1576.63475270126
 21
-1166.459591549128
 31
0.0
  0
LINE
  5
264
  8
TUBBBI
 10
1576.634752701261
 20
-1184.459591549128
 30
0.0
 11
1582.63475270126
 21
-1184.459591549128
 31
0.0
  0
LINE
  5
265
  8
TUBBBI
 10
1582.63475270126
 20
-1184.459591549128
 30
0.0
 11
1582.63475270126
 21
-1190.459591549128
 31
0.0
  0
LINE
  5
266
  8
TUBBBI
 10
1582.63475270126
 20
-1190.459591549128
 30
0.0
 11
1576.634752701261
 21
-1190.459591549128
 31
0.0
  0
LINE
  5
267
  8
TUBBBI
 10
1576.634752701261
 20
-1190.459591549128
 30
0.0
 11
1576.634752701261
 21
-1184.459591549128
 31
0.0
  0
LINE
  5
268
  8
TUBBBI
 10
1576.63475270126
 20
-1166.459591549128
 30
0.0
 11
1582.63475270126
 21
-1166.459591549128
 31
0.0
  0
LINE
  5
269
  8
TUBBBI
 10
1582.63475270126
 20
-1166.459591549128
 30
0.0
 11
1582.63475270126
 21
-1178.459591549128
 31
0.0
  0
LINE
  5
26A
  8
TUBBBI
 10
1582.63475270126
 20
-1178.459591549128
 30
0.0
 11
1576.63475270126
 21
-1178.459591549128
 31
0.0
  0
LINE
  5
26B
  8
TUBBBI
 10
1576.63475270126
 20
-1178.459591549128
 30
0.0
 11
1576.63475270126
 21
-1166.459591549128
 31
0.0
  0
LINE
  5
26C
  8
TUBBBI
 10
1534.634752701262
 20
-1166.459591549128
 30
0.0
 11
1528.634752701262
 21
-1166.459591549128
 31
0.0
  0
LINE
  5
26D
  8
TUBBBI
 10
1528.634752701262
 20
-1166.459591549128
 30
0.0
 11
1528.634752701262
 21
-1178.459591549128
 31
0.0
  0
LINE
  5
26E
  8
TUBBBI
 10
1528.634752701262
 20
-1178.459591549128
 30
0.0
 11
1534.634752701262
 21
-1178.459591549128
 31
0.0
  0
LINE
  5
26F
  8
TUBBBI
 10
1534.634752701262
 20
-1178.459591549128
 30
0.0
 11
1534.634752701262
 21
-1166.459591549128
 31
0.0
  0
LINE
  5
270
  8
TUBBBI
 10
1534.634752701261
 20
-1184.459591549128
 30
0.0
 11
1528.634752701262
 21
-1184.459591549128
 31
0.0
  0
LINE
  5
271
  8
TUBBBI
 10
1528.634752701262
 20
-1184.459591549128
 30
0.0
 11
1528.634752701262
 21
-1190.459591549127
 31
0.0
  0
LINE
  5
272
  8
TUBBBI
 10
1528.634752701262
 20
-1190.459591549127
 30
0.0
 11
1534.634752701261
 21
-1190.459591549127
 31
0.0
  0
LINE
  5
273
  8
TUBBBI
 10
1534.634752701261
 20
-1190.459591549127
 30
0.0
 11
1534.634752701261
 21
-1184.459591549128
 31
0.0
  0
LINE
  5
274
  8
TUBBBI
 10
1534.634752701261
 20
-1095.904354738251
 30
0.0
 11
1528.634752701262
 21
-1095.904354738251
 31
0.0
  0
LINE
  5
275
  8
TUBBBI
 10
1528.634752701262
 20
-1095.904354738251
 30
0.0
 11
1528.634752701262
 21
-1089.904354738251
 31
0.0
  0
LINE
  5
276
  8
TUBBBI
 10
1528.634752701262
 20
-1089.904354738251
 30
0.0
 11
1534.634752701261
 21
-1089.904354738251
 31
0.0
  0
LINE
  5
277
  8
TUBBBI
 10
1534.634752701261
 20
-1089.904354738251
 30
0.0
 11
1534.634752701261
 21
-1095.904354738251
 31
0.0
  0
LINE
  5
278
  8
TUBBBI
 10
1534.634752701262
 20
-1113.904354738251
 30
0.0
 11
1528.634752701262
 21
-1113.904354738251
 31
0.0
  0
LINE
  5
279
  8
TUBBBI
 10
1528.634752701262
 20
-1113.904354738251
 30
0.0
 11
1528.634752701262
 21
-1101.904354738251
 31
0.0
  0
LINE
  5
27A
  8
TUBBBI
 10
1528.634752701262
 20
-1101.904354738251
 30
0.0
 11
1534.634752701262
 21
-1101.904354738251
 31
0.0
  0
LINE
  5
27B
  8
TUBBBI
 10
1534.634752701262
 20
-1101.904354738251
 30
0.0
 11
1534.634752701262
 21
-1113.904354738251
 31
0.0
  0
LINE
  5
27C
  8
TUBBBI
 10
1576.63475270126
 20
-1113.904354738251
 30
0.0
 11
1582.63475270126
 21
-1113.904354738251
 31
0.0
  0
LINE
  5
27D
  8
TUBBBI
 10
1582.63475270126
 20
-1113.904354738251
 30
0.0
 11
1582.63475270126
 21
-1101.904354738251
 31
0.0
  0
LINE
  5
27E
  8
TUBBBI
 10
1582.63475270126
 20
-1101.904354738251
 30
0.0
 11
1576.63475270126
 21
-1101.904354738251
 31
0.0
  0
LINE
  5
27F
  8
TUBBBI
 10
1576.63475270126
 20
-1101.904354738251
 30
0.0
 11
1576.63475270126
 21
-1113.904354738251
 31
0.0
  0
LINE
  5
280
  8
TUBBBI
 10
1576.634752701261
 20
-1095.904354738251
 30
0.0
 11
1582.63475270126
 21
-1095.904354738251
 31
0.0
  0
LINE
  5
281
  8
TUBBBI
 10
1582.63475270126
 20
-1095.904354738251
 30
0.0
 11
1582.63475270126
 21
-1089.904354738251
 31
0.0
  0
LINE
  5
282
  8
TUBBBI
 10
1582.63475270126
 20
-1089.904354738251
 30
0.0
 11
1576.634752701261
 21
-1089.904354738251
 31
0.0
  0
LINE
  5
283
  8
TUBBBI
 10
1576.634752701261
 20
-1089.904354738251
 30
0.0
 11
1576.634752701261
 21
-1095.904354738251
 31
0.0
  0
LINE
  5
284
  8
TUBBBI
 10
1576.63475270126
 20
-1101.904354738251
 30
0.0
 11
1576.63475270126
 21
-1113.904354738251
 31
0.0
  0
LINE
  5
285
  8
TUBBBI
 10
1576.634752701261
 20
-1089.904354738251
 30
0.0
 11
1576.634752701261
 21
-1095.904354738251
 31
0.0
  0
LINE
  5
286
  8
PREDEFINITO
 10
1511.239752701261
 20
-1083.904354738251
 30
0.0
 11
1511.239752701261
 21
-1063.904354738251
 31
0.0
  0
LINE
  5
287
  8
PREDEFINITO
 10
1511.239752701261
 20
-1063.904354738251
 30
0.0
 11
1600.029752701261
 21
-1063.904354738251
 31
0.0
  0
LINE
  5
288
  8
PREDEFINITO
 10
1600.029752701261
 20
-1063.904354738251
 30
0.0
 11
1600.029752701261
 21
-1083.904354738251
 31
0.0
  0
LINE
  5
289
  8
PREDEFINITO
 10
1600.029752701261
 20
-1083.904354738251
 30
0.0
 11
1600.029752701261
 21
-1137.912172660353
 31
0.0
  0
LINE
  5
28A
  8
PREDEFINITO
 10
1600.029752701261
 20
-1137.912172660353
 30
0.0
 11
1594.029752701261
 21
-1137.912172660353
 31
0.0
  0
LINE
  5
28B
  8
PREDEFINITO
 10
1594.029752701261
 20
-1137.912172660353
 30
0.0
 11
1594.029752701261
 21
-1131.912172660353
 31
0.0
  0
LINE
  5
28C
  8
PREDEFINITO
 10
1594.029752701261
 20
-1131.912172660353
 30
0.0
 11
1588.029752701261
 21
-1131.912172660353
 31
0.0
  0
LINE
  5
28D
  8
PREDEFINITO
 10
1588.029752701261
 20
-1131.912172660353
 30
0.0
 11
1588.029752701261
 21
-1137.912172660353
 31
0.0
  0
LINE
  5
28E
  8
PREDEFINITO
 10
1588.029752701261
 20
-1137.912172660353
 30
0.0
 11
1523.239752701261
 21
-1137.912172660353
 31
0.0
  0
LINE
  5
28F
  8
PREDEFINITO
 10
1523.239752701261
 20
-1137.912172660353
 30
0.0
 11
1523.239752701261
 21
-1131.912172660353
 31
0.0
  0
LINE
  5
290
  8
PREDEFINITO
 10
1523.239752701261
 20
-1131.912172660353
 30
0.0
 11
1517.239752701261
 21
-1131.912172660353
 31
0.0
  0
LINE
  5
291
  8
PREDEFINITO
 10
1517.239752701261
 20
-1131.912172660353
 30
0.0
 11
1517.239752701261
 21
-1137.912172660353
 31
0.0
  0
LINE
  5
292
  8
PREDEFINITO
 10
1517.239752701261
 20
-1137.912172660353
 30
0.0
 11
1511.239752701261
 21
-1137.912172660353
 31
0.0
  0
LINE
  5
293
  8
PREDEFINITO
 10
1511.239752701261
 20
-1137.912172660353
 30
0.0
 11
1511.239752701261
 21
-1083.904354738251
 31
0.0
  0
CIRCLE
  5
294
  8
TUBBBI
 10
1591.134752701261
 20
-1085.953846295146
 30
0.0
 40
6.25
  0
CIRCLE
  5
295
  8
TUBBBI
 10
1520.134752701261
 20
-1085.953846295146
 30
0.0
 40
6.25
  0
CIRCLE
  5
296
  8
TUBBBI
 10
1555.634752701261
 20
-1089.913846295146
 30
0.0
 40
11.0
  0
CIRCLE
  5
297
  8
TUBBBI
 10
1570.684752701261
 20
-1074.863846295146
 30
0.0
 40
1.25
  0
CIRCLE
  5
298
  8
TUBBBI
 10
1570.684752701261
 20
-1104.963846295146
 30
0.0
 40
1.25
  0
CIRCLE
  5
299
  8
TUBBBI
 10
1540.584752701261
 20
-1104.963846295146
 30
0.0
 40
1.25
  0
CIRCLE
  5
29A
  8
TUBBBI
 10
1540.584752701261
 20
-1074.863846295146
 30
0.0
 40
1.25
  0
CIRCLE
  5
29B
  8
TUBBBI
 10
1555.634752701262
 20
-1190.450099992233
 30
0.0
 40
10.99999999999977
  0
CIRCLE
  5
29C
  8
TUBBBI
 10
1570.684752701261
 20
-1175.400099992233
 30
0.0
 40
1.25
  0
CIRCLE
  5
29D
  8
TUBBBI
 10
1570.684752701261
 20
-1205.500099992232
 30
0.0
 40
1.25
  0
CIRCLE
  5
29E
  8
TUBBBI
 10
1540.584752701261
 20
-1205.500099992232
 30
0.0
 40
1.25
  0
CIRCLE
  5
29F
  8
TUBBBI
 10
1540.584752701261
 20
-1175.400099992233
 30
0.0
 40
1.25
  0
CIRCLE
  5
2A0
  8
TUBBBI
 10
1540.584752701261
 20
-1261.116863492305
 30
0.0
 40
1.25
  0
CIRCLE
  5
2A1
  8
TUBBBI
 10
1540.584752701261
 20
-1231.016863492305
 30
0.0
 40
1.25
  0
CIRCLE
  5
2A2
  8
TUBBBI
 10
1570.684752701261
 20
-1231.016863492305
 30
0.0
 40
1.25
  0
CIRCLE
  5
2A3
  8
TUBBBI
 10
1570.684752701261
 20
-1261.116863492305
 30
0.0
 40
1.25
  0
CIRCLE
  5
2A4
  8
TUBBBI
 10
1555.634752701261
 20
-1246.066863492305
 30
0.0
 40
11.00000000000023
  0
CIRCLE
  5
2A5
  8
TUBBBI
 10
1540.584752701261
 20
-1361.653117189392
 30
0.0
 40
1.25
  0
CIRCLE
  5
2A6
  8
TUBBBI
 10
1540.584752701261
 20
-1331.553117189392
 30
0.0
 40
1.25
  0
CIRCLE
  5
2A7
  8
TUBBBI
 10
1570.684752701261
 20
-1331.553117189392
 30
0.0
 40
1.25
  0
CIRCLE
  5
2A8
  8
TUBBBI
 10
1570.684752701261
 20
-1361.653117189392
 30
0.0
 40
1.25
  0
CIRCLE
  5
2A9
  8
TUBBBI
 10
1555.634752701261
 20
-1346.603117189391
 30
0.0
 40
11.0
  0
CIRCLE
  5
2AA
  8
TUBBBI
 10
1520.134752701261
 20
-1350.563117189392
 30
0.0
 40
6.25
  0
CIRCLE
  5
2AB
  8
TUBBBI
 10
1591.134752701261
 20
-1350.563117189392
 30
0.0
 40
6.25
  0
LINE
  5
2AC
  8
PREDEFINITO
 10
1511.239752701261
 20
-1352.612608746287
 30
0.0
 11
1511.239752701261
 21
-1372.612608746287
 31
0.0
  0
LINE
  5
2AD
  8
PREDEFINITO
 10
1511.239752701261
 20
-1372.612608746287
 30
0.0
 11
1600.029752701261
 21
-1372.612608746287
 31
0.0
  0
LINE
  5
2AE
  8
PREDEFINITO
 10
1600.029752701261
 20
-1372.612608746287
 30
0.0
 11
1600.029752701261
 21
-1352.612608746287
 31
0.0
  0
LINE
  5
2AF
  8
PREDEFINITO
 10
1600.029752701261
 20
-1352.612608746287
 30
0.0
 11
1600.029752701261
 21
-1298.604790824184
 31
0.0
  0
LINE
  5
2B0
  8
PREDEFINITO
 10
1600.029752701261
 20
-1298.604790824184
 30
0.0
 11
1594.029752701261
 21
-1298.604790824184
 31
0.0
  0
LINE
  5
2B1
  8
PREDEFINITO
 10
1594.029752701261
 20
-1298.604790824184
 30
0.0
 11
1594.029752701261
 21
-1304.604790824184
 31
0.0
  0
LINE
  5
2B2
  8
PREDEFINITO
 10
1594.029752701261
 20
-1304.604790824184
 30
0.0
 11
1588.029752701261
 21
-1304.604790824184
 31
0.0
  0
LINE
  5
2B3
  8
PREDEFINITO
 10
1588.029752701261
 20
-1304.604790824184
 30
0.0
 11
1588.029752701261
 21
-1298.604790824184
 31
0.0
  0
LINE
  5
2B4
  8
PREDEFINITO
 10
1588.029752701261
 20
-1298.604790824184
 30
0.0
 11
1523.239752701261
 21
-1298.604790824184
 31
0.0
  0
LINE
  5
2B5
  8
PREDEFINITO
 10
1523.239752701261
 20
-1298.604790824184
 30
0.0
 11
1523.239752701261
 21
-1304.604790824184
 31
0.0
  0
LINE
  5
2B6
  8
PREDEFINITO
 10
1523.239752701261
 20
-1304.604790824184
 30
0.0
 11
1517.239752701261
 21
-1304.604790824184
 31
0.0
  0
LINE
  5
2B7
  8
PREDEFINITO
 10
1517.239752701261
 20
-1304.604790824184
 30
0.0
 11
1517.239752701261
 21
-1298.604790824184
 31
0.0
  0
LINE
  5
2B8
  8
PREDEFINITO
 10
1517.239752701261
 20
-1298.604790824184
 30
0.0
 11
1511.239752701261
 21
-1298.604790824184
 31
0.0
  0
LINE
  5
2B9
  8
PREDEFINITO
 10
1511.239752701261
 20
-1298.604790824184
 30
0.0
 11
1511.239752701261
 21
-1352.612608746287
 31
0.0
  0
LINE
  5
2BA
  8
TUBBBI
 10
1576.634752701261
 20
-1346.612608746287
 30
0.0
 11
1576.634752701261
 21
-1340.612608746287
 31
0.0
  0
LINE
  5
2BB
  8
TUBBBI
 10
1576.63475270126
 20
-1334.612608746287
 30
0.0
 11
1576.63475270126
 21
-1322.612608746287
 31
0.0
  0
LINE
  5
2BC
  8
TUBBBI
 10
1576.634752701261
 20
-1340.612608746287
 30
0.0
 11
1582.63475270126
 21
-1340.612608746287
 31
0.0
  0
LINE
  5
2BD
  8
TUBBBI
 10
1582.63475270126
 20
-1340.612608746287
 30
0.0
 11
1582.63475270126
 21
-1346.612608746287
 31
0.0
  0
LINE
  5
2BE
  8
TUBBBI
 10
1582.63475270126
 20
-1346.612608746287
 30
0.0
 11
1576.634752701261
 21
-1346.612608746287
 31
0.0
  0
LINE
  5
2BF
  8
TUBBBI
 10
1576.634752701261
 20
-1346.612608746287
 30
0.0
 11
1576.634752701261
 21
-1340.612608746287
 31
0.0
  0
LINE
  5
2C0
  8
TUBBBI
 10
1576.63475270126
 20
-1322.612608746287
 30
0.0
 11
1582.63475270126
 21
-1322.612608746287
 31
0.0
  0
LINE
  5
2C1
  8
TUBBBI
 10
1582.63475270126
 20
-1322.612608746287
 30
0.0
 11
1582.63475270126
 21
-1334.612608746287
 31
0.0
  0
LINE
  5
2C2
  8
TUBBBI
 10
1582.63475270126
 20
-1334.612608746287
 30
0.0
 11
1576.63475270126
 21
-1334.612608746287
 31
0.0
  0
LINE
  5
2C3
  8
TUBBBI
 10
1576.63475270126
 20
-1334.612608746287
 30
0.0
 11
1576.63475270126
 21
-1322.612608746287
 31
0.0
  0
LINE
  5
2C4
  8
TUBBBI
 10
1534.634752701262
 20
-1322.612608746287
 30
0.0
 11
1528.634752701262
 21
-1322.612608746287
 31
0.0
  0
LINE
  5
2C5
  8
TUBBBI
 10
1528.634752701262
 20
-1322.612608746287
 30
0.0
 11
1528.634752701262
 21
-1334.612608746287
 31
0.0
  0
LINE
  5
2C6
  8
TUBBBI
 10
1528.634752701262
 20
-1334.612608746287
 30
0.0
 11
1534.634752701262
 21
-1334.612608746287
 31
0.0
  0
LINE
  5
2C7
  8
TUBBBI
 10
1534.634752701262
 20
-1334.612608746287
 30
0.0
 11
1534.634752701262
 21
-1322.612608746287
 31
0.0
  0
LINE
  5
2C8
  8
TUBBBI
 10
1534.634752701261
 20
-1340.612608746287
 30
0.0
 11
1528.634752701262
 21
-1340.612608746287
 31
0.0
  0
LINE
  5
2C9
  8
TUBBBI
 10
1528.634752701262
 20
-1340.612608746287
 30
0.0
 11
1528.634752701262
 21
-1346.612608746286
 31
0.0
  0
LINE
  5
2CA
  8
TUBBBI
 10
1528.634752701262
 20
-1346.612608746286
 30
0.0
 11
1534.634752701261
 21
-1346.612608746286
 31
0.0
  0
LINE
  5
2CB
  8
TUBBBI
 10
1534.634752701261
 20
-1346.612608746286
 30
0.0
 11
1534.634752701261
 21
-1340.612608746287
 31
0.0
  0
LINE
  5
2CC
  8
TUBBBI
 10
1534.634752701261
 20
-1252.05737193541
 30
0.0
 11
1528.634752701262
 21
-1252.05737193541
 31
0.0
  0
LINE
  5
2CD
  8
TUBBBI
 10
1528.634752701262
 20
-1252.05737193541
 30
0.0
 11
1528.634752701262
 21
-1246.05737193541
 31
0.0
  0
LINE
  5
2CE
  8
TUBBBI
 10
1528.634752701262
 20
-1246.05737193541
 30
0.0
 11
1534.634752701261
 21
-1246.05737193541
 31
0.0
  0
LINE
  5
2CF
  8
TUBBBI
 10
1534.634752701261
 20
-1246.05737193541
 30
0.0
 11
1534.634752701261
 21
-1252.05737193541
 31
0.0
  0
LINE
  5
2D0
  8
TUBBBI
 10
1534.634752701262
 20
-1270.05737193541
 30
0.0
 11
1528.634752701262
 21
-1270.05737193541
 31
0.0
  0
LINE
  5
2D1
  8
TUBBBI
 10
1528.634752701262
 20
-1270.05737193541
 30
0.0
 11
1528.634752701262
 21
-1258.05737193541
 31
0.0
  0
LINE
  5
2D2
  8
TUBBBI
 10
1528.634752701262
 20
-1258.05737193541
 30
0.0
 11
1534.634752701262
 21
-1258.05737193541
 31
0.0
  0
LINE
  5
2D3
  8
TUBBBI
 10
1534.634752701262
 20
-1258.05737193541
 30
0.0
 11
1534.634752701262
 21
-1270.05737193541
 31
0.0
  0
LINE
  5
2D4
  8
TUBBBI
 10
1576.63475270126
 20
-1270.05737193541
 30
0.0
 11
1582.63475270126
 21
-1270.05737193541
 31
0.0
  0
LINE
  5
2D5
  8
TUBBBI
 10
1582.63475270126
 20
-1270.05737193541
 30
0.0
 11
1582.63475270126
 21
-1258.05737193541
 31
0.0
  0
LINE
  5
2D6
  8
TUBBBI
 10
1582.63475270126
 20
-1258.05737193541
 30
0.0
 11
1576.63475270126
 21
-1258.05737193541
 31
0.0
  0
LINE
  5
2D7
  8
TUBBBI
 10
1576.63475270126
 20
-1258.05737193541
 30
0.0
 11
1576.63475270126
 21
-1270.05737193541
 31
0.0
  0
LINE
  5
2D8
  8
TUBBBI
 10
1576.634752701261
 20
-1252.05737193541
 30
0.0
 11
1582.63475270126
 21
-1252.05737193541
 31
0.0
  0
LINE
  5
2D9
  8
TUBBBI
 10
1582.63475270126
 20
-1252.05737193541
 30
0.0
 11
1582.63475270126
 21
-1246.05737193541
 31
0.0
  0
LINE
  5
2DA
  8
TUBBBI
 10
1582.63475270126
 20
-1246.05737193541
 30
0.0
 11
1576.634752701261
 21
-1246.05737193541
 31
0.0
  0
LINE
  5
2DB
  8
TUBBBI
 10
1576.634752701261
 20
-1246.05737193541
 30
0.0
 11
1576.634752701261
 21
-1252.05737193541
 31
0.0
  0
LINE
  5
2DC
  8
TUBBBI
 10
1576.63475270126
 20
-1258.05737193541
 30
0.0
 11
1576.63475270126
 21
-1270.05737193541
 31
0.0
  0
LINE
  5
2DD
  8
TUBBBI
 10
1576.634752701261
 20
-1246.05737193541
 30
0.0
 11
1576.634752701261
 21
-1252.05737193541
 31
0.0
  0
LINE
  5
2DE
  8
PREDEFINITO
 10
1511.239752701261
 20
-1240.05737193541
 30
0.0
 11
1511.239752701261
 21
-1220.05737193541
 31
0.0
  0
LINE
  5
2DF
  8
PREDEFINITO
 10
1511.239752701261
 20
-1220.05737193541
 30
0.0
 11
1600.029752701261
 21
-1220.05737193541
 31
0.0
  0
LINE
  5
2E0
  8
PREDEFINITO
 10
1600.029752701261
 20
-1220.05737193541
 30
0.0
 11
1600.029752701261
 21
-1240.05737193541
 31
0.0
  0
LINE
  5
2E1
  8
PREDEFINITO
 10
1600.029752701261
 20
-1240.05737193541
 30
0.0
 11
1600.029752701261
 21
-1294.065189857512
 31
0.0
  0
LINE
  5
2E2
  8
PREDEFINITO
 10
1600.029752701261
 20
-1294.065189857512
 30
0.0
 11
1594.029752701261
 21
-1294.065189857512
 31
0.0
  0
LINE
  5
2E3
  8
PREDEFINITO
 10
1594.029752701261
 20
-1294.065189857512
 30
0.0
 11
1594.029752701261
 21
-1288.065189857512
 31
0.0
  0
LINE
  5
2E4
  8
PREDEFINITO
 10
1594.029752701261
 20
-1288.065189857512
 30
0.0
 11
1588.029752701261
 21
-1288.065189857512
 31
0.0
  0
LINE
  5
2E5
  8
PREDEFINITO
 10
1588.029752701261
 20
-1288.065189857512
 30
0.0
 11
1588.029752701261
 21
-1294.065189857512
 31
0.0
  0
LINE
  5
2E6
  8
PREDEFINITO
 10
1588.029752701261
 20
-1294.065189857512
 30
0.0
 11
1523.239752701261
 21
-1294.065189857512
 31
0.0
  0
LINE
  5
2E7
  8
PREDEFINITO
 10
1523.239752701261
 20
-1294.065189857512
 30
0.0
 11
1523.239752701261
 21
-1288.065189857512
 31
0.0
  0
LINE
  5
2E8
  8
PREDEFINITO
 10
1523.239752701261
 20
-1288.065189857512
 30
0.0
 11
1517.239752701261
 21
-1288.065189857512
 31
0.0
  0
LINE
  5
2E9
  8
PREDEFINITO
 10
1517.239752701261
 20
-1288.065189857512
 30
0.0
 11
1517.239752701261
 21
-1294.065189857512
 31
0.0
  0
LINE
  5
2EA
  8
PREDEFINITO
 10
1517.239752701261
 20
-1294.065189857512
 30
0.0
 11
1511.239752701261
 21
-1294.065189857512
 31
0.0
  0
LINE
  5
2EB
  8
PREDEFINITO
 10
1511.239752701261
 20
-1294.065189857512
 30
0.0
 11
1511.239752701261
 21
-1240.05737193541
 31
0.0
  0
CIRCLE
  5
2EC
  8
TUBBBI
 10
1591.134752701261
 20
-1242.106863492305
 30
0.0
 40
6.25
  0
CIRCLE
  5
2ED
  8
TUBBBI
 10
1520.134752701261
 20
-1242.106863492305
 30
0.0
 40
6.25
  0
CIRCLE
  5
2EE
  8
TUBBBI
 10
1520.134752701261
 20
-1509.932907860198
 30
0.0
 40
6.25
  0
CIRCLE
  5
2EF
  8
TUBBBI
 10
1591.134752701261
 20
-1509.932907860198
 30
0.0
 40
6.25
  0
LINE
  5
2F0
  8
PREDEFINITO
 10
1511.239752701261
 20
-1511.982399417093
 30
0.0
 11
1511.239752701261
 21
-1531.982399417093
 31
0.0
  0
LINE
  5
2F1
  8
PREDEFINITO
 10
1511.239752701261
 20
-1531.982399417093
 30
0.0
 11
1600.029752701261
 21
-1531.982399417093
 31
0.0
  0
LINE
  5
2F2
  8
PREDEFINITO
 10
1600.029752701261
 20
-1531.982399417093
 30
0.0
 11
1600.029752701261
 21
-1511.982399417093
 31
0.0
  0
LINE
  5
2F3
  8
PREDEFINITO
 10
1600.029752701261
 20
-1511.982399417093
 30
0.0
 11
1600.029752701261
 21
-1457.97458149499
 31
0.0
  0
LINE
  5
2F4
  8
PREDEFINITO
 10
1600.029752701261
 20
-1457.97458149499
 30
0.0
 11
1594.029752701261
 21
-1457.97458149499
 31
0.0
  0
LINE
  5
2F5
  8
PREDEFINITO
 10
1594.029752701261
 20
-1457.97458149499
 30
0.0
 11
1594.029752701261
 21
-1463.97458149499
 31
0.0
  0
LINE
  5
2F6
  8
PREDEFINITO
 10
1594.029752701261
 20
-1463.97458149499
 30
0.0
 11
1588.029752701261
 21
-1463.97458149499
 31
0.0
  0
LINE
  5
2F7
  8
PREDEFINITO
 10
1588.029752701261
 20
-1463.97458149499
 30
0.0
 11
1588.029752701261
 21
-1457.97458149499
 31
0.0
  0
LINE
  5
2F8
  8
PREDEFINITO
 10
1588.029752701261
 20
-1457.97458149499
 30
0.0
 11
1523.239752701261
 21
-1457.97458149499
 31
0.0
  0
LINE
  5
2F9
  8
PREDEFINITO
 10
1523.239752701261
 20
-1457.97458149499
 30
0.0
 11
1523.239752701261
 21
-1463.97458149499
 31
0.0
  0
LINE
  5
2FA
  8
PREDEFINITO
 10
1523.239752701261
 20
-1463.97458149499
 30
0.0
 11
1517.239752701261
 21
-1463.97458149499
 31
0.0
  0
LINE
  5
2FB
  8
PREDEFINITO
 10
1517.239752701261
 20
-1463.97458149499
 30
0.0
 11
1517.239752701261
 21
-1457.97458149499
 31
0.0
  0
LINE
  5
2FC
  8
PREDEFINITO
 10
1517.239752701261
 20
-1457.97458149499
 30
0.0
 11
1511.239752701261
 21
-1457.97458149499
 31
0.0
  0
LINE
  5
2FD
  8
PREDEFINITO
 10
1511.239752701261
 20
-1457.97458149499
 30
0.0
 11
1511.239752701261
 21
-1511.982399417093
 31
0.0
  0
LINE
  5
2FE
  8
TUBBBI
 10
1576.634752701261
 20
-1505.982399417092
 30
0.0
 11
1576.634752701261
 21
-1499.982399417093
 31
0.0
  0
LINE
  5
2FF
  8
TUBBBI
 10
1576.63475270126
 20
-1493.982399417093
 30
0.0
 11
1576.63475270126
 21
-1481.982399417093
 31
0.0
  0
LINE
  5
300
  8
TUBBBI
 10
1576.634752701261
 20
-1499.982399417093
 30
0.0
 11
1582.63475270126
 21
-1499.982399417093
 31
0.0
  0
LINE
  5
301
  8
TUBBBI
 10
1582.63475270126
 20
-1499.982399417093
 30
0.0
 11
1582.63475270126
 21
-1505.982399417092
 31
0.0
  0
LINE
  5
302
  8
TUBBBI
 10
1582.63475270126
 20
-1505.982399417092
 30
0.0
 11
1576.634752701261
 21
-1505.982399417092
 31
0.0
  0
LINE
  5
303
  8
TUBBBI
 10
1576.634752701261
 20
-1505.982399417092
 30
0.0
 11
1576.634752701261
 21
-1499.982399417093
 31
0.0
  0
LINE
  5
304
  8
TUBBBI
 10
1576.63475270126
 20
-1481.982399417093
 30
0.0
 11
1582.63475270126
 21
-1481.982399417093
 31
0.0
  0
LINE
  5
305
  8
TUBBBI
 10
1582.63475270126
 20
-1481.982399417093
 30
0.0
 11
1582.63475270126
 21
-1493.982399417093
 31
0.0
  0
LINE
  5
306
  8
TUBBBI
 10
1582.63475270126
 20
-1493.982399417093
 30
0.0
 11
1576.63475270126
 21
-1493.982399417093
 31
0.0
  0
LINE
  5
307
  8
TUBBBI
 10
1576.63475270126
 20
-1493.982399417093
 30
0.0
 11
1576.63475270126
 21
-1481.982399417093
 31
0.0
  0
LINE
  5
308
  8
TUBBBI
 10
1534.634752701262
 20
-1481.982399417092
 30
0.0
 11
1528.634752701262
 21
-1481.982399417092
 31
0.0
  0
LINE
  5
309
  8
TUBBBI
 10
1528.634752701262
 20
-1481.982399417092
 30
0.0
 11
1528.634752701262
 21
-1493.982399417092
 31
0.0
  0
LINE
  5
30A
  8
TUBBBI
 10
1528.634752701262
 20
-1493.982399417092
 30
0.0
 11
1534.634752701262
 21
-1493.982399417092
 31
0.0
  0
LINE
  5
30B
  8
TUBBBI
 10
1534.634752701262
 20
-1493.982399417092
 30
0.0
 11
1534.634752701262
 21
-1481.982399417092
 31
0.0
  0
LINE
  5
30C
  8
TUBBBI
 10
1534.634752701261
 20
-1499.982399417092
 30
0.0
 11
1528.634752701262
 21
-1499.982399417092
 31
0.0
  0
LINE
  5
30D
  8
TUBBBI
 10
1528.634752701262
 20
-1499.982399417092
 30
0.0
 11
1528.634752701262
 21
-1505.982399417092
 31
0.0
  0
LINE
  5
30E
  8
TUBBBI
 10
1528.634752701262
 20
-1505.982399417092
 30
0.0
 11
1534.634752701261
 21
-1505.982399417092
 31
0.0
  0
LINE
  5
30F
  8
TUBBBI
 10
1534.634752701261
 20
-1505.982399417092
 30
0.0
 11
1534.634752701261
 21
-1499.982399417092
 31
0.0
  0
LINE
  5
310
  8
TUBBBI
 10
1534.634752701261
 20
-1411.427162606215
 30
0.0
 11
1528.634752701262
 21
-1411.427162606215
 31
0.0
  0
LINE
  5
311
  8
TUBBBI
 10
1528.634752701262
 20
-1411.427162606215
 30
0.0
 11
1528.634752701262
 21
-1405.427162606216
 31
0.0
  0
LINE
  5
312
  8
TUBBBI
 10
1528.634752701262
 20
-1405.427162606216
 30
0.0
 11
1534.634752701261
 21
-1405.427162606216
 31
0.0
  0
LINE
  5
313
  8
TUBBBI
 10
1534.634752701261
 20
-1405.427162606216
 30
0.0
 11
1534.634752701261
 21
-1411.427162606215
 31
0.0
  0
LINE
  5
314
  8
TUBBBI
 10
1534.634752701262
 20
-1429.427162606215
 30
0.0
 11
1528.634752701262
 21
-1429.427162606215
 31
0.0
  0
LINE
  5
315
  8
TUBBBI
 10
1528.634752701262
 20
-1429.427162606215
 30
0.0
 11
1528.634752701262
 21
-1417.427162606215
 31
0.0
  0
LINE
  5
316
  8
TUBBBI
 10
1528.634752701262
 20
-1417.427162606215
 30
0.0
 11
1534.634752701262
 21
-1417.427162606215
 31
0.0
  0
LINE
  5
317
  8
TUBBBI
 10
1534.634752701262
 20
-1417.427162606215
 30
0.0
 11
1534.634752701262
 21
-1429.427162606215
 31
0.0
  0
LINE
  5
318
  8
TUBBBI
 10
1576.63475270126
 20
-1429.427162606215
 30
0.0
 11
1582.63475270126
 21
-1429.427162606215
 31
0.0
  0
LINE
  5
319
  8
TUBBBI
 10
1582.63475270126
 20
-1429.427162606215
 30
0.0
 11
1582.63475270126
 21
-1417.427162606215
 31
0.0
  0
LINE
  5
31A
  8
TUBBBI
 10
1582.63475270126
 20
-1417.427162606215
 30
0.0
 11
1576.63475270126
 21
-1417.427162606215
 31
0.0
  0
LINE
  5
31B
  8
TUBBBI
 10
1576.63475270126
 20
-1417.427162606215
 30
0.0
 11
1576.63475270126
 21
-1429.427162606215
 31
0.0
  0
LINE
  5
31C
  8
TUBBBI
 10
1576.634752701261
 20
-1411.427162606215
 30
0.0
 11
1582.63475270126
 21
-1411.427162606215
 31
0.0
  0
LINE
  5
31D
  8
TUBBBI
 10
1582.63475270126
 20
-1411.427162606215
 30
0.0
 11
1582.63475270126
 21
-1405.427162606215
 31
0.0
  0
LINE
  5
31E
  8
TUBBBI
 10
1582.63475270126
 20
-1405.427162606215
 30
0.0
 11
1576.634752701261
 21
-1405.427162606215
 31
0.0
  0
LINE
  5
31F
  8
TUBBBI
 10
1576.634752701261
 20
-1405.427162606215
 30
0.0
 11
1576.634752701261
 21
-1411.427162606215
 31
0.0
  0
LINE
  5
320
  8
TUBBBI
 10
1576.63475270126
 20
-1417.427162606215
 30
0.0
 11
1576.63475270126
 21
-1429.427162606215
 31
0.0
  0
LINE
  5
321
  8
TUBBBI
 10
1576.634752701261
 20
-1405.427162606215
 30
0.0
 11
1576.634752701261
 21
-1411.427162606215
 31
0.0
  0
LINE
  5
322
  8
PREDEFINITO
 10
1511.239752701261
 20
-1399.427162606215
 30
0.0
 11
1511.239752701261
 21
-1379.427162606215
 31
0.0
  0
LINE
  5
323
  8
PREDEFINITO
 10
1511.239752701261
 20
-1379.427162606215
 30
0.0
 11
1600.029752701261
 21
-1379.427162606215
 31
0.0
  0
LINE
  5
324
  8
PREDEFINITO
 10
1600.029752701261
 20
-1379.427162606215
 30
0.0
 11
1600.029752701261
 21
-1399.427162606215
 31
0.0
  0
LINE
  5
325
  8
PREDEFINITO
 10
1600.029752701261
 20
-1399.427162606215
 30
0.0
 11
1600.029752701261
 21
-1453.434980528318
 31
0.0
  0
LINE
  5
326
  8
PREDEFINITO
 10
1600.029752701261
 20
-1453.434980528318
 30
0.0
 11
1594.029752701261
 21
-1453.434980528318
 31
0.0
  0
LINE
  5
327
  8
PREDEFINITO
 10
1594.029752701261
 20
-1453.434980528318
 30
0.0
 11
1594.029752701261
 21
-1447.434980528318
 31
0.0
  0
LINE
  5
328
  8
PREDEFINITO
 10
1594.029752701261
 20
-1447.434980528318
 30
0.0
 11
1588.029752701261
 21
-1447.434980528318
 31
0.0
  0
LINE
  5
329
  8
PREDEFINITO
 10
1588.029752701261
 20
-1447.434980528318
 30
0.0
 11
1588.029752701261
 21
-1453.434980528318
 31
0.0
  0
LINE
  5
32A
  8
PREDEFINITO
 10
1588.029752701261
 20
-1453.434980528318
 30
0.0
 11
1523.239752701261
 21
-1453.434980528318
 31
0.0
  0
LINE
  5
32B
  8
PREDEFINITO
 10
1523.239752701261
 20
-1453.434980528318
 30
0.0
 11
1523.239752701261
 21
-1447.434980528318
 31
0.0
  0
LINE
  5
32C
  8
PREDEFINITO
 10
1523.239752701261
 20
-1447.434980528318
 30
0.0
 11
1517.239752701261
 21
-1447.434980528318
 31
0.0
  0
LINE
  5
32D
  8
PREDEFINITO
 10
1517.239752701261
 20
-1447.434980528318
 30
0.0
 11
1517.239752701261
 21
-1453.434980528318
 31
0.0
  0
LINE
  5
32E
  8
PREDEFINITO
 10
1517.239752701261
 20
-1453.434980528318
 30
0.0
 11
1511.239752701261
 21
-1453.434980528318
 31
0.0
  0
LINE
  5
32F
  8
PREDEFINITO
 10
1511.239752701261
 20
-1453.434980528318
 30
0.0
 11
1511.239752701261
 21
-1399.427162606215
 31
0.0
  0
CIRCLE
  5
330
  8
TUBBBI
 10
1591.134752701261
 20
-1401.47665416311
 30
0.0
 40
6.25
  0
CIRCLE
  5
331
  8
TUBBBI
 10
1520.134752701261
 20
-1401.47665416311
 30
0.0
 40
6.25
  0
CIRCLE
  5
332
  8
TUBBBI
 10
1555.634752701261
 20
-1405.436654163111
 30
0.0
 40
11.0
  0
CIRCLE
  5
333
  8
TUBBBI
 10
1570.684752701261
 20
-1390.386654163111
 30
0.0
 40
1.25
  0
CIRCLE
  5
334
  8
TUBBBI
 10
1570.684752701261
 20
-1420.486654163111
 30
0.0
 40
1.25
  0
CIRCLE
  5
335
  8
TUBBBI
 10
1540.584752701261
 20
-1420.486654163111
 30
0.0
 40
1.25
  0
CIRCLE
  5
336
  8
TUBBBI
 10
1540.584752701261
 20
-1390.386654163111
 30
0.0
 40
1.25
  0
CIRCLE
  5
337
  8
TUBBBI
 10
1555.634752701262
 20
-1505.972907860197
 30
0.0
 40
10.99999999999977
  0
CIRCLE
  5
338
  8
TUBBBI
 10
1570.684752701261
 20
-1490.922907860197
 30
0.0
 40
1.25
  0
CIRCLE
  5
339
  8
TUBBBI
 10
1570.684752701261
 20
-1521.022907860197
 30
0.0
 40
1.25
  0
CIRCLE
  5
33A
  8
TUBBBI
 10
1540.584752701261
 20
-1521.022907860197
 30
0.0
 40
1.25
  0
CIRCLE
  5
33B
  8
TUBBBI
 10
1540.584752701261
 20
-1490.922907860197
 30
0.0
 40
1.25
  0
LINE
  5
33D
  8
TAGLIO
 10
878.2824613844466
 20
-1649.196161305976
 30
0.0
 11
1728.282461384446
 21
-1649.196161305976
 31
0.0
  0
LINE
  5
33E
  8
TAGLIO
 10
1728.282461384446
 20
-1649.196161305976
 30
0.0
 11
1728.282461384446
 21
-1049.196161305976
 31
0.0
  0
LINE
  5
33F
  8
TAGLIO
 10
1728.282461384446
 20
-1049.196161305976
 30
0.0
 11
878.2824613844466
 21
-1049.196161305976
 31
0.0
  0
LINE
  5
340
  8
TAGLIO
 10
878.2824613844466
 20
-1049.196161305976
 30
0.0
 11
878.2824613844466
 21
-1649.196161305976
 31
0.0
  0
CIRCLE
  5
341
  8
TUBBBI
 10
1666.362263449542
 20
-1101.866243555927
 30
0.0
 40
2.5
  0
CIRCLE
  5
342
  8
TUBBBI
 10
1676.321555593063
 20
-1119.116243555927
 30
0.0
 40
2.5
  0
CIRCLE
  5
343
  8
TUBBBI
 10
1656.402971306021
 20
-1119.116243555927
 30
0.0
 40
2.5
  0
CIRCLE
  5
344
  8
TUBBBI
 10
1630.862263449542
 20
-1117.326243555927
 30
0.0
 40
6.25
  0
CIRCLE
  5
345
  8
TUBBBI
 10
1666.362263449542
 20
-1113.366243555927
 30
0.0
 40
4.5
  0
CIRCLE
  5
346
  8
TUBBBI
 10
1701.862263449542
 20
-1117.326243555927
 30
0.0
 40
6.25
  0
LINE
  5
347
  8
PREDEFINITO
 10
1710.757263449541
 20
-1077.713425633825
 30
0.0
 11
1710.757263449541
 21
-1057.713425633825
 31
0.0
  0
LINE
  5
348
  8
PREDEFINITO
 10
1710.757263449541
 20
-1057.713425633825
 30
0.0
 11
1621.967263449542
 21
-1057.713425633825
 31
0.0
  0
LINE
  5
349
  8
PREDEFINITO
 10
1621.967263449542
 20
-1057.713425633825
 30
0.0
 11
1621.967263449542
 21
-1077.713425633825
 31
0.0
  0
LINE
  5
34A
  8
PREDEFINITO
 10
1621.967263449542
 20
-1077.713425633825
 30
0.0
 11
1621.967263449542
 21
-1083.713425633825
 31
0.0
  0
LINE
  5
34B
  8
PREDEFINITO
 10
1621.967263449542
 20
-1083.713425633825
 30
0.0
 11
1615.967263449542
 21
-1083.713425633825
 31
0.0
  0
LINE
  5
34C
  8
PREDEFINITO
 10
1615.967263449542
 20
-1083.713425633825
 30
0.0
 11
1615.967263449542
 21
-1089.713425633825
 31
0.0
  0
LINE
  5
34D
  8
PREDEFINITO
 10
1615.967263449542
 20
-1089.713425633825
 30
0.0
 11
1621.967263449542
 21
-1089.713425633825
 31
0.0
  0
LINE
  5
34E
  8
PREDEFINITO
 10
1621.967263449542
 20
-1089.713425633825
 30
0.0
 11
1621.967263449542
 21
-1095.713425633825
 31
0.0
  0
LINE
  5
34F
  8
PREDEFINITO
 10
1621.967263449542
 20
-1095.713425633825
 30
0.0
 11
1615.967263449542
 21
-1095.713425633825
 31
0.0
  0
LINE
  5
350
  8
PREDEFINITO
 10
1615.967263449542
 20
-1095.713425633825
 30
0.0
 11
1615.967263449542
 21
-1107.713425633825
 31
0.0
  0
LINE
  5
351
  8
PREDEFINITO
 10
1615.967263449542
 20
-1107.713425633825
 30
0.0
 11
1621.967263449542
 21
-1107.713425633825
 31
0.0
  0
LINE
  5
352
  8
PREDEFINITO
 10
1621.967263449542
 20
-1107.713425633825
 30
0.0
 11
1621.967263449541
 21
-1125.721243555928
 31
0.0
  0
LINE
  5
353
  8
PREDEFINITO
 10
1621.967263449541
 20
-1125.721243555928
 30
0.0
 11
1645.362263449541
 21
-1125.721243555928
 31
0.0
  0
LINE
  5
354
  8
PREDEFINITO
 10
1645.362263449541
 20
-1125.721243555928
 30
0.0
 11
1645.362263449541
 21
-1131.721243555928
 31
0.0
  0
LINE
  5
355
  8
PREDEFINITO
 10
1645.362263449541
 20
-1131.721243555928
 30
0.0
 11
1657.362263449542
 21
-1131.721243555928
 31
0.0
  0
LINE
  5
356
  8
PREDEFINITO
 10
1657.362263449542
 20
-1131.721243555928
 30
0.0
 11
1657.362263449541
 21
-1125.721243555928
 31
0.0
  0
LINE
  5
357
  8
PREDEFINITO
 10
1657.362263449541
 20
-1125.721243555928
 30
0.0
 11
1675.362263449542
 21
-1125.721243555928
 31
0.0
  0
LINE
  5
358
  8
PREDEFINITO
 10
1675.362263449542
 20
-1125.721243555928
 30
0.0
 11
1675.362263449542
 21
-1131.721243555928
 31
0.0
  0
LINE
  5
359
  8
PREDEFINITO
 10
1675.362263449542
 20
-1131.721243555928
 30
0.0
 11
1687.362263449542
 21
-1131.721243555928
 31
0.0
  0
LINE
  5
35A
  8
PREDEFINITO
 10
1687.362263449542
 20
-1131.721243555928
 30
0.0
 11
1687.362263449542
 21
-1125.721243555928
 31
0.0
  0
LINE
  5
35B
  8
PREDEFINITO
 10
1687.362263449542
 20
-1125.721243555928
 30
0.0
 11
1710.757263449541
 21
-1125.721243555928
 31
0.0
  0
LINE
  5
35C
  8
PREDEFINITO
 10
1710.757263449541
 20
-1125.721243555928
 30
0.0
 11
1710.757263449541
 21
-1107.713425633825
 31
0.0
  0
LINE
  5
35D
  8
PREDEFINITO
 10
1710.757263449541
 20
-1107.713425633825
 30
0.0
 11
1716.757263449541
 21
-1107.713425633825
 31
0.0
  0
LINE
  5
35E
  8
PREDEFINITO
 10
1716.757263449541
 20
-1107.713425633825
 30
0.0
 11
1716.757263449541
 21
-1095.713425633825
 31
0.0
  0
LINE
  5
35F
  8
PREDEFINITO
 10
1716.757263449541
 20
-1095.713425633825
 30
0.0
 11
1710.757263449541
 21
-1095.713425633825
 31
0.0
  0
LINE
  5
360
  8
PREDEFINITO
 10
1710.757263449541
 20
-1095.713425633825
 30
0.0
 11
1710.757263449541
 21
-1089.713425633825
 31
0.0
  0
LINE
  5
361
  8
PREDEFINITO
 10
1710.757263449541
 20
-1089.713425633825
 30
0.0
 11
1716.757263449541
 21
-1089.713425633825
 31
0.0
  0
LINE
  5
362
  8
PREDEFINITO
 10
1716.757263449541
 20
-1089.713425633825
 30
0.0
 11
1716.757263449541
 21
-1083.713425633825
 31
0.0
  0
LINE
  5
363
  8
PREDEFINITO
 10
1716.757263449541
 20
-1083.713425633825
 30
0.0
 11
1710.757263449541
 21
-1083.713425633825
 31
0.0
  0
LINE
  5
364
  8
PREDEFINITO
 10
1710.757263449541
 20
-1083.713425633825
 30
0.0
 11
1710.757263449541
 21
-1077.713425633825
 31
0.0
  0
CIRCLE
  5
365
  8
TUBBBI
 10
1666.362263449542
 20
-1168.55429397259
 30
0.0
 40
2.5
  0
CIRCLE
  5
366
  8
TUBBBI
 10
1676.321555593063
 20
-1151.30429397259
 30
0.0
 40
2.5
  0
CIRCLE
  5
367
  8
TUBBBI
 10
1656.402971306021
 20
-1151.30429397259
 30
0.0
 40
2.5
  0
CIRCLE
  5
368
  8
TUBBBI
 10
1630.862263449542
 20
-1153.09429397259
 30
0.0
 40
6.25
  0
CIRCLE
  5
369
  8
TUBBBI
 10
1666.362263449542
 20
-1157.05429397259
 30
0.0
 40
4.5
  0
CIRCLE
  5
36A
  8
TUBBBI
 10
1701.862263449542
 20
-1153.09429397259
 30
0.0
 40
6.25
  0
LINE
  5
36B
  8
PREDEFINITO
 10
1710.757263449541
 20
-1192.707111894692
 30
0.0
 11
1710.757263449541
 21
-1212.707111894692
 31
0.0
  0
LINE
  5
36C
  8
PREDEFINITO
 10
1710.757263449541
 20
-1212.707111894692
 30
0.0
 11
1621.967263449542
 21
-1212.707111894692
 31
0.0
  0
LINE
  5
36D
  8
PREDEFINITO
 10
1621.967263449542
 20
-1212.707111894692
 30
0.0
 11
1621.967263449542
 21
-1192.707111894692
 31
0.0
  0
LINE
  5
36E
  8
PREDEFINITO
 10
1621.967263449542
 20
-1192.707111894692
 30
0.0
 11
1621.967263449542
 21
-1186.707111894692
 31
0.0
  0
LINE
  5
36F
  8
PREDEFINITO
 10
1621.967263449542
 20
-1186.707111894692
 30
0.0
 11
1615.967263449542
 21
-1186.707111894692
 31
0.0
  0
LINE
  5
370
  8
PREDEFINITO
 10
1615.967263449542
 20
-1186.707111894692
 30
0.0
 11
1615.967263449542
 21
-1180.707111894692
 31
0.0
  0
LINE
  5
371
  8
PREDEFINITO
 10
1615.967263449542
 20
-1180.707111894692
 30
0.0
 11
1621.967263449542
 21
-1180.707111894692
 31
0.0
  0
LINE
  5
372
  8
PREDEFINITO
 10
1621.967263449542
 20
-1180.707111894692
 30
0.0
 11
1621.967263449542
 21
-1174.707111894692
 31
0.0
  0
LINE
  5
373
  8
PREDEFINITO
 10
1621.967263449542
 20
-1174.707111894692
 30
0.0
 11
1615.967263449542
 21
-1174.707111894692
 31
0.0
  0
LINE
  5
374
  8
PREDEFINITO
 10
1615.967263449542
 20
-1174.707111894692
 30
0.0
 11
1615.967263449542
 21
-1162.707111894692
 31
0.0
  0
LINE
  5
375
  8
PREDEFINITO
 10
1615.967263449542
 20
-1162.707111894692
 30
0.0
 11
1621.967263449542
 21
-1162.707111894692
 31
0.0
  0
LINE
  5
376
  8
PREDEFINITO
 10
1621.967263449542
 20
-1162.707111894692
 30
0.0
 11
1621.967263449541
 21
-1144.699293972589
 31
0.0
  0
LINE
  5
377
  8
PREDEFINITO
 10
1621.967263449541
 20
-1144.699293972589
 30
0.0
 11
1645.362263449541
 21
-1144.699293972589
 31
0.0
  0
LINE
  5
378
  8
PREDEFINITO
 10
1645.362263449541
 20
-1144.699293972589
 30
0.0
 11
1645.362263449541
 21
-1138.699293972589
 31
0.0
  0
LINE
  5
379
  8
PREDEFINITO
 10
1645.362263449541
 20
-1138.699293972589
 30
0.0
 11
1657.362263449542
 21
-1138.699293972589
 31
0.0
  0
LINE
  5
37A
  8
PREDEFINITO
 10
1657.362263449542
 20
-1138.699293972589
 30
0.0
 11
1657.362263449541
 21
-1144.699293972589
 31
0.0
  0
LINE
  5
37B
  8
PREDEFINITO
 10
1657.362263449541
 20
-1144.699293972589
 30
0.0
 11
1675.362263449542
 21
-1144.699293972589
 31
0.0
  0
LINE
  5
37C
  8
PREDEFINITO
 10
1675.362263449542
 20
-1144.699293972589
 30
0.0
 11
1675.362263449542
 21
-1138.699293972589
 31
0.0
  0
LINE
  5
37D
  8
PREDEFINITO
 10
1675.362263449542
 20
-1138.699293972589
 30
0.0
 11
1687.362263449542
 21
-1138.699293972589
 31
0.0
  0
LINE
  5
37E
  8
PREDEFINITO
 10
1687.362263449542
 20
-1138.699293972589
 30
0.0
 11
1687.362263449542
 21
-1144.699293972589
 31
0.0
  0
LINE
  5
37F
  8
PREDEFINITO
 10
1687.362263449542
 20
-1144.699293972589
 30
0.0
 11
1710.757263449541
 21
-1144.699293972589
 31
0.0
  0
LINE
  5
380
  8
PREDEFINITO
 10
1710.757263449541
 20
-1144.699293972589
 30
0.0
 11
1710.757263449541
 21
-1162.707111894692
 31
0.0
  0
LINE
  5
381
  8
PREDEFINITO
 10
1710.757263449541
 20
-1162.707111894692
 30
0.0
 11
1716.757263449541
 21
-1162.707111894692
 31
0.0
  0
LINE
  5
382
  8
PREDEFINITO
 10
1716.757263449541
 20
-1162.707111894692
 30
0.0
 11
1716.757263449541
 21
-1174.707111894692
 31
0.0
  0
LINE
  5
383
  8
PREDEFINITO
 10
1716.757263449541
 20
-1174.707111894692
 30
0.0
 11
1710.757263449541
 21
-1174.707111894692
 31
0.0
  0
LINE
  5
384
  8
PREDEFINITO
 10
1710.757263449541
 20
-1174.707111894692
 30
0.0
 11
1710.757263449541
 21
-1180.707111894692
 31
0.0
  0
LINE
  5
385
  8
PREDEFINITO
 10
1710.757263449541
 20
-1180.707111894692
 30
0.0
 11
1716.757263449541
 21
-1180.707111894692
 31
0.0
  0
LINE
  5
386
  8
PREDEFINITO
 10
1716.757263449541
 20
-1180.707111894692
 30
0.0
 11
1716.757263449541
 21
-1186.707111894692
 31
0.0
  0
LINE
  5
387
  8
PREDEFINITO
 10
1716.757263449541
 20
-1186.707111894692
 30
0.0
 11
1710.757263449541
 21
-1186.707111894692
 31
0.0
  0
LINE
  5
388
  8
PREDEFINITO
 10
1710.757263449541
 20
-1186.707111894692
 30
0.0
 11
1710.757263449541
 21
-1192.707111894692
 31
0.0
  0
LINE
  5
389
  8
PREDEFINITO
 10
1710.757263449541
 20
-1239.746655154556
 30
0.0
 11
1710.757263449541
 21
-1219.746655154556
 31
0.0
  0
LINE
  5
38A
  8
PREDEFINITO
 10
1710.757263449541
 20
-1219.746655154556
 30
0.0
 11
1621.967263449542
 21
-1219.746655154556
 31
0.0
  0
LINE
  5
38B
  8
PREDEFINITO
 10
1621.967263449542
 20
-1219.746655154556
 30
0.0
 11
1621.967263449542
 21
-1239.746655154556
 31
0.0
  0
LINE
  5
38C
  8
PREDEFINITO
 10
1621.967263449542
 20
-1239.746655154556
 30
0.0
 11
1621.967263449542
 21
-1245.746655154556
 31
0.0
  0
LINE
  5
38D
  8
PREDEFINITO
 10
1621.967263449542
 20
-1245.746655154556
 30
0.0
 11
1615.967263449542
 21
-1245.746655154556
 31
0.0
  0
LINE
  5
38E
  8
PREDEFINITO
 10
1615.967263449542
 20
-1245.746655154556
 30
0.0
 11
1615.967263449542
 21
-1251.746655154556
 31
0.0
  0
LINE
  5
38F
  8
PREDEFINITO
 10
1615.967263449542
 20
-1251.746655154556
 30
0.0
 11
1621.967263449542
 21
-1251.746655154556
 31
0.0
  0
LINE
  5
390
  8
PREDEFINITO
 10
1621.967263449542
 20
-1251.746655154556
 30
0.0
 11
1621.967263449542
 21
-1257.746655154556
 31
0.0
  0
LINE
  5
391
  8
PREDEFINITO
 10
1621.967263449542
 20
-1257.746655154556
 30
0.0
 11
1615.967263449542
 21
-1257.746655154556
 31
0.0
  0
LINE
  5
392
  8
PREDEFINITO
 10
1615.967263449542
 20
-1257.746655154556
 30
0.0
 11
1615.967263449542
 21
-1269.746655154556
 31
0.0
  0
LINE
  5
393
  8
PREDEFINITO
 10
1615.967263449542
 20
-1269.746655154556
 30
0.0
 11
1621.967263449542
 21
-1269.746655154556
 31
0.0
  0
LINE
  5
394
  8
PREDEFINITO
 10
1621.967263449542
 20
-1269.746655154556
 30
0.0
 11
1621.967263449541
 21
-1287.754473076658
 31
0.0
  0
LINE
  5
395
  8
PREDEFINITO
 10
1621.967263449541
 20
-1287.754473076658
 30
0.0
 11
1645.362263449541
 21
-1287.754473076658
 31
0.0
  0
LINE
  5
396
  8
PREDEFINITO
 10
1645.362263449541
 20
-1287.754473076658
 30
0.0
 11
1645.362263449541
 21
-1293.754473076658
 31
0.0
  0
LINE
  5
397
  8
PREDEFINITO
 10
1645.362263449541
 20
-1293.754473076658
 30
0.0
 11
1657.362263449542
 21
-1293.754473076658
 31
0.0
  0
LINE
  5
398
  8
PREDEFINITO
 10
1657.362263449542
 20
-1293.754473076658
 30
0.0
 11
1657.362263449541
 21
-1287.754473076658
 31
0.0
  0
LINE
  5
399
  8
PREDEFINITO
 10
1657.362263449541
 20
-1287.754473076658
 30
0.0
 11
1675.362263449542
 21
-1287.754473076658
 31
0.0
  0
LINE
  5
39A
  8
PREDEFINITO
 10
1675.362263449542
 20
-1287.754473076658
 30
0.0
 11
1675.362263449542
 21
-1293.754473076658
 31
0.0
  0
LINE
  5
39B
  8
PREDEFINITO
 10
1675.362263449542
 20
-1293.754473076658
 30
0.0
 11
1687.362263449542
 21
-1293.754473076658
 31
0.0
  0
LINE
  5
39C
  8
PREDEFINITO
 10
1687.362263449542
 20
-1293.754473076658
 30
0.0
 11
1687.362263449542
 21
-1287.754473076658
 31
0.0
  0
LINE
  5
39D
  8
PREDEFINITO
 10
1687.362263449542
 20
-1287.754473076658
 30
0.0
 11
1710.757263449541
 21
-1287.754473076658
 31
0.0
  0
LINE
  5
39E
  8
PREDEFINITO
 10
1710.757263449541
 20
-1287.754473076658
 30
0.0
 11
1710.757263449541
 21
-1269.746655154556
 31
0.0
  0
LINE
  5
39F
  8
PREDEFINITO
 10
1710.757263449541
 20
-1269.746655154556
 30
0.0
 11
1716.757263449541
 21
-1269.746655154556
 31
0.0
  0
LINE
  5
3A0
  8
PREDEFINITO
 10
1716.757263449541
 20
-1269.746655154556
 30
0.0
 11
1716.757263449541
 21
-1257.746655154556
 31
0.0
  0
LINE
  5
3A1
  8
PREDEFINITO
 10
1716.757263449541
 20
-1257.746655154556
 30
0.0
 11
1710.757263449541
 21
-1257.746655154556
 31
0.0
  0
LINE
  5
3A2
  8
PREDEFINITO
 10
1710.757263449541
 20
-1257.746655154556
 30
0.0
 11
1710.757263449541
 21
-1251.746655154556
 31
0.0
  0
LINE
  5
3A3
  8
PREDEFINITO
 10
1710.757263449541
 20
-1251.746655154556
 30
0.0
 11
1716.757263449541
 21
-1251.746655154556
 31
0.0
  0
LINE
  5
3A4
  8
PREDEFINITO
 10
1716.757263449541
 20
-1251.746655154556
 30
0.0
 11
1716.757263449541
 21
-1245.746655154556
 31
0.0
  0
LINE
  5
3A5
  8
PREDEFINITO
 10
1716.757263449541
 20
-1245.746655154556
 30
0.0
 11
1710.757263449541
 21
-1245.746655154556
 31
0.0
  0
LINE
  5
3A6
  8
PREDEFINITO
 10
1710.757263449541
 20
-1245.746655154556
 30
0.0
 11
1710.757263449541
 21
-1239.746655154556
 31
0.0
  0
CIRCLE
  5
3A7
  8
TUBBBI
 10
1701.862263449542
 20
-1279.359473076657
 30
0.0
 40
6.25
  0
CIRCLE
  5
3A8
  8
TUBBBI
 10
1666.362263449542
 20
-1275.399473076658
 30
0.0
 40
4.5
  0
CIRCLE
  5
3A9
  8
TUBBBI
 10
1630.862263449542
 20
-1279.359473076657
 30
0.0
 40
6.25
  0
CIRCLE
  5
3AA
  8
TUBBBI
 10
1656.402971306021
 20
-1281.149473076658
 30
0.0
 40
2.5
  0
CIRCLE
  5
3AB
  8
TUBBBI
 10
1676.321555593063
 20
-1281.149473076658
 30
0.0
 40
2.5
  0
CIRCLE
  5
3AC
  8
TUBBBI
 10
1666.362263449542
 20
-1263.899473076658
 30
0.0
 40
2.5
  0
LINE
  5
3AD
  8
PREDEFINITO
 10
1710.757263449541
 20
-1354.740341415423
 30
0.0
 11
1710.757263449541
 21
-1374.740341415423
 31
0.0
  0
LINE
  5
3AE
  8
PREDEFINITO
 10
1710.757263449541
 20
-1374.740341415423
 30
0.0
 11
1621.967263449542
 21
-1374.740341415423
 31
0.0
  0
LINE
  5
3AF
  8
PREDEFINITO
 10
1621.967263449542
 20
-1374.740341415423
 30
0.0
 11
1621.967263449542
 21
-1354.740341415423
 31
0.0
  0
LINE
  5
3B0
  8
PREDEFINITO
 10
1621.967263449542
 20
-1354.740341415423
 30
0.0
 11
1621.967263449542
 21
-1348.740341415423
 31
0.0
  0
LINE
  5
3B1
  8
PREDEFINITO
 10
1621.967263449542
 20
-1348.740341415423
 30
0.0
 11
1615.967263449542
 21
-1348.740341415422
 31
0.0
  0
LINE
  5
3B2
  8
PREDEFINITO
 10
1615.967263449542
 20
-1348.740341415422
 30
0.0
 11
1615.967263449542
 21
-1342.740341415423
 31
0.0
  0
LINE
  5
3B3
  8
PREDEFINITO
 10
1615.967263449542
 20
-1342.740341415423
 30
0.0
 11
1621.967263449542
 21
-1342.740341415423
 31
0.0
  0
LINE
  5
3B4
  8
PREDEFINITO
 10
1621.967263449542
 20
-1342.740341415423
 30
0.0
 11
1621.967263449542
 21
-1336.740341415423
 31
0.0
  0
LINE
  5
3B5
  8
PREDEFINITO
 10
1621.967263449542
 20
-1336.740341415423
 30
0.0
 11
1615.967263449542
 21
-1336.740341415423
 31
0.0
  0
LINE
  5
3B6
  8
PREDEFINITO
 10
1615.967263449542
 20
-1336.740341415423
 30
0.0
 11
1615.967263449542
 21
-1324.740341415423
 31
0.0
  0
LINE
  5
3B7
  8
PREDEFINITO
 10
1615.967263449542
 20
-1324.740341415423
 30
0.0
 11
1621.967263449542
 21
-1324.740341415423
 31
0.0
  0
LINE
  5
3B8
  8
PREDEFINITO
 10
1621.967263449542
 20
-1324.740341415423
 30
0.0
 11
1621.967263449541
 21
-1306.73252349332
 31
0.0
  0
LINE
  5
3B9
  8
PREDEFINITO
 10
1621.967263449541
 20
-1306.73252349332
 30
0.0
 11
1645.362263449541
 21
-1306.73252349332
 31
0.0
  0
LINE
  5
3BA
  8
PREDEFINITO
 10
1645.362263449541
 20
-1306.73252349332
 30
0.0
 11
1645.362263449541
 21
-1300.73252349332
 31
0.0
  0
LINE
  5
3BB
  8
PREDEFINITO
 10
1645.362263449541
 20
-1300.73252349332
 30
0.0
 11
1657.362263449542
 21
-1300.73252349332
 31
0.0
  0
LINE
  5
3BC
  8
PREDEFINITO
 10
1657.362263449542
 20
-1300.73252349332
 30
0.0
 11
1657.362263449541
 21
-1306.73252349332
 31
0.0
  0
LINE
  5
3BD
  8
PREDEFINITO
 10
1657.362263449541
 20
-1306.73252349332
 30
0.0
 11
1675.362263449542
 21
-1306.73252349332
 31
0.0
  0
LINE
  5
3BE
  8
PREDEFINITO
 10
1675.362263449542
 20
-1306.73252349332
 30
0.0
 11
1675.362263449542
 21
-1300.73252349332
 31
0.0
  0
LINE
  5
3BF
  8
PREDEFINITO
 10
1675.362263449542
 20
-1300.73252349332
 30
0.0
 11
1687.362263449542
 21
-1300.73252349332
 31
0.0
  0
LINE
  5
3C0
  8
PREDEFINITO
 10
1687.362263449542
 20
-1300.73252349332
 30
0.0
 11
1687.362263449542
 21
-1306.73252349332
 31
0.0
  0
LINE
  5
3C1
  8
PREDEFINITO
 10
1687.362263449542
 20
-1306.73252349332
 30
0.0
 11
1710.757263449541
 21
-1306.73252349332
 31
0.0
  0
LINE
  5
3C2
  8
PREDEFINITO
 10
1710.757263449541
 20
-1306.73252349332
 30
0.0
 11
1710.757263449541
 21
-1324.740341415423
 31
0.0
  0
LINE
  5
3C3
  8
PREDEFINITO
 10
1710.757263449541
 20
-1324.740341415423
 30
0.0
 11
1716.757263449541
 21
-1324.740341415423
 31
0.0
  0
LINE
  5
3C4
  8
PREDEFINITO
 10
1716.757263449541
 20
-1324.740341415423
 30
0.0
 11
1716.757263449541
 21
-1336.740341415423
 31
0.0
  0
LINE
  5
3C5
  8
PREDEFINITO
 10
1716.757263449541
 20
-1336.740341415423
 30
0.0
 11
1710.757263449541
 21
-1336.740341415423
 31
0.0
  0
LINE
  5
3C6
  8
PREDEFINITO
 10
1710.757263449541
 20
-1336.740341415423
 30
0.0
 11
1710.757263449541
 21
-1342.740341415423
 31
0.0
  0
LINE
  5
3C7
  8
PREDEFINITO
 10
1710.757263449541
 20
-1342.740341415423
 30
0.0
 11
1716.757263449541
 21
-1342.740341415423
 31
0.0
  0
LINE
  5
3C8
  8
PREDEFINITO
 10
1716.757263449541
 20
-1342.740341415423
 30
0.0
 11
1716.757263449541
 21
-1348.740341415422
 31
0.0
  0
LINE
  5
3C9
  8
PREDEFINITO
 10
1716.757263449541
 20
-1348.740341415422
 30
0.0
 11
1710.757263449541
 21
-1348.740341415423
 31
0.0
  0
LINE
  5
3CA
  8
PREDEFINITO
 10
1710.757263449541
 20
-1348.740341415423
 30
0.0
 11
1710.757263449541
 21
-1354.740341415423
 31
0.0
  0
CIRCLE
  5
3CB
  8
TUBBBI
 10
1701.862263449542
 20
-1315.127523493321
 30
0.0
 40
6.25
  0
CIRCLE
  5
3CC
  8
TUBBBI
 10
1666.362263449542
 20
-1319.087523493321
 30
0.0
 40
4.5
  0
CIRCLE
  5
3CD
  8
TUBBBI
 10
1630.862263449542
 20
-1315.127523493321
 30
0.0
 40
6.25
  0
CIRCLE
  5
3CE
  8
TUBBBI
 10
1656.402971306021
 20
-1313.337523493321
 30
0.0
 40
2.5
  0
CIRCLE
  5
3CF
  8
TUBBBI
 10
1676.321555593063
 20
-1313.337523493321
 30
0.0
 40
2.5
  0
CIRCLE
  5
3D0
  8
TUBBBI
 10
1666.362263449542
 20
-1330.587523493321
 30
0.0
 40
2.5
  0
LINE
  5
3D1
  8
PREDEFINITO
 10
1710.757263449541
 20
-1402.099580741364
 30
0.0
 11
1710.757263449541
 21
-1382.099580741364
 31
0.0
  0
LINE
  5
3D2
  8
PREDEFINITO
 10
1710.757263449541
 20
-1382.099580741364
 30
0.0
 11
1621.967263449542
 21
-1382.099580741364
 31
0.0
  0
LINE
  5
3D3
  8
PREDEFINITO
 10
1621.967263449542
 20
-1382.099580741364
 30
0.0
 11
1621.967263449542
 21
-1402.099580741364
 31
0.0
  0
LINE
  5
3D4
  8
PREDEFINITO
 10
1621.967263449542
 20
-1402.099580741364
 30
0.0
 11
1621.967263449542
 21
-1408.099580741364
 31
0.0
  0
LINE
  5
3D5
  8
PREDEFINITO
 10
1621.967263449542
 20
-1408.099580741364
 30
0.0
 11
1615.967263449542
 21
-1408.099580741365
 31
0.0
  0
LINE
  5
3D6
  8
PREDEFINITO
 10
1615.967263449542
 20
-1408.099580741365
 30
0.0
 11
1615.967263449542
 21
-1414.099580741364
 31
0.0
  0
LINE
  5
3D7
  8
PREDEFINITO
 10
1615.967263449542
 20
-1414.099580741364
 30
0.0
 11
1621.967263449542
 21
-1414.099580741364
 31
0.0
  0
LINE
  5
3D8
  8
PREDEFINITO
 10
1621.967263449542
 20
-1414.099580741364
 30
0.0
 11
1621.967263449542
 21
-1420.099580741364
 31
0.0
  0
LINE
  5
3D9
  8
PREDEFINITO
 10
1621.967263449542
 20
-1420.099580741364
 30
0.0
 11
1615.967263449542
 21
-1420.099580741364
 31
0.0
  0
LINE
  5
3DA
  8
PREDEFINITO
 10
1615.967263449542
 20
-1420.099580741364
 30
0.0
 11
1615.967263449542
 21
-1432.099580741364
 31
0.0
  0
LINE
  5
3DB
  8
PREDEFINITO
 10
1615.967263449542
 20
-1432.099580741364
 30
0.0
 11
1621.967263449542
 21
-1432.099580741364
 31
0.0
  0
LINE
  5
3DC
  8
PREDEFINITO
 10
1621.967263449542
 20
-1432.099580741364
 30
0.0
 11
1621.967263449541
 21
-1450.107398663467
 31
0.0
  0
LINE
  5
3DD
  8
PREDEFINITO
 10
1621.967263449541
 20
-1450.107398663467
 30
0.0
 11
1645.362263449541
 21
-1450.107398663467
 31
0.0
  0
LINE
  5
3DE
  8
PREDEFINITO
 10
1645.362263449541
 20
-1450.107398663467
 30
0.0
 11
1645.362263449541
 21
-1456.107398663467
 31
0.0
  0
LINE
  5
3DF
  8
PREDEFINITO
 10
1645.362263449541
 20
-1456.107398663467
 30
0.0
 11
1657.362263449542
 21
-1456.107398663467
 31
0.0
  0
LINE
  5
3E0
  8
PREDEFINITO
 10
1657.362263449542
 20
-1456.107398663467
 30
0.0
 11
1657.362263449541
 21
-1450.107398663467
 31
0.0
  0
LINE
  5
3E1
  8
PREDEFINITO
 10
1657.362263449541
 20
-1450.107398663467
 30
0.0
 11
1675.362263449542
 21
-1450.107398663467
 31
0.0
  0
LINE
  5
3E2
  8
PREDEFINITO
 10
1675.362263449542
 20
-1450.107398663467
 30
0.0
 11
1675.362263449542
 21
-1456.107398663467
 31
0.0
  0
LINE
  5
3E3
  8
PREDEFINITO
 10
1675.362263449542
 20
-1456.107398663467
 30
0.0
 11
1687.362263449542
 21
-1456.107398663467
 31
0.0
  0
LINE
  5
3E4
  8
PREDEFINITO
 10
1687.362263449542
 20
-1456.107398663467
 30
0.0
 11
1687.362263449542
 21
-1450.107398663467
 31
0.0
  0
LINE
  5
3E5
  8
PREDEFINITO
 10
1687.362263449542
 20
-1450.107398663467
 30
0.0
 11
1710.757263449541
 21
-1450.107398663467
 31
0.0
  0
LINE
  5
3E6
  8
PREDEFINITO
 10
1710.757263449541
 20
-1450.107398663467
 30
0.0
 11
1710.757263449541
 21
-1432.099580741364
 31
0.0
  0
LINE
  5
3E7
  8
PREDEFINITO
 10
1710.757263449541
 20
-1432.099580741364
 30
0.0
 11
1716.757263449541
 21
-1432.099580741364
 31
0.0
  0
LINE
  5
3E8
  8
PREDEFINITO
 10
1716.757263449541
 20
-1432.099580741364
 30
0.0
 11
1716.757263449541
 21
-1420.099580741364
 31
0.0
  0
LINE
  5
3E9
  8
PREDEFINITO
 10
1716.757263449541
 20
-1420.099580741364
 30
0.0
 11
1710.757263449541
 21
-1420.099580741364
 31
0.0
  0
LINE
  5
3EA
  8
PREDEFINITO
 10
1710.757263449541
 20
-1420.099580741364
 30
0.0
 11
1710.757263449541
 21
-1414.099580741364
 31
0.0
  0
LINE
  5
3EB
  8
PREDEFINITO
 10
1710.757263449541
 20
-1414.099580741364
 30
0.0
 11
1716.757263449541
 21
-1414.099580741364
 31
0.0
  0
LINE
  5
3EC
  8
PREDEFINITO
 10
1716.757263449541
 20
-1414.099580741364
 30
0.0
 11
1716.757263449541
 21
-1408.099580741365
 31
0.0
  0
LINE
  5
3ED
  8
PREDEFINITO
 10
1716.757263449541
 20
-1408.099580741365
 30
0.0
 11
1710.757263449541
 21
-1408.099580741364
 31
0.0
  0
LINE
  5
3EE
  8
PREDEFINITO
 10
1710.757263449541
 20
-1408.099580741364
 30
0.0
 11
1710.757263449541
 21
-1402.099580741364
 31
0.0
  0
CIRCLE
  5
3EF
  8
TUBBBI
 10
1701.862263449542
 20
-1441.712398663466
 30
0.0
 40
6.25
  0
CIRCLE
  5
3F0
  8
TUBBBI
 10
1666.362263449542
 20
-1437.752398663466
 30
0.0
 40
4.5
  0
CIRCLE
  5
3F1
  8
TUBBBI
 10
1630.862263449542
 20
-1441.712398663466
 30
0.0
 40
6.25
  0
CIRCLE
  5
3F2
  8
TUBBBI
 10
1656.402971306021
 20
-1443.502398663466
 30
0.0
 40
2.5
  0
CIRCLE
  5
3F3
  8
TUBBBI
 10
1676.321555593063
 20
-1443.502398663466
 30
0.0
 40
2.5
  0
CIRCLE
  5
3F4
  8
TUBBBI
 10
1666.362263449542
 20
-1426.252398663466
 30
0.0
 40
2.5
  0
LINE
  5
3F5
  8
PREDEFINITO
 10
1710.757263449541
 20
-1517.093267002231
 30
0.0
 11
1710.757263449541
 21
-1537.093267002231
 31
0.0
  0
LINE
  5
3F6
  8
PREDEFINITO
 10
1710.757263449541
 20
-1537.093267002231
 30
0.0
 11
1621.967263449542
 21
-1537.093267002231
 31
0.0
  0
LINE
  5
3F7
  8
PREDEFINITO
 10
1621.967263449542
 20
-1537.093267002231
 30
0.0
 11
1621.967263449542
 21
-1517.093267002231
 31
0.0
  0
LINE
  5
3F8
  8
PREDEFINITO
 10
1621.967263449542
 20
-1517.093267002231
 30
0.0
 11
1621.967263449542
 21
-1511.093267002231
 31
0.0
  0
LINE
  5
3F9
  8
PREDEFINITO
 10
1621.967263449542
 20
-1511.093267002231
 30
0.0
 11
1615.967263449542
 21
-1511.093267002231
 31
0.0
  0
LINE
  5
3FA
  8
PREDEFINITO
 10
1615.967263449542
 20
-1511.093267002231
 30
0.0
 11
1615.967263449542
 21
-1505.093267002231
 31
0.0
  0
LINE
  5
3FB
  8
PREDEFINITO
 10
1615.967263449542
 20
-1505.093267002231
 30
0.0
 11
1621.967263449542
 21
-1505.093267002231
 31
0.0
  0
LINE
  5
3FC
  8
PREDEFINITO
 10
1621.967263449542
 20
-1505.093267002231
 30
0.0
 11
1621.967263449542
 21
-1499.093267002231
 31
0.0
  0
LINE
  5
3FD
  8
PREDEFINITO
 10
1621.967263449542
 20
-1499.093267002231
 30
0.0
 11
1615.967263449542
 21
-1499.093267002231
 31
0.0
  0
LINE
  5
3FE
  8
PREDEFINITO
 10
1615.967263449542
 20
-1499.093267002231
 30
0.0
 11
1615.967263449542
 21
-1487.093267002231
 31
0.0
  0
LINE
  5
3FF
  8
PREDEFINITO
 10
1615.967263449542
 20
-1487.093267002231
 30
0.0
 11
1621.967263449542
 21
-1487.093267002231
 31
0.0
  0
LINE
  5
400
  8
PREDEFINITO
 10
1621.967263449542
 20
-1487.093267002231
 30
0.0
 11
1621.967263449541
 21
-1469.085449080129
 31
0.0
  0
LINE
  5
401
  8
PREDEFINITO
 10
1621.967263449541
 20
-1469.085449080129
 30
0.0
 11
1645.362263449541
 21
-1469.085449080129
 31
0.0
  0
LINE
  5
402
  8
PREDEFINITO
 10
1645.362263449541
 20
-1469.085449080129
 30
0.0
 11
1645.362263449541
 21
-1463.085449080129
 31
0.0
  0
LINE
  5
403
  8
PREDEFINITO
 10
1645.362263449541
 20
-1463.085449080129
 30
0.0
 11
1657.362263449542
 21
-1463.085449080129
 31
0.0
  0
LINE
  5
404
  8
PREDEFINITO
 10
1657.362263449542
 20
-1463.085449080129
 30
0.0
 11
1657.362263449541
 21
-1469.085449080129
 31
0.0
  0
LINE
  5
405
  8
PREDEFINITO
 10
1657.362263449541
 20
-1469.085449080129
 30
0.0
 11
1675.362263449542
 21
-1469.085449080129
 31
0.0
  0
LINE
  5
406
  8
PREDEFINITO
 10
1675.362263449542
 20
-1469.085449080129
 30
0.0
 11
1675.362263449542
 21
-1463.085449080129
 31
0.0
  0
LINE
  5
407
  8
PREDEFINITO
 10
1675.362263449542
 20
-1463.085449080129
 30
0.0
 11
1687.362263449542
 21
-1463.085449080129
 31
0.0
  0
LINE
  5
408
  8
PREDEFINITO
 10
1687.362263449542
 20
-1463.085449080129
 30
0.0
 11
1687.362263449542
 21
-1469.085449080129
 31
0.0
  0
LINE
  5
409
  8
PREDEFINITO
 10
1687.362263449542
 20
-1469.085449080129
 30
0.0
 11
1710.757263449541
 21
-1469.085449080129
 31
0.0
  0
LINE
  5
40A
  8
PREDEFINITO
 10
1710.757263449541
 20
-1469.085449080129
 30
0.0
 11
1710.757263449541
 21
-1487.093267002231
 31
0.0
  0
LINE
  5
40B
  8
PREDEFINITO
 10
1710.757263449541
 20
-1487.093267002231
 30
0.0
 11
1716.757263449541
 21
-1487.093267002231
 31
0.0
  0
LINE
  5
40C
  8
PREDEFINITO
 10
1716.757263449541
 20
-1487.093267002231
 30
0.0
 11
1716.757263449541
 21
-1499.093267002231
 31
0.0
  0
LINE
  5
40D
  8
PREDEFINITO
 10
1716.757263449541
 20
-1499.093267002231
 30
0.0
 11
1710.757263449541
 21
-1499.093267002231
 31
0.0
  0
LINE
  5
40E
  8
PREDEFINITO
 10
1710.757263449541
 20
-1499.093267002231
 30
0.0
 11
1710.757263449541
 21
-1505.093267002231
 31
0.0
  0
LINE
  5
40F
  8
PREDEFINITO
 10
1710.757263449541
 20
-1505.093267002231
 30
0.0
 11
1716.757263449541
 21
-1505.093267002231
 31
0.0
  0
LINE
  5
410
  8
PREDEFINITO
 10
1716.757263449541
 20
-1505.093267002231
 30
0.0
 11
1716.757263449541
 21
-1511.093267002231
 31
0.0
  0
LINE
  5
411
  8
PREDEFINITO
 10
1716.757263449541
 20
-1511.093267002231
 30
0.0
 11
1710.757263449541
 21
-1511.093267002231
 31
0.0
  0
LINE
  5
412
  8
PREDEFINITO
 10
1710.757263449541
 20
-1511.093267002231
 30
0.0
 11
1710.757263449541
 21
-1517.093267002231
 31
0.0
  0
CIRCLE
  5
413
  8
TUBBBI
 10
1701.862263449542
 20
-1477.48044908013
 30
0.0
 40
6.25
  0
CIRCLE
  5
414
  8
TUBBBI
 10
1666.362263449542
 20
-1481.440449080129
 30
0.0
 40
4.5
  0
CIRCLE
  5
415
  8
TUBBBI
 10
1630.862263449542
 20
-1477.48044908013
 30
0.0
 40
6.25
  0
CIRCLE
  5
416
  8
TUBBBI
 10
1656.402971306021
 20
-1475.690449080129
 30
0.0
 40
2.5
  0
CIRCLE
  5
417
  8
TUBBBI
 10
1676.321555593063
 20
-1475.690449080129
 30
0.0
 40
2.5
  0
CIRCLE
  5
418
  8
TUBBBI
 10
1666.362263449542
 20
-1492.940449080129
 30
0.0
 40
2.5
  0
LINE
  5
419
  8
TUBBBI
 10
1420.112767132347
 20
-1619.17079691874
 30
0.0
 11
1420.112767132347
 21
-1613.170796918741
 31
0.0
  0
LINE
  5
41A
  8
TUBBBI
 10
1420.112767132347
 20
-1613.170796918741
 30
0.0
 11
1432.112767132348
 21
-1613.170796918741
 31
0.0
  0
LINE
  5
41B
  8
TUBBBI
 10
1432.112767132348
 20
-1613.170796918741
 30
0.0
 11
1432.112767132348
 21
-1619.17079691874
 31
0.0
  0
LINE
  5
41C
  8
TUBBBI
 10
1432.112767132348
 20
-1619.17079691874
 30
0.0
 11
1420.112767132347
 21
-1619.17079691874
 31
0.0
  0
LINE
  5
41D
  8
TUBBBI
 10
1420.112767132347
 20
-1571.170796918742
 30
0.0
 11
1420.112767132347
 21
-1565.170796918742
 31
0.0
  0
LINE
  5
41E
  8
TUBBBI
 10
1420.112767132347
 20
-1565.170796918742
 30
0.0
 11
1432.112767132348
 21
-1565.170796918742
 31
0.0
  0
LINE
  5
41F
  8
TUBBBI
 10
1432.112767132348
 20
-1565.170796918742
 30
0.0
 11
1432.112767132348
 21
-1571.170796918742
 31
0.0
  0
LINE
  5
420
  8
TUBBBI
 10
1432.112767132348
 20
-1571.170796918742
 30
0.0
 11
1420.112767132347
 21
-1571.170796918742
 31
0.0
  0
LINE
  5
421
  8
TUBBBI
 10
1450.112767132347
 20
-1571.170796918742
 30
0.0
 11
1450.112767132347
 21
-1565.170796918742
 31
0.0
  0
LINE
  5
422
  8
TUBBBI
 10
1450.112767132347
 20
-1565.170796918742
 30
0.0
 11
1462.112767132347
 21
-1565.170796918742
 31
0.0
  0
LINE
  5
423
  8
TUBBBI
 10
1462.112767132347
 20
-1565.170796918742
 30
0.0
 11
1462.112767132347
 21
-1571.170796918742
 31
0.0
  0
LINE
  5
424
  8
TUBBBI
 10
1462.112767132347
 20
-1571.170796918742
 30
0.0
 11
1450.112767132347
 21
-1571.170796918742
 31
0.0
  0
LINE
  5
425
  8
TUBBBI
 10
1450.112767132347
 20
-1619.17079691874
 30
0.0
 11
1450.112767132347
 21
-1613.170796918741
 31
0.0
  0
LINE
  5
426
  8
TUBBBI
 10
1450.112767132347
 20
-1613.170796918741
 30
0.0
 11
1462.112767132347
 21
-1613.170796918741
 31
0.0
  0
LINE
  5
427
  8
TUBBBI
 10
1462.112767132347
 20
-1613.170796918741
 30
0.0
 11
1462.112767132347
 21
-1619.17079691874
 31
0.0
  0
LINE
  5
428
  8
TUBBBI
 10
1462.112767132347
 20
-1619.17079691874
 30
0.0
 11
1450.112767132347
 21
-1619.17079691874
 31
0.0
  0
LINE
  5
429
  8
PREDEFINITO
 10
1485.507767132348
 20
-1636.565796918741
 30
0.0
 11
1485.507767132348
 21
-1630.565796918741
 31
0.0
  0
LINE
  5
42A
  8
PREDEFINITO
 10
1485.507767132348
 20
-1630.565796918741
 30
0.0
 11
1491.507767132348
 21
-1630.565796918741
 31
0.0
  0
LINE
  5
42B
  8
PREDEFINITO
 10
1491.507767132348
 20
-1630.565796918741
 30
0.0
 11
1491.507767132348
 21
-1624.565796918741
 31
0.0
  0
LINE
  5
42C
  8
PREDEFINITO
 10
1491.507767132348
 20
-1624.565796918741
 30
0.0
 11
1485.507767132348
 21
-1624.565796918741
 31
0.0
  0
LINE
  5
42D
  8
PREDEFINITO
 10
1485.507767132348
 20
-1624.565796918741
 30
0.0
 11
1485.507767132348
 21
-1559.775796918741
 31
0.0
  0
LINE
  5
42E
  8
PREDEFINITO
 10
1485.507767132348
 20
-1559.775796918741
 30
0.0
 11
1491.507767132348
 21
-1559.775796918741
 31
0.0
  0
LINE
  5
42F
  8
PREDEFINITO
 10
1491.507767132348
 20
-1559.775796918741
 30
0.0
 11
1491.507767132348
 21
-1553.775796918741
 31
0.0
  0
LINE
  5
430
  8
PREDEFINITO
 10
1491.507767132348
 20
-1553.775796918741
 30
0.0
 11
1485.507767132348
 21
-1553.775796918741
 31
0.0
  0
LINE
  5
431
  8
PREDEFINITO
 10
1485.507767132348
 20
-1553.775796918741
 30
0.0
 11
1485.507767132348
 21
-1547.775796918741
 31
0.0
  0
LINE
  5
432
  8
PREDEFINITO
 10
1485.507767132348
 20
-1547.775796918741
 30
0.0
 11
1396.717767132348
 21
-1547.775796918741
 31
0.0
  0
LINE
  5
433
  8
PREDEFINITO
 10
1396.717767132348
 20
-1547.775796918741
 30
0.0
 11
1396.717767132348
 21
-1553.775796918741
 31
0.0
  0
LINE
  5
434
  8
PREDEFINITO
 10
1396.717767132348
 20
-1553.775796918741
 30
0.0
 11
1390.717767132348
 21
-1553.775796918741
 31
0.0
  0
LINE
  5
435
  8
PREDEFINITO
 10
1390.717767132348
 20
-1553.775796918741
 30
0.0
 11
1390.717767132348
 21
-1559.775796918741
 31
0.0
  0
LINE
  5
436
  8
PREDEFINITO
 10
1390.717767132348
 20
-1559.775796918741
 30
0.0
 11
1396.717767132348
 21
-1559.775796918741
 31
0.0
  0
LINE
  5
437
  8
PREDEFINITO
 10
1396.717767132348
 20
-1559.775796918741
 30
0.0
 11
1396.717767132348
 21
-1624.565796918741
 31
0.0
  0
LINE
  5
438
  8
PREDEFINITO
 10
1396.717767132348
 20
-1624.565796918741
 30
0.0
 11
1390.717767132348
 21
-1624.565796918741
 31
0.0
  0
LINE
  5
439
  8
PREDEFINITO
 10
1390.717767132348
 20
-1624.565796918741
 30
0.0
 11
1390.717767132348
 21
-1630.565796918741
 31
0.0
  0
LINE
  5
43A
  8
PREDEFINITO
 10
1390.717767132348
 20
-1630.565796918741
 30
0.0
 11
1396.717767132348
 21
-1630.565796918741
 31
0.0
  0
LINE
  5
43B
  8
PREDEFINITO
 10
1396.717767132348
 20
-1630.565796918741
 30
0.0
 11
1396.717767132348
 21
-1636.565796918741
 31
0.0
  0
LINE
  5
43C
  8
PREDEFINITO
 10
1396.717767132348
 20
-1636.565796918741
 30
0.0
 11
1485.507767132348
 21
-1636.565796918741
 31
0.0
  0
LINE
  5
43D
  8
PREDEFINITO
 10
1625.207275866798
 20
-1636.565796918741
 30
0.0
 11
1625.207275866798
 21
-1630.565796918741
 31
0.0
  0
LINE
  5
43E
  8
PREDEFINITO
 10
1625.207275866798
 20
-1630.565796918741
 30
0.0
 11
1619.207275866798
 21
-1630.565796918741
 31
0.0
  0
LINE
  5
43F
  8
PREDEFINITO
 10
1619.207275866798
 20
-1630.565796918741
 30
0.0
 11
1619.207275866798
 21
-1624.565796918741
 31
0.0
  0
LINE
  5
440
  8
PREDEFINITO
 10
1619.207275866798
 20
-1624.565796918741
 30
0.0
 11
1625.207275866798
 21
-1624.565796918741
 31
0.0
  0
LINE
  5
441
  8
PREDEFINITO
 10
1625.207275866798
 20
-1624.565796918741
 30
0.0
 11
1625.207275866798
 21
-1559.775796918741
 31
0.0
  0
LINE
  5
442
  8
PREDEFINITO
 10
1625.207275866798
 20
-1559.775796918741
 30
0.0
 11
1619.207275866798
 21
-1559.775796918741
 31
0.0
  0
LINE
  5
443
  8
PREDEFINITO
 10
1619.207275866798
 20
-1559.775796918741
 30
0.0
 11
1619.207275866798
 21
-1553.775796918741
 31
0.0
  0
LINE
  5
444
  8
PREDEFINITO
 10
1619.207275866798
 20
-1553.775796918741
 30
0.0
 11
1625.207275866798
 21
-1553.775796918741
 31
0.0
  0
LINE
  5
445
  8
PREDEFINITO
 10
1625.207275866798
 20
-1553.775796918741
 30
0.0
 11
1625.207275866798
 21
-1547.775796918741
 31
0.0
  0
LINE
  5
446
  8
PREDEFINITO
 10
1625.207275866798
 20
-1547.775796918741
 30
0.0
 11
1713.997275866798
 21
-1547.775796918741
 31
0.0
  0
LINE
  5
447
  8
PREDEFINITO
 10
1713.997275866798
 20
-1547.775796918741
 30
0.0
 11
1713.997275866798
 21
-1553.775796918741
 31
0.0
  0
LINE
  5
448
  8
PREDEFINITO
 10
1713.997275866798
 20
-1553.775796918741
 30
0.0
 11
1719.997275866798
 21
-1553.775796918741
 31
0.0
  0
LINE
  5
449
  8
PREDEFINITO
 10
1719.997275866798
 20
-1553.775796918741
 30
0.0
 11
1719.997275866798
 21
-1559.775796918741
 31
0.0
  0
LINE
  5
44A
  8
PREDEFINITO
 10
1719.997275866798
 20
-1559.775796918741
 30
0.0
 11
1713.997275866798
 21
-1559.775796918741
 31
0.0
  0
LINE
  5
44B
  8
PREDEFINITO
 10
1713.997275866798
 20
-1559.775796918741
 30
0.0
 11
1713.997275866798
 21
-1624.565796918741
 31
0.0
  0
LINE
  5
44C
  8
PREDEFINITO
 10
1713.997275866798
 20
-1624.565796918741
 30
0.0
 11
1719.997275866798
 21
-1624.565796918741
 31
0.0
  0
LINE
  5
44D
  8
PREDEFINITO
 10
1719.997275866798
 20
-1624.565796918741
 30
0.0
 11
1719.997275866798
 21
-1630.565796918741
 31
0.0
  0
LINE
  5
44E
  8
PREDEFINITO
 10
1719.997275866798
 20
-1630.565796918741
 30
0.0
 11
1713.997275866798
 21
-1630.565796918741
 31
0.0
  0
LINE
  5
44F
  8
PREDEFINITO
 10
1713.997275866798
 20
-1630.565796918741
 30
0.0
 11
1713.997275866798
 21
-1636.565796918741
 31
0.0
  0
LINE
  5
450
  8
PREDEFINITO
 10
1713.997275866798
 20
-1636.565796918741
 30
0.0
 11
1625.207275866798
 21
-1636.565796918741
 31
0.0
  0
LINE
  5
451
  8
TUBBBI
 10
1660.602275866798
 20
-1619.170796918739
 30
0.0
 11
1660.602275866798
 21
-1613.17079691874
 31
0.0
  0
LINE
  5
452
  8
TUBBBI
 10
1660.602275866798
 20
-1613.17079691874
 30
0.0
 11
1648.602275866798
 21
-1613.17079691874
 31
0.0
  0
LINE
  5
453
  8
TUBBBI
 10
1648.602275866798
 20
-1613.17079691874
 30
0.0
 11
1648.602275866798
 21
-1619.170796918739
 31
0.0
  0
LINE
  5
454
  8
TUBBBI
 10
1648.602275866798
 20
-1619.170796918739
 30
0.0
 11
1660.602275866798
 21
-1619.170796918739
 31
0.0
  0
LINE
  5
455
  8
TUBBBI
 10
1660.602275866798
 20
-1571.170796918742
 30
0.0
 11
1660.602275866798
 21
-1565.170796918742
 31
0.0
  0
LINE
  5
456
  8
TUBBBI
 10
1660.602275866798
 20
-1565.170796918742
 30
0.0
 11
1648.602275866798
 21
-1565.170796918742
 31
0.0
  0
LINE
  5
457
  8
TUBBBI
 10
1648.602275866798
 20
-1565.170796918742
 30
0.0
 11
1648.602275866798
 21
-1571.170796918742
 31
0.0
  0
LINE
  5
458
  8
TUBBBI
 10
1648.602275866798
 20
-1571.170796918742
 30
0.0
 11
1660.602275866798
 21
-1571.170796918742
 31
0.0
  0
LINE
  5
459
  8
TUBBBI
 10
1690.602275866798
 20
-1571.170796918742
 30
0.0
 11
1690.602275866798
 21
-1565.170796918742
 31
0.0
  0
LINE
  5
45A
  8
TUBBBI
 10
1690.602275866798
 20
-1565.170796918742
 30
0.0
 11
1678.602275866798
 21
-1565.170796918742
 31
0.0
  0
LINE
  5
45B
  8
TUBBBI
 10
1678.602275866798
 20
-1565.170796918742
 30
0.0
 11
1678.602275866798
 21
-1571.170796918742
 31
0.0
  0
LINE
  5
45C
  8
TUBBBI
 10
1678.602275866798
 20
-1571.170796918742
 30
0.0
 11
1690.602275866798
 21
-1571.170796918742
 31
0.0
  0
LINE
  5
45D
  8
TUBBBI
 10
1690.602275866798
 20
-1619.170796918739
 30
0.0
 11
1690.602275866798
 21
-1613.17079691874
 31
0.0
  0
LINE
  5
45E
  8
TUBBBI
 10
1690.602275866798
 20
-1613.17079691874
 30
0.0
 11
1678.602275866798
 21
-1613.17079691874
 31
0.0
  0
LINE
  5
45F
  8
TUBBBI
 10
1678.602275866798
 20
-1613.17079691874
 30
0.0
 11
1678.602275866798
 21
-1619.170796918739
 31
0.0
  0
LINE
  5
460
  8
TUBBBI
 10
1678.602275866798
 20
-1619.170796918739
 30
0.0
 11
1690.602275866798
 21
-1619.170796918739
 31
0.0
  0
LINE
  5
461
  8
TUBBBI
 10
1574.416304545259
 20
-1619.170796918739
 30
0.0
 11
1574.416304545259
 21
-1613.17079691874
 31
0.0
  0
LINE
  5
462
  8
TUBBBI
 10
1574.416304545259
 20
-1613.17079691874
 30
0.0
 11
1562.416304545259
 21
-1613.17079691874
 31
0.0
  0
LINE
  5
463
  8
TUBBBI
 10
1562.416304545259
 20
-1613.17079691874
 30
0.0
 11
1562.416304545259
 21
-1619.170796918739
 31
0.0
  0
LINE
  5
464
  8
TUBBBI
 10
1562.416304545259
 20
-1619.170796918739
 30
0.0
 11
1574.416304545259
 21
-1619.170796918739
 31
0.0
  0
LINE
  5
465
  8
TUBBBI
 10
1574.416304545259
 20
-1571.170796918742
 30
0.0
 11
1574.416304545259
 21
-1565.170796918742
 31
0.0
  0
LINE
  5
466
  8
TUBBBI
 10
1574.416304545259
 20
-1565.170796918742
 30
0.0
 11
1562.416304545259
 21
-1565.170796918742
 31
0.0
  0
LINE
  5
467
  8
TUBBBI
 10
1562.416304545259
 20
-1565.170796918742
 30
0.0
 11
1562.416304545259
 21
-1571.170796918742
 31
0.0
  0
LINE
  5
468
  8
TUBBBI
 10
1562.416304545259
 20
-1571.170796918742
 30
0.0
 11
1574.416304545259
 21
-1571.170796918742
 31
0.0
  0
LINE
  5
469
  8
TUBBBI
 10
1544.41630454526
 20
-1571.170796918742
 30
0.0
 11
1544.41630454526
 21
-1565.170796918742
 31
0.0
  0
LINE
  5
46A
  8
TUBBBI
 10
1544.41630454526
 20
-1565.170796918742
 30
0.0
 11
1532.416304545259
 21
-1565.170796918742
 31
0.0
  0
LINE
  5
46B
  8
TUBBBI
 10
1532.416304545259
 20
-1565.170796918742
 30
0.0
 11
1532.416304545259
 21
-1571.170796918742
 31
0.0
  0
LINE
  5
46C
  8
TUBBBI
 10
1532.416304545259
 20
-1571.170796918742
 30
0.0
 11
1544.41630454526
 21
-1571.170796918742
 31
0.0
  0
LINE
  5
46D
  8
TUBBBI
 10
1544.41630454526
 20
-1619.170796918739
 30
0.0
 11
1544.41630454526
 21
-1613.17079691874
 31
0.0
  0
LINE
  5
46E
  8
TUBBBI
 10
1544.41630454526
 20
-1613.17079691874
 30
0.0
 11
1532.416304545259
 21
-1613.17079691874
 31
0.0
  0
LINE
  5
46F
  8
TUBBBI
 10
1532.416304545259
 20
-1613.17079691874
 30
0.0
 11
1532.416304545259
 21
-1619.170796918739
 31
0.0
  0
LINE
  5
470
  8
TUBBBI
 10
1532.416304545259
 20
-1619.170796918739
 30
0.0
 11
1544.41630454526
 21
-1619.170796918739
 31
0.0
  0
LINE
  5
471
  8
PREDEFINITO
 10
1509.021304545259
 20
-1636.565796918741
 30
0.0
 11
1509.021304545259
 21
-1630.565796918741
 31
0.0
  0
LINE
  5
472
  8
PREDEFINITO
 10
1509.021304545259
 20
-1630.565796918741
 30
0.0
 11
1503.021304545259
 21
-1630.565796918741
 31
0.0
  0
LINE
  5
473
  8
PREDEFINITO
 10
1503.021304545259
 20
-1630.565796918741
 30
0.0
 11
1503.021304545259
 21
-1624.565796918741
 31
0.0
  0
LINE
  5
474
  8
PREDEFINITO
 10
1503.021304545259
 20
-1624.565796918741
 30
0.0
 11
1509.021304545259
 21
-1624.565796918741
 31
0.0
  0
LINE
  5
475
  8
PREDEFINITO
 10
1509.021304545259
 20
-1624.565796918741
 30
0.0
 11
1509.021304545259
 21
-1559.775796918741
 31
0.0
  0
LINE
  5
476
  8
PREDEFINITO
 10
1509.021304545259
 20
-1559.775796918741
 30
0.0
 11
1503.021304545259
 21
-1559.775796918741
 31
0.0
  0
LINE
  5
477
  8
PREDEFINITO
 10
1503.021304545259
 20
-1559.775796918741
 30
0.0
 11
1503.021304545259
 21
-1553.775796918741
 31
0.0
  0
LINE
  5
478
  8
PREDEFINITO
 10
1503.021304545259
 20
-1553.775796918741
 30
0.0
 11
1509.021304545259
 21
-1553.775796918741
 31
0.0
  0
LINE
  5
479
  8
PREDEFINITO
 10
1509.021304545259
 20
-1553.775796918741
 30
0.0
 11
1509.021304545259
 21
-1547.775796918741
 31
0.0
  0
LINE
  5
47A
  8
PREDEFINITO
 10
1509.021304545259
 20
-1547.775796918741
 30
0.0
 11
1597.811304545259
 21
-1547.775796918741
 31
0.0
  0
LINE
  5
47B
  8
PREDEFINITO
 10
1597.811304545259
 20
-1547.775796918741
 30
0.0
 11
1597.811304545259
 21
-1553.775796918741
 31
0.0
  0
LINE
  5
47C
  8
PREDEFINITO
 10
1597.811304545259
 20
-1553.775796918741
 30
0.0
 11
1603.811304545259
 21
-1553.775796918741
 31
0.0
  0
LINE
  5
47D
  8
PREDEFINITO
 10
1603.811304545259
 20
-1553.775796918741
 30
0.0
 11
1603.811304545259
 21
-1559.775796918741
 31
0.0
  0
LINE
  5
47E
  8
PREDEFINITO
 10
1603.811304545259
 20
-1559.775796918741
 30
0.0
 11
1597.811304545259
 21
-1559.775796918741
 31
0.0
  0
LINE
  5
47F
  8
PREDEFINITO
 10
1597.811304545259
 20
-1559.775796918741
 30
0.0
 11
1597.811304545259
 21
-1624.565796918741
 31
0.0
  0
LINE
  5
480
  8
PREDEFINITO
 10
1597.811304545259
 20
-1624.565796918741
 30
0.0
 11
1603.811304545259
 21
-1624.565796918741
 31
0.0
  0
LINE
  5
481
  8
PREDEFINITO
 10
1603.811304545259
 20
-1624.565796918741
 30
0.0
 11
1603.811304545259
 21
-1630.565796918741
 31
0.0
  0
LINE
  5
482
  8
PREDEFINITO
 10
1603.811304545259
 20
-1630.565796918741
 30
0.0
 11
1597.811304545259
 21
-1630.565796918741
 31
0.0
  0
LINE
  5
483
  8
PREDEFINITO
 10
1597.811304545259
 20
-1630.565796918741
 30
0.0
 11
1597.811304545259
 21
-1636.565796918741
 31
0.0
  0
LINE
  5
484
  8
PREDEFINITO
 10
1597.811304545259
 20
-1636.565796918741
 30
0.0
 11
1509.021304545259
 21
-1636.565796918741
 31
0.0
  0
ENDSEC
  0
EOF
