  0
SECTION
  2
HEADER
  9
$ACADVER
  1
AC1009
  9
$DWGCODEPAGE
  3
ansi_1252
  9
$INSBASE
 10
0.0
 20
0.0
 30
0.0
  9
$EXTMIN
 10
878.2824613844466
 20
-1030.015784702019
 30
0.0
  9
$EXTMAX
 10
1728.282461384446
 20
-430.0157847020194
 30
0.0
  9
$LIMMIN
 10
0.0
 20
0.0
  9
$LIMMAX
 10
12.0
 20
9.0
  9
$ORTHOMODE
 70
     0
  9
$REGENMODE
 70
     1
  9
$FILLMODE
 70
     1
  9
$QTEXTMODE
 70
     0
  9
$MIRRTEXT
 70
     1
  9
$DRAGMODE
 70
     2
  9
$LTSCALE
 40
1.0
  9
$OSMODE
 70
    37
  9
$ATTMODE
 70
     1
  9
$TEXTSIZE
 40
0.2
  9
$TRACEWID
 40
0.05
  9
$TEXTSTYLE
  7
STANDARD
  9
$CLAYER
  8
0
  9
$CELTYPE
  6
BYLAYER
  9
$CECOLOR
 62
   256
  9
$DIMSCALE
 40
1.0
  9
$DIMASZ
 40
0.18
  9
$DIMEXO
 40
0.0625
  9
$DIMDLI
 40
0.38
  9
$DIMRND
 40
0.0
  9
$DIMDLE
 40
0.0
  9
$DIMEXE
 40
0.18
  9
$DIMTP
 40
0.0
  9
$DIMTM
 40
0.0
  9
$DIMTXT
 40
0.18
  9
$DIMCEN
 40
0.09
  9
$DIMTSZ
 40
0.0
  9
$DIMTOL
 70
     0
  9
$DIMLIM
 70
     0
  9
$DIMTIH
 70
     1
  9
$DIMTOH
 70
     1
  9
$DIMSE1
 70
     0
  9
$DIMSE2
 70
     0
  9
$DIMTAD
 70
     0
  9
$DIMZIN
 70
     0
  9
$DIMBLK
  1

  9
$DIMASO
 70
     1
  9
$DIMSHO
 70
     1
  9
$DIMPOST
  1

  9
$DIMAPOST
  1

  9
$DIMALT
 70
     0
  9
$DIMALTD
 70
     2
  9
$DIMALTF
 40
25.4
  9
$DIMLFAC
 40
1.0
  9
$DIMTOFL
 70
     0
  9
$DIMTVP
 40
0.0
  9
$DIMTIX
 70
     0
  9
$DIMSOXD
 70
     0
  9
$DIMSAH
 70
     0
  9
$DIMBLK1
  1

  9
$DIMBLK2
  1

  9
$DIMSTYLE
  2
STANDARD
  9
$DIMCLRD
 70
     0
  9
$DIMCLRE
 70
     0
  9
$DIMCLRT
 70
     0
  9
$DIMTFAC
 40
1.0
  9
$DIMGAP
 40
0.09
  9
$LUNITS
 70
     2
  9
$LUPREC
 70
     3
  9
$SKETCHINC
 40
0.1
  9
$FILLETRAD
 40
0.5
  9
$AUNITS
 70
     0
  9
$AUPREC
 70
     0
  9
$MENU
  1
.
  9
$ELEVATION
 40
0.0
  9
$PELEVATION
 40
0.0
  9
$THICKNESS
 40
0.0
  9
$LIMCHECK
 70
     0
  9
$CHAMFERA
 40
0.0
  9
$CHAMFERB
 40
0.0
  9
$SKPOLY
 70
     0
  9
$TDCREATE
 40
2457490.686082083
  9
$TDUPDATE
 40
2457490.686229305
  9
$TDINDWG
 40
0.0000000116
  9
$TDUSRTIMER
 40
0.0000000116
  9
$USRTIMER
 70
     1
  9
$ANGBASE
 50
0.0
  9
$ANGDIR
 70
     0
  9
$PDMODE
 70
     0
  9
$PDSIZE
 40
0.0
  9
$PLINEWID
 40
0.0
  9
$COORDS
 70
     1
  9
$SPLFRAME
 70
     0
  9
$SPLINETYPE
 70
     6
  9
$SPLINESEGS
 70
     8
  9
$ATTDIA
 70
     0
  9
$ATTREQ
 70
     1
  9
$HANDLING
 70
     1
  9
$HANDSEED
  5
429
  9
$SURFTAB1
 70
     6
  9
$SURFTAB2
 70
     6
  9
$SURFTYPE
 70
     6
  9
$SURFU
 70
     6
  9
$SURFV
 70
     6
  9
$UCSNAME
  2

  9
$UCSORG
 10
0.0
 20
0.0
 30
0.0
  9
$UCSXDIR
 10
1.0
 20
0.0
 30
0.0
  9
$UCSYDIR
 10
0.0
 20
1.0
 30
0.0
  9
$PUCSNAME
  2

  9
$PUCSORG
 10
0.0
 20
0.0
 30
0.0
  9
$PUCSXDIR
 10
1.0
 20
0.0
 30
0.0
  9
$PUCSYDIR
 10
0.0
 20
1.0
 30
0.0
  9
$USERI1
 70
     0
  9
$USERI2
 70
     0
  9
$USERI3
 70
     0
  9
$USERI4
 70
     0
  9
$USERI5
 70
     0
  9
$USERR1
 40
0.0
  9
$USERR2
 40
0.0
  9
$USERR3
 40
0.0
  9
$USERR4
 40
0.0
  9
$USERR5
 40
0.0
  9
$WORLDVIEW
 70
     1
  9
$SHADEDGE
 70
     3
  9
$SHADEDIF
 70
    70
  9
$TILEMODE
 70
     1
  9
$MAXACTVP
 70
    64
  9
$PLIMCHECK
 70
     0
  9
$PEXTMIN
 10
1.000000000000000E+20
 20
1.000000000000000E+20
 30
1.000000000000000E+20
  9
$PEXTMAX
 10
-1.000000000000000E+20
 20
-1.000000000000000E+20
 30
-1.000000000000000E+20
  9
$PLIMMIN
 10
0.0
 20
0.0
  9
$PLIMMAX
 10
12.0
 20
9.0
  9
$UNITMODE
 70
     0
  9
$VISRETAIN
 70
     1
  9
$PLINEGEN
 70
     0
  9
$PSLTSCALE
 70
     1
  0
ENDSEC
  0
SECTION
  2
TABLES
  0
TABLE
  2
VPORT
 70
     1
  0
VPORT
  2
*ACTIVE
 70
     0
 10
0.0
 20
0.0
 11
1.0
 21
1.0
 12
1303.282461384446
 22
-730.0157847020193
 13
0.0
 23
0.0
 14
0.5
 24
0.5
 15
0.5
 25
0.5
 16
0.0
 26
0.0
 36
1.0
 17
0.0
 27
0.0
 37
0.0
 40
612.0
 41
1.416666666666667
 42
50.0
 43
0.0
 44
0.0
 50
0.0
 51
0.0
 71
     0
 72
   100
 73
     1
 74
     3
 75
     0
 76
     0
 77
     0
 78
     0
  0
ENDTAB
  0
TABLE
  2
LTYPE
 70
     1
  0
LTYPE
  2
CONTINUOUS
 70
     0
  3
Solid line
 72
    65
 73
     0
 40
0.0
  0
ENDTAB
  0
TABLE
  2
LAYER
 70
     4
  0
LAYER
  2
0
 70
     0
 62
     7
  6
CONTINUOUS
  0
LAYER
  2
TAGLIO
 70
     0
 62
    40
  6
CONTINUOUS
  0
LAYER
  2
PREDEFINITO
 70
     0
 62
     7
  6
CONTINUOUS
  0
LAYER
  2
TUBBBI
 70
     0
 62
   106
  6
CONTINUOUS
  0
ENDTAB
  0
TABLE
  2
STYLE
 70
     1
  0
STYLE
  2
STANDARD
 70
     0
 40
0.0
 41
1.0
 50
0.0
 71
     0
 42
0.2
  3
txt
  4

  0
ENDTAB
  0
TABLE
  2
VIEW
 70
     0
  0
ENDTAB
  0
TABLE
  2
UCS
 70
     0
  0
ENDTAB
  0
TABLE
  2
APPID
 70
     1
  0
APPID
  2
ACAD
 70
     0
  0
ENDTAB
  0
TABLE
  2
DIMSTYLE
 70
     1
  0
DIMSTYLE
  2
STANDARD
 70
     0
  3

  4

  5

  6

  7

 40
1.0
 41
0.18
 42
0.0625
 43
0.38
 44
0.18
 45
0.0
 46
0.0
 47
0.0
 48
0.0
140
0.18
141
0.09
142
0.0
143
25.4
144
1.0
145
0.0
146
1.0
147
0.09
 71
     0
 72
     0
 73
     1
 74
     1
 75
     0
 76
     0
 77
     0
 78
     0
170
     0
171
     2
172
     0
173
     0
174
     0
175
     0
176
     0
177
     0
178
     0
  0
ENDTAB
  0
ENDSEC
  0
SECTION
  2
BLOCKS
  0
BLOCK
  8
0
  2
$MODEL_SPACE
 70
     0
 10
0.0
 20
0.0
 30
0.0
  3
$MODEL_SPACE
  1

  0
ENDBLK
  5
21
  8
0
  0
BLOCK
 67
     1
  8
0
  2
$PAPER_SPACE
 70
     0
 10
0.0
 20
0.0
 30
0.0
  3
$PAPER_SPACE
  1

  0
ENDBLK
  5
1D
 67
     1
  8
0
  0
ENDSEC
  0
SECTION
  2
ENTITIES
  0
LINE
  5
6F
  8
TAGLIO
 10
878.2824613844466
 20
-1030.015784702019
 30
0.0
 11
1728.282461384446
 21
-1030.015784702019
 31
0.0
  0
LINE
  5
70
  8
TAGLIO
 10
1728.282461384446
 20
-1030.015784702019
 30
0.0
 11
1728.282461384446
 21
-430.0157847020194
 31
0.0
  0
LINE
  5
71
  8
TAGLIO
 10
1728.282461384446
 20
-430.0157847020194
 30
0.0
 11
878.2824613844466
 21
-430.0157847020194
 31
0.0
  0
LINE
  5
72
  8
TAGLIO
 10
878.2824613844466
 20
-430.0157847020194
 30
0.0
 11
878.2824613844466
 21
-1030.015784702019
 31
0.0
  0
LINE
  5
74
  8
PREDEFINITO
 10
980.199154857658
 20
-505.5363978505446
 30
0.0
 11
990.199154857658
 21
-505.5363978505446
 31
0.0
  0
LINE
  5
75
  8
PREDEFINITO
 10
990.199154857658
 20
-505.5363978505446
 30
0.0
 11
990.199154857658
 21
-499.5363978505446
 31
0.0
  0
LINE
  5
76
  8
PREDEFINITO
 10
990.199154857658
 20
-499.5363978505446
 30
0.0
 11
996.199154857658
 21
-499.5363978505446
 31
0.0
  0
LINE
  5
77
  8
PREDEFINITO
 10
996.199154857658
 20
-499.5363978505446
 30
0.0
 11
996.199154857658
 21
-493.5363978505446
 31
0.0
  0
LINE
  5
78
  8
PREDEFINITO
 10
996.199154857658
 20
-493.5363978505446
 30
0.0
 11
990.199154857658
 21
-493.5363978505446
 31
0.0
  0
LINE
  5
79
  8
PREDEFINITO
 10
990.199154857658
 20
-493.5363978505446
 30
0.0
 11
990.199154857658
 21
-487.5363978505446
 31
0.0
  0
LINE
  5
7A
  8
PREDEFINITO
 10
990.199154857658
 20
-487.5363978505446
 30
0.0
 11
996.199154857658
 21
-487.5363978505446
 31
0.0
  0
LINE
  5
7B
  8
PREDEFINITO
 10
996.199154857658
 20
-487.5363978505446
 30
0.0
 11
996.199154857658
 21
-471.4404650705317
 31
0.0
  0
LINE
  5
7C
  8
PREDEFINITO
 10
996.199154857658
 20
-471.4404650705317
 30
0.0
 11
990.199154857658
 21
-471.4404650705317
 31
0.0
  0
LINE
  5
7D
  8
PREDEFINITO
 10
990.199154857658
 20
-471.4404650705317
 30
0.0
 11
990.199154857658
 21
-465.4404650705317
 31
0.0
  0
LINE
  5
7E
  8
PREDEFINITO
 10
990.199154857658
 20
-465.4404650705317
 30
0.0
 11
996.199154857658
 21
-465.4404650705317
 31
0.0
  0
LINE
  5
7F
  8
PREDEFINITO
 10
996.199154857658
 20
-465.4404650705317
 30
0.0
 11
996.199154857658
 21
-459.4404650705317
 31
0.0
  0
LINE
  5
80
  8
PREDEFINITO
 10
996.199154857658
 20
-459.4404650705317
 30
0.0
 11
990.199154857658
 21
-459.4404650705317
 31
0.0
  0
LINE
  5
81
  8
PREDEFINITO
 10
990.199154857658
 20
-459.4404650705317
 30
0.0
 11
984.199154857658
 21
-459.4404650705317
 31
0.0
  0
LINE
  5
82
  8
PREDEFINITO
 10
984.199154857658
 20
-459.4404650705317
 30
0.0
 11
984.199154857658
 21
-453.4404650705317
 31
0.0
  0
LINE
  5
83
  8
PREDEFINITO
 10
984.199154857658
 20
-453.4404650705317
 30
0.0
 11
978.199154857658
 21
-453.4404650705317
 31
0.0
  0
LINE
  5
84
  8
PREDEFINITO
 10
978.199154857658
 20
-453.4404650705317
 30
0.0
 11
978.199154857658
 21
-459.4404650705317
 31
0.0
  0
LINE
  5
85
  8
PREDEFINITO
 10
978.199154857658
 20
-459.4404650705317
 30
0.0
 11
966.199154857658
 21
-459.4404650705317
 31
0.0
  0
LINE
  5
86
  8
PREDEFINITO
 10
966.199154857658
 20
-459.4404650705317
 30
0.0
 11
966.199154857658
 21
-453.4404650705317
 31
0.0
  0
LINE
  5
87
  8
PREDEFINITO
 10
966.199154857658
 20
-453.4404650705317
 30
0.0
 11
956.199154857658
 21
-453.4404650705317
 31
0.0
  0
LINE
  5
88
  8
PREDEFINITO
 10
956.199154857658
 20
-453.4404650705317
 30
0.0
 11
925.7879433857368
 21
-453.4404650705317
 31
0.0
  0
LINE
  5
89
  8
PREDEFINITO
 10
925.7879433857368
 20
-453.4404650705317
 30
0.0
 11
925.7879433857368
 21
-459.4404650705317
 31
0.0
  0
LINE
  5
8A
  8
PREDEFINITO
 10
925.7879433857368
 20
-459.4404650705317
 30
0.0
 11
913.7879433857368
 21
-459.4404650705317
 31
0.0
  0
LINE
  5
8B
  8
PREDEFINITO
 10
913.7879433857368
 20
-459.4404650705317
 30
0.0
 11
913.7879433857368
 21
-453.4404650705317
 31
0.0
  0
LINE
  5
8C
  8
PREDEFINITO
 10
913.7879433857368
 20
-453.4404650705317
 30
0.0
 11
907.787943385737
 21
-453.4404650705317
 31
0.0
  0
LINE
  5
8D
  8
PREDEFINITO
 10
907.787943385737
 20
-453.4404650705317
 30
0.0
 11
907.787943385737
 21
-459.4404650705317
 31
0.0
  0
LINE
  5
8E
  8
PREDEFINITO
 10
907.787943385737
 20
-459.4404650705317
 30
0.0
 11
901.787943385737
 21
-459.4404650705317
 31
0.0
  0
LINE
  5
8F
  8
PREDEFINITO
 10
901.787943385737
 20
-459.4404650705317
 30
0.0
 11
901.787943385737
 21
-465.4404650705317
 31
0.0
  0
LINE
  5
90
  8
PREDEFINITO
 10
901.787943385737
 20
-465.4404650705317
 30
0.0
 11
907.787943385737
 21
-465.4404650705317
 31
0.0
  0
LINE
  5
91
  8
PREDEFINITO
 10
907.787943385737
 20
-465.4404650705317
 30
0.0
 11
907.787943385737
 21
-471.4404650705317
 31
0.0
  0
LINE
  5
92
  8
PREDEFINITO
 10
907.787943385737
 20
-471.4404650705317
 30
0.0
 11
901.787943385737
 21
-471.4404650705317
 31
0.0
  0
LINE
  5
93
  8
PREDEFINITO
 10
901.787943385737
 20
-471.4404650705317
 30
0.0
 11
901.787943385737
 21
-487.5363978505446
 31
0.0
  0
LINE
  5
94
  8
PREDEFINITO
 10
901.787943385737
 20
-487.5363978505446
 30
0.0
 11
907.787943385737
 21
-487.5363978505446
 31
0.0
  0
LINE
  5
95
  8
PREDEFINITO
 10
907.787943385737
 20
-487.5363978505446
 30
0.0
 11
907.787943385737
 21
-493.5363978505446
 31
0.0
  0
LINE
  5
96
  8
PREDEFINITO
 10
907.787943385737
 20
-493.5363978505446
 30
0.0
 11
901.787943385737
 21
-493.5363978505446
 31
0.0
  0
LINE
  5
97
  8
PREDEFINITO
 10
901.787943385737
 20
-493.5363978505446
 30
0.0
 11
901.787943385737
 21
-499.5363978505446
 31
0.0
  0
LINE
  5
98
  8
PREDEFINITO
 10
901.787943385737
 20
-499.5363978505446
 30
0.0
 11
907.787943385737
 21
-499.5363978505446
 31
0.0
  0
LINE
  5
99
  8
PREDEFINITO
 10
907.787943385737
 20
-499.5363978505446
 30
0.0
 11
907.787943385737
 21
-505.5363978505446
 31
0.0
  0
LINE
  5
9A
  8
PREDEFINITO
 10
907.787943385737
 20
-505.5363978505446
 30
0.0
 11
980.199154857658
 21
-505.5363978505446
 31
0.0
  0
LINE
  5
9C
  8
TUBBBI
 10
966.1103663295792
 20
-493.5363978505446
 30
0.0
 11
978.1103663295792
 21
-493.5363978505446
 31
0.0
  0
LINE
  5
9D
  8
TUBBBI
 10
978.1103663295792
 20
-493.5363978505446
 30
0.0
 11
978.1103663295792
 21
-499.5363978505446
 31
0.0
  0
LINE
  5
9E
  8
TUBBBI
 10
978.1103663295792
 20
-499.5363978505446
 30
0.0
 11
966.1103663295792
 21
-499.5363978505446
 31
0.0
  0
LINE
  5
9F
  8
TUBBBI
 10
966.1103663295792
 20
-499.5363978505446
 30
0.0
 11
966.1103663295792
 21
-493.5363978505446
 31
0.0
  0
LINE
  5
A0
  8
TUBBBI
 10
935.699154857658
 20
-493.5363978505446
 30
0.0
 11
947.699154857658
 21
-493.5363978505446
 31
0.0
  0
LINE
  5
A1
  8
TUBBBI
 10
947.699154857658
 20
-493.5363978505446
 30
0.0
 11
947.699154857658
 21
-499.5363978505446
 31
0.0
  0
LINE
  5
A2
  8
TUBBBI
 10
947.699154857658
 20
-499.5363978505446
 30
0.0
 11
935.699154857658
 21
-499.5363978505446
 31
0.0
  0
LINE
  5
A3
  8
TUBBBI
 10
935.699154857658
 20
-499.5363978505446
 30
0.0
 11
935.699154857658
 21
-493.5363978505446
 31
0.0
  0
LINE
  5
A4
  8
PREDEFINITO
 10
1021.957275776973
 20
-505.5363978505446
 30
0.0
 11
1011.957275776973
 21
-505.5363978505446
 31
0.0
  0
LINE
  5
A5
  8
PREDEFINITO
 10
1011.957275776973
 20
-505.5363978505446
 30
0.0
 11
1011.957275776973
 21
-499.5363978505446
 31
0.0
  0
LINE
  5
A6
  8
PREDEFINITO
 10
1011.957275776973
 20
-499.5363978505446
 30
0.0
 11
1005.957275776973
 21
-499.5363978505446
 31
0.0
  0
LINE
  5
A7
  8
PREDEFINITO
 10
1005.957275776973
 20
-499.5363978505446
 30
0.0
 11
1005.957275776973
 21
-493.5363978505446
 31
0.0
  0
LINE
  5
A8
  8
PREDEFINITO
 10
1005.957275776973
 20
-493.5363978505446
 30
0.0
 11
1011.957275776973
 21
-493.5363978505446
 31
0.0
  0
LINE
  5
A9
  8
PREDEFINITO
 10
1011.957275776973
 20
-493.5363978505446
 30
0.0
 11
1011.957275776973
 21
-487.5363978505446
 31
0.0
  0
LINE
  5
AA
  8
PREDEFINITO
 10
1011.957275776973
 20
-487.5363978505446
 30
0.0
 11
1005.957275776973
 21
-487.5363978505446
 31
0.0
  0
LINE
  5
AB
  8
PREDEFINITO
 10
1005.957275776973
 20
-487.5363978505446
 30
0.0
 11
1005.957275776973
 21
-471.4404650705317
 31
0.0
  0
LINE
  5
AC
  8
PREDEFINITO
 10
1005.957275776973
 20
-471.4404650705317
 30
0.0
 11
1011.957275776973
 21
-471.4404650705317
 31
0.0
  0
LINE
  5
AD
  8
PREDEFINITO
 10
1011.957275776973
 20
-471.4404650705317
 30
0.0
 11
1011.957275776973
 21
-465.4404650705317
 31
0.0
  0
LINE
  5
AE
  8
PREDEFINITO
 10
1011.957275776973
 20
-465.4404650705317
 30
0.0
 11
1005.957275776973
 21
-465.4404650705317
 31
0.0
  0
LINE
  5
AF
  8
PREDEFINITO
 10
1005.957275776973
 20
-465.4404650705317
 30
0.0
 11
1005.957275776973
 21
-459.4404650705317
 31
0.0
  0
LINE
  5
B0
  8
PREDEFINITO
 10
1005.957275776973
 20
-459.4404650705317
 30
0.0
 11
1011.957275776973
 21
-459.4404650705317
 31
0.0
  0
LINE
  5
B1
  8
PREDEFINITO
 10
1011.957275776973
 20
-459.4404650705317
 30
0.0
 11
1017.957275776973
 21
-459.4404650705317
 31
0.0
  0
LINE
  5
B2
  8
PREDEFINITO
 10
1017.957275776973
 20
-459.4404650705317
 30
0.0
 11
1017.957275776973
 21
-453.4404650705317
 31
0.0
  0
LINE
  5
B3
  8
PREDEFINITO
 10
1017.957275776973
 20
-453.4404650705317
 30
0.0
 11
1023.957275776973
 21
-453.4404650705317
 31
0.0
  0
LINE
  5
B4
  8
PREDEFINITO
 10
1023.957275776973
 20
-453.4404650705317
 30
0.0
 11
1023.957275776973
 21
-459.4404650705317
 31
0.0
  0
LINE
  5
B5
  8
PREDEFINITO
 10
1023.957275776973
 20
-459.4404650705317
 30
0.0
 11
1035.957275776973
 21
-459.4404650705317
 31
0.0
  0
LINE
  5
B6
  8
PREDEFINITO
 10
1035.957275776973
 20
-459.4404650705317
 30
0.0
 11
1035.957275776973
 21
-453.4404650705317
 31
0.0
  0
LINE
  5
B7
  8
PREDEFINITO
 10
1035.957275776973
 20
-453.4404650705317
 30
0.0
 11
1045.957275776973
 21
-453.4404650705317
 31
0.0
  0
LINE
  5
B8
  8
PREDEFINITO
 10
1045.957275776973
 20
-453.4404650705317
 30
0.0
 11
1076.368487248895
 21
-453.4404650705317
 31
0.0
  0
LINE
  5
B9
  8
PREDEFINITO
 10
1076.368487248895
 20
-453.4404650705317
 30
0.0
 11
1076.368487248895
 21
-459.4404650705317
 31
0.0
  0
LINE
  5
BA
  8
PREDEFINITO
 10
1076.368487248895
 20
-459.4404650705317
 30
0.0
 11
1088.368487248895
 21
-459.4404650705317
 31
0.0
  0
LINE
  5
BB
  8
PREDEFINITO
 10
1088.368487248895
 20
-459.4404650705317
 30
0.0
 11
1088.368487248895
 21
-453.4404650705317
 31
0.0
  0
LINE
  5
BC
  8
PREDEFINITO
 10
1088.368487248895
 20
-453.4404650705317
 30
0.0
 11
1094.368487248894
 21
-453.4404650705317
 31
0.0
  0
LINE
  5
BD
  8
PREDEFINITO
 10
1094.368487248894
 20
-453.4404650705317
 30
0.0
 11
1094.368487248894
 21
-459.4404650705317
 31
0.0
  0
LINE
  5
BE
  8
PREDEFINITO
 10
1094.368487248894
 20
-459.4404650705317
 30
0.0
 11
1100.368487248894
 21
-459.4404650705317
 31
0.0
  0
LINE
  5
BF
  8
PREDEFINITO
 10
1100.368487248894
 20
-459.4404650705317
 30
0.0
 11
1100.368487248894
 21
-465.4404650705317
 31
0.0
  0
LINE
  5
C0
  8
PREDEFINITO
 10
1100.368487248894
 20
-465.4404650705317
 30
0.0
 11
1094.368487248894
 21
-465.4404650705317
 31
0.0
  0
LINE
  5
C1
  8
PREDEFINITO
 10
1094.368487248894
 20
-465.4404650705317
 30
0.0
 11
1094.368487248894
 21
-471.4404650705317
 31
0.0
  0
LINE
  5
C2
  8
PREDEFINITO
 10
1094.368487248894
 20
-471.4404650705317
 30
0.0
 11
1100.368487248894
 21
-471.4404650705317
 31
0.0
  0
LINE
  5
C3
  8
PREDEFINITO
 10
1100.368487248894
 20
-471.4404650705317
 30
0.0
 11
1100.368487248894
 21
-487.5363978505446
 31
0.0
  0
LINE
  5
C4
  8
PREDEFINITO
 10
1100.368487248894
 20
-487.5363978505446
 30
0.0
 11
1094.368487248894
 21
-487.5363978505446
 31
0.0
  0
LINE
  5
C5
  8
PREDEFINITO
 10
1094.368487248894
 20
-487.5363978505446
 30
0.0
 11
1094.368487248894
 21
-493.5363978505446
 31
0.0
  0
LINE
  5
C6
  8
PREDEFINITO
 10
1094.368487248894
 20
-493.5363978505446
 30
0.0
 11
1100.368487248894
 21
-493.5363978505446
 31
0.0
  0
LINE
  5
C7
  8
PREDEFINITO
 10
1100.368487248894
 20
-493.5363978505446
 30
0.0
 11
1100.368487248894
 21
-499.5363978505446
 31
0.0
  0
LINE
  5
C8
  8
PREDEFINITO
 10
1100.368487248894
 20
-499.5363978505446
 30
0.0
 11
1094.368487248894
 21
-499.5363978505446
 31
0.0
  0
LINE
  5
C9
  8
PREDEFINITO
 10
1094.368487248894
 20
-499.5363978505446
 30
0.0
 11
1094.368487248894
 21
-505.5363978505446
 31
0.0
  0
LINE
  5
CA
  8
PREDEFINITO
 10
1094.368487248894
 20
-505.5363978505446
 30
0.0
 11
1021.957275776973
 21
-505.5363978505446
 31
0.0
  0
LINE
  5
CB
  8
TUBBBI
 10
1036.046064305052
 20
-493.5363978505446
 30
0.0
 11
1024.046064305052
 21
-493.5363978505446
 31
0.0
  0
LINE
  5
CC
  8
TUBBBI
 10
1024.046064305052
 20
-493.5363978505446
 30
0.0
 11
1024.046064305052
 21
-499.5363978505446
 31
0.0
  0
LINE
  5
CD
  8
TUBBBI
 10
1024.046064305052
 20
-499.5363978505446
 30
0.0
 11
1036.046064305052
 21
-499.5363978505446
 31
0.0
  0
LINE
  5
CE
  8
TUBBBI
 10
1036.046064305052
 20
-499.5363978505446
 30
0.0
 11
1036.046064305052
 21
-493.5363978505446
 31
0.0
  0
LINE
  5
CF
  8
TUBBBI
 10
1066.457275776973
 20
-493.5363978505446
 30
0.0
 11
1054.457275776973
 21
-493.5363978505446
 31
0.0
  0
LINE
  5
D0
  8
TUBBBI
 10
1054.457275776973
 20
-493.5363978505446
 30
0.0
 11
1054.457275776973
 21
-499.5363978505446
 31
0.0
  0
LINE
  5
D1
  8
TUBBBI
 10
1054.457275776973
 20
-499.5363978505446
 30
0.0
 11
1066.457275776973
 21
-499.5363978505446
 31
0.0
  0
LINE
  5
D2
  8
TUBBBI
 10
1066.457275776973
 20
-499.5363978505446
 30
0.0
 11
1066.457275776973
 21
-493.5363978505446
 31
0.0
  0
LINE
  5
D3
  8
PREDEFINITO
 10
1183.051238554287
 20
-505.5363978505445
 30
0.0
 11
1193.051238554287
 21
-505.5363978505445
 31
0.0
  0
LINE
  5
D4
  8
PREDEFINITO
 10
1193.051238554287
 20
-505.5363978505445
 30
0.0
 11
1193.051238554287
 21
-499.5363978505445
 31
0.0
  0
LINE
  5
D5
  8
PREDEFINITO
 10
1193.051238554287
 20
-499.5363978505445
 30
0.0
 11
1199.051238554287
 21
-499.5363978505445
 31
0.0
  0
LINE
  5
D6
  8
PREDEFINITO
 10
1199.051238554287
 20
-499.5363978505445
 30
0.0
 11
1199.051238554287
 21
-493.5363978505445
 31
0.0
  0
LINE
  5
D7
  8
PREDEFINITO
 10
1199.051238554287
 20
-493.5363978505445
 30
0.0
 11
1193.051238554287
 21
-493.5363978505445
 31
0.0
  0
LINE
  5
D8
  8
PREDEFINITO
 10
1193.051238554287
 20
-493.5363978505445
 30
0.0
 11
1193.051238554287
 21
-487.5363978505445
 31
0.0
  0
LINE
  5
D9
  8
PREDEFINITO
 10
1193.051238554287
 20
-487.5363978505445
 30
0.0
 11
1199.051238554287
 21
-487.5363978505445
 31
0.0
  0
LINE
  5
DA
  8
PREDEFINITO
 10
1199.051238554287
 20
-487.5363978505445
 30
0.0
 11
1199.051238554287
 21
-471.4404650705316
 31
0.0
  0
LINE
  5
DB
  8
PREDEFINITO
 10
1199.051238554287
 20
-471.4404650705316
 30
0.0
 11
1193.051238554287
 21
-471.4404650705316
 31
0.0
  0
LINE
  5
DC
  8
PREDEFINITO
 10
1193.051238554287
 20
-471.4404650705316
 30
0.0
 11
1193.051238554287
 21
-465.4404650705316
 31
0.0
  0
LINE
  5
DD
  8
PREDEFINITO
 10
1193.051238554287
 20
-465.4404650705316
 30
0.0
 11
1199.051238554287
 21
-465.4404650705316
 31
0.0
  0
LINE
  5
DE
  8
PREDEFINITO
 10
1199.051238554287
 20
-465.4404650705316
 30
0.0
 11
1199.051238554287
 21
-459.4404650705316
 31
0.0
  0
LINE
  5
DF
  8
PREDEFINITO
 10
1199.051238554287
 20
-459.4404650705316
 30
0.0
 11
1193.051238554287
 21
-459.4404650705316
 31
0.0
  0
LINE
  5
E0
  8
PREDEFINITO
 10
1193.051238554287
 20
-459.4404650705316
 30
0.0
 11
1187.051238554287
 21
-459.4404650705316
 31
0.0
  0
LINE
  5
E1
  8
PREDEFINITO
 10
1187.051238554287
 20
-459.4404650705316
 30
0.0
 11
1187.051238554287
 21
-453.4404650705316
 31
0.0
  0
LINE
  5
E2
  8
PREDEFINITO
 10
1187.051238554287
 20
-453.4404650705316
 30
0.0
 11
1181.051238554287
 21
-453.4404650705316
 31
0.0
  0
LINE
  5
E3
  8
PREDEFINITO
 10
1181.051238554287
 20
-453.4404650705316
 30
0.0
 11
1181.051238554287
 21
-459.4404650705316
 31
0.0
  0
LINE
  5
E4
  8
PREDEFINITO
 10
1181.051238554287
 20
-459.4404650705316
 30
0.0
 11
1169.051238554287
 21
-459.4404650705316
 31
0.0
  0
LINE
  5
E5
  8
PREDEFINITO
 10
1169.051238554287
 20
-459.4404650705316
 30
0.0
 11
1169.051238554287
 21
-453.4404650705316
 31
0.0
  0
LINE
  5
E6
  8
PREDEFINITO
 10
1169.051238554287
 20
-453.4404650705316
 30
0.0
 11
1159.051238554287
 21
-453.4404650705316
 31
0.0
  0
LINE
  5
E7
  8
PREDEFINITO
 10
1159.051238554287
 20
-453.4404650705316
 30
0.0
 11
1128.640027082366
 21
-453.4404650705316
 31
0.0
  0
LINE
  5
E8
  8
PREDEFINITO
 10
1128.640027082366
 20
-453.4404650705316
 30
0.0
 11
1128.640027082366
 21
-459.4404650705316
 31
0.0
  0
LINE
  5
E9
  8
PREDEFINITO
 10
1128.640027082366
 20
-459.4404650705316
 30
0.0
 11
1116.640027082366
 21
-459.4404650705316
 31
0.0
  0
LINE
  5
EA
  8
PREDEFINITO
 10
1116.640027082366
 20
-459.4404650705316
 30
0.0
 11
1116.640027082366
 21
-453.4404650705316
 31
0.0
  0
LINE
  5
EB
  8
PREDEFINITO
 10
1116.640027082366
 20
-453.4404650705316
 30
0.0
 11
1110.640027082366
 21
-453.4404650705316
 31
0.0
  0
LINE
  5
EC
  8
PREDEFINITO
 10
1110.640027082366
 20
-453.4404650705316
 30
0.0
 11
1110.640027082366
 21
-459.4404650705316
 31
0.0
  0
LINE
  5
ED
  8
PREDEFINITO
 10
1110.640027082366
 20
-459.4404650705316
 30
0.0
 11
1104.640027082366
 21
-459.4404650705316
 31
0.0
  0
LINE
  5
EE
  8
PREDEFINITO
 10
1104.640027082366
 20
-459.4404650705316
 30
0.0
 11
1104.640027082366
 21
-465.4404650705316
 31
0.0
  0
LINE
  5
EF
  8
PREDEFINITO
 10
1104.640027082366
 20
-465.4404650705316
 30
0.0
 11
1110.640027082366
 21
-465.4404650705316
 31
0.0
  0
LINE
  5
F0
  8
PREDEFINITO
 10
1110.640027082366
 20
-465.4404650705316
 30
0.0
 11
1110.640027082366
 21
-471.4404650705316
 31
0.0
  0
LINE
  5
F1
  8
PREDEFINITO
 10
1110.640027082366
 20
-471.4404650705316
 30
0.0
 11
1104.640027082366
 21
-471.4404650705316
 31
0.0
  0
LINE
  5
F2
  8
PREDEFINITO
 10
1104.640027082366
 20
-471.4404650705316
 30
0.0
 11
1104.640027082366
 21
-487.5363978505445
 31
0.0
  0
LINE
  5
F3
  8
PREDEFINITO
 10
1104.640027082366
 20
-487.5363978505445
 30
0.0
 11
1110.640027082366
 21
-487.5363978505445
 31
0.0
  0
LINE
  5
F4
  8
PREDEFINITO
 10
1110.640027082366
 20
-487.5363978505445
 30
0.0
 11
1110.640027082366
 21
-493.5363978505445
 31
0.0
  0
LINE
  5
F5
  8
PREDEFINITO
 10
1110.640027082366
 20
-493.5363978505445
 30
0.0
 11
1104.640027082366
 21
-493.5363978505445
 31
0.0
  0
LINE
  5
F6
  8
PREDEFINITO
 10
1104.640027082366
 20
-493.5363978505445
 30
0.0
 11
1104.640027082366
 21
-499.5363978505445
 31
0.0
  0
LINE
  5
F7
  8
PREDEFINITO
 10
1104.640027082366
 20
-499.5363978505445
 30
0.0
 11
1110.640027082366
 21
-499.5363978505445
 31
0.0
  0
LINE
  5
F8
  8
PREDEFINITO
 10
1110.640027082366
 20
-499.5363978505445
 30
0.0
 11
1110.640027082366
 21
-505.5363978505445
 31
0.0
  0
LINE
  5
F9
  8
PREDEFINITO
 10
1110.640027082366
 20
-505.5363978505445
 30
0.0
 11
1183.051238554287
 21
-505.5363978505445
 31
0.0
  0
LINE
  5
FA
  8
TUBBBI
 10
1168.962450026208
 20
-493.5363978505445
 30
0.0
 11
1180.962450026208
 21
-493.5363978505445
 31
0.0
  0
LINE
  5
FB
  8
TUBBBI
 10
1180.962450026208
 20
-493.5363978505445
 30
0.0
 11
1180.962450026208
 21
-499.5363978505445
 31
0.0
  0
LINE
  5
FC
  8
TUBBBI
 10
1180.962450026208
 20
-499.5363978505445
 30
0.0
 11
1168.962450026208
 21
-499.5363978505445
 31
0.0
  0
LINE
  5
FD
  8
TUBBBI
 10
1168.962450026208
 20
-499.5363978505445
 30
0.0
 11
1168.962450026208
 21
-493.5363978505445
 31
0.0
  0
LINE
  5
FE
  8
TUBBBI
 10
1138.551238554287
 20
-493.5363978505445
 30
0.0
 11
1150.551238554287
 21
-493.5363978505445
 31
0.0
  0
LINE
  5
FF
  8
TUBBBI
 10
1150.551238554287
 20
-493.5363978505445
 30
0.0
 11
1150.551238554287
 21
-499.5363978505445
 31
0.0
  0
LINE
  5
100
  8
TUBBBI
 10
1150.551238554287
 20
-499.5363978505445
 30
0.0
 11
1138.551238554287
 21
-499.5363978505445
 31
0.0
  0
LINE
  5
101
  8
TUBBBI
 10
1138.551238554287
 20
-499.5363978505445
 30
0.0
 11
1138.551238554287
 21
-493.5363978505445
 31
0.0
  0
LINE
  5
102
  8
PREDEFINITO
 10
1224.809359473602
 20
-505.5363978505445
 30
0.0
 11
1214.809359473602
 21
-505.5363978505445
 31
0.0
  0
LINE
  5
103
  8
PREDEFINITO
 10
1214.809359473602
 20
-505.5363978505445
 30
0.0
 11
1214.809359473602
 21
-499.5363978505445
 31
0.0
  0
LINE
  5
104
  8
PREDEFINITO
 10
1214.809359473602
 20
-499.5363978505445
 30
0.0
 11
1208.809359473602
 21
-499.5363978505445
 31
0.0
  0
LINE
  5
105
  8
PREDEFINITO
 10
1208.809359473602
 20
-499.5363978505445
 30
0.0
 11
1208.809359473602
 21
-493.5363978505445
 31
0.0
  0
LINE
  5
106
  8
PREDEFINITO
 10
1208.809359473602
 20
-493.5363978505445
 30
0.0
 11
1214.809359473602
 21
-493.5363978505445
 31
0.0
  0
LINE
  5
107
  8
PREDEFINITO
 10
1214.809359473602
 20
-493.5363978505445
 30
0.0
 11
1214.809359473602
 21
-487.5363978505445
 31
0.0
  0
LINE
  5
108
  8
PREDEFINITO
 10
1214.809359473602
 20
-487.5363978505445
 30
0.0
 11
1208.809359473602
 21
-487.5363978505445
 31
0.0
  0
LINE
  5
109
  8
PREDEFINITO
 10
1208.809359473602
 20
-487.5363978505445
 30
0.0
 11
1208.809359473602
 21
-471.4404650705316
 31
0.0
  0
LINE
  5
10A
  8
PREDEFINITO
 10
1208.809359473602
 20
-471.4404650705316
 30
0.0
 11
1214.809359473602
 21
-471.4404650705316
 31
0.0
  0
LINE
  5
10B
  8
PREDEFINITO
 10
1214.809359473602
 20
-471.4404650705316
 30
0.0
 11
1214.809359473602
 21
-465.4404650705316
 31
0.0
  0
LINE
  5
10C
  8
PREDEFINITO
 10
1214.809359473602
 20
-465.4404650705316
 30
0.0
 11
1208.809359473602
 21
-465.4404650705316
 31
0.0
  0
LINE
  5
10D
  8
PREDEFINITO
 10
1208.809359473602
 20
-465.4404650705316
 30
0.0
 11
1208.809359473602
 21
-459.4404650705316
 31
0.0
  0
LINE
  5
10E
  8
PREDEFINITO
 10
1208.809359473602
 20
-459.4404650705316
 30
0.0
 11
1214.809359473602
 21
-459.4404650705316
 31
0.0
  0
LINE
  5
10F
  8
PREDEFINITO
 10
1214.809359473602
 20
-459.4404650705316
 30
0.0
 11
1220.809359473602
 21
-459.4404650705316
 31
0.0
  0
LINE
  5
110
  8
PREDEFINITO
 10
1220.809359473602
 20
-459.4404650705316
 30
0.0
 11
1220.809359473602
 21
-453.4404650705316
 31
0.0
  0
LINE
  5
111
  8
PREDEFINITO
 10
1220.809359473602
 20
-453.4404650705316
 30
0.0
 11
1226.809359473602
 21
-453.4404650705316
 31
0.0
  0
LINE
  5
112
  8
PREDEFINITO
 10
1226.809359473602
 20
-453.4404650705316
 30
0.0
 11
1226.809359473602
 21
-459.4404650705316
 31
0.0
  0
LINE
  5
113
  8
PREDEFINITO
 10
1226.809359473602
 20
-459.4404650705316
 30
0.0
 11
1238.809359473602
 21
-459.4404650705316
 31
0.0
  0
LINE
  5
114
  8
PREDEFINITO
 10
1238.809359473602
 20
-459.4404650705316
 30
0.0
 11
1238.809359473602
 21
-453.4404650705316
 31
0.0
  0
LINE
  5
115
  8
PREDEFINITO
 10
1238.809359473602
 20
-453.4404650705316
 30
0.0
 11
1248.809359473602
 21
-453.4404650705316
 31
0.0
  0
LINE
  5
116
  8
PREDEFINITO
 10
1248.809359473602
 20
-453.4404650705316
 30
0.0
 11
1279.220570945524
 21
-453.4404650705316
 31
0.0
  0
LINE
  5
117
  8
PREDEFINITO
 10
1279.220570945524
 20
-453.4404650705316
 30
0.0
 11
1279.220570945524
 21
-459.4404650705316
 31
0.0
  0
LINE
  5
118
  8
PREDEFINITO
 10
1279.220570945524
 20
-459.4404650705316
 30
0.0
 11
1291.220570945524
 21
-459.4404650705316
 31
0.0
  0
LINE
  5
119
  8
PREDEFINITO
 10
1291.220570945524
 20
-459.4404650705316
 30
0.0
 11
1291.220570945524
 21
-453.4404650705316
 31
0.0
  0
LINE
  5
11A
  8
PREDEFINITO
 10
1291.220570945524
 20
-453.4404650705316
 30
0.0
 11
1297.220570945523
 21
-453.4404650705316
 31
0.0
  0
LINE
  5
11B
  8
PREDEFINITO
 10
1297.220570945523
 20
-453.4404650705316
 30
0.0
 11
1297.220570945523
 21
-459.4404650705316
 31
0.0
  0
LINE
  5
11C
  8
PREDEFINITO
 10
1297.220570945523
 20
-459.4404650705316
 30
0.0
 11
1303.220570945523
 21
-459.4404650705316
 31
0.0
  0
LINE
  5
11D
  8
PREDEFINITO
 10
1303.220570945523
 20
-459.4404650705316
 30
0.0
 11
1303.220570945523
 21
-465.4404650705316
 31
0.0
  0
LINE
  5
11E
  8
PREDEFINITO
 10
1303.220570945523
 20
-465.4404650705316
 30
0.0
 11
1297.220570945523
 21
-465.4404650705316
 31
0.0
  0
LINE
  5
11F
  8
PREDEFINITO
 10
1297.220570945523
 20
-465.4404650705316
 30
0.0
 11
1297.220570945523
 21
-471.4404650705316
 31
0.0
  0
LINE
  5
120
  8
PREDEFINITO
 10
1297.220570945523
 20
-471.4404650705316
 30
0.0
 11
1303.220570945523
 21
-471.4404650705316
 31
0.0
  0
LINE
  5
121
  8
PREDEFINITO
 10
1303.220570945523
 20
-471.4404650705316
 30
0.0
 11
1303.220570945523
 21
-487.5363978505445
 31
0.0
  0
LINE
  5
122
  8
PREDEFINITO
 10
1303.220570945523
 20
-487.5363978505445
 30
0.0
 11
1297.220570945523
 21
-487.5363978505445
 31
0.0
  0
LINE
  5
123
  8
PREDEFINITO
 10
1297.220570945523
 20
-487.5363978505445
 30
0.0
 11
1297.220570945523
 21
-493.5363978505445
 31
0.0
  0
LINE
  5
124
  8
PREDEFINITO
 10
1297.220570945523
 20
-493.5363978505445
 30
0.0
 11
1303.220570945523
 21
-493.5363978505445
 31
0.0
  0
LINE
  5
125
  8
PREDEFINITO
 10
1303.220570945523
 20
-493.5363978505445
 30
0.0
 11
1303.220570945523
 21
-499.5363978505445
 31
0.0
  0
LINE
  5
126
  8
PREDEFINITO
 10
1303.220570945523
 20
-499.5363978505445
 30
0.0
 11
1297.220570945523
 21
-499.5363978505445
 31
0.0
  0
LINE
  5
127
  8
PREDEFINITO
 10
1297.220570945523
 20
-499.5363978505445
 30
0.0
 11
1297.220570945523
 21
-505.5363978505445
 31
0.0
  0
LINE
  5
128
  8
PREDEFINITO
 10
1297.220570945523
 20
-505.5363978505445
 30
0.0
 11
1224.809359473602
 21
-505.5363978505445
 31
0.0
  0
LINE
  5
129
  8
TUBBBI
 10
1238.898148001681
 20
-493.5363978505445
 30
0.0
 11
1226.898148001681
 21
-493.5363978505445
 31
0.0
  0
LINE
  5
12A
  8
TUBBBI
 10
1226.898148001681
 20
-493.5363978505445
 30
0.0
 11
1226.898148001681
 21
-499.5363978505445
 31
0.0
  0
LINE
  5
12B
  8
TUBBBI
 10
1226.898148001681
 20
-499.5363978505445
 30
0.0
 11
1238.898148001681
 21
-499.5363978505445
 31
0.0
  0
LINE
  5
12C
  8
TUBBBI
 10
1238.898148001681
 20
-499.5363978505445
 30
0.0
 11
1238.898148001681
 21
-493.5363978505445
 31
0.0
  0
LINE
  5
12D
  8
TUBBBI
 10
1269.309359473602
 20
-493.5363978505445
 30
0.0
 11
1257.309359473602
 21
-493.5363978505445
 31
0.0
  0
LINE
  5
12E
  8
TUBBBI
 10
1257.309359473602
 20
-493.5363978505445
 30
0.0
 11
1257.309359473602
 21
-499.5363978505445
 31
0.0
  0
LINE
  5
12F
  8
TUBBBI
 10
1257.309359473602
 20
-499.5363978505445
 30
0.0
 11
1269.309359473602
 21
-499.5363978505445
 31
0.0
  0
LINE
  5
130
  8
TUBBBI
 10
1269.309359473602
 20
-499.5363978505445
 30
0.0
 11
1269.309359473602
 21
-493.5363978505445
 31
0.0
  0
LINE
  5
131
  8
TUBBBI
 10
981.7149349629881
 20
-977.83968711824
 30
0.0
 11
1219.150089075282
 21
-977.8396871182346
 31
0.0
  0
LINE
  5
132
  8
TUBBBI
 10
1219.150089075282
 20
-977.8396871182346
 30
0.0
 11
1219.15008907528
 21
-944.8396871182294
 31
0.0
  0
LINE
  5
133
  8
TUBBBI
 10
1219.15008907528
 20
-944.8396871182402
 30
0.0
 11
981.7149349629881
 21
-944.8396871182402
 31
0.0
  0
LINE
  5
134
  8
TUBBBI
 10
981.7149349629881
 20
-944.8396871182402
 30
0.0
 11
981.7149349629881
 21
-977.83968711824
 31
0.0
  0
LINE
  5
135
  8
TUBBBI
 10
1252.150089075282
 20
-953.83968711824
 30
0.0
 11
1252.150089075282
 21
-935.8396871182405
 31
0.0
  0
LINE
  5
136
  8
TUBBBI
 10
1252.150089075282
 20
-935.8396871182405
 30
0.0
 11
1258.150089075282
 21
-935.8396871182405
 31
0.0
  0
LINE
  5
137
  8
TUBBBI
 10
1258.150089075282
 20
-935.8396871182405
 30
0.0
 11
1258.150089075282
 21
-953.83968711824
 31
0.0
  0
LINE
  5
138
  8
TUBBBI
 10
1258.150089075282
 20
-953.83968711824
 30
0.0
 11
1252.150089075282
 21
-953.83968711824
 31
0.0
  0
LINE
  5
139
  8
TUBBBI
 10
1252.150089075282
 20
-977.83968711824
 30
0.0
 11
1252.150089075282
 21
-965.83968711824
 31
0.0
  0
LINE
  5
13A
  8
TUBBBI
 10
1252.150089075282
 20
-965.83968711824
 30
0.0
 11
1258.150089075282
 21
-965.83968711824
 31
0.0
  0
LINE
  5
13B
  8
TUBBBI
 10
1258.150089075282
 20
-965.83968711824
 30
0.0
 11
1258.150089075282
 21
-977.83968711824
 31
0.0
  0
LINE
  5
13C
  8
TUBBBI
 10
1258.150089075282
 20
-977.83968711824
 30
0.0
 11
1252.150089075282
 21
-977.83968711824
 31
0.0
  0
LINE
  5
13D
  8
TUBBBI
 10
1252.150089075282
 20
-923.8396871182405
 30
0.0
 11
1252.150089075282
 21
-911.8396871182405
 31
0.0
  0
LINE
  5
13E
  8
TUBBBI
 10
1252.150089075282
 20
-911.8396871182405
 30
0.0
 11
1258.150089075282
 21
-911.8396871182405
 31
0.0
  0
LINE
  5
13F
  8
TUBBBI
 10
1258.150089075282
 20
-911.8396871182405
 30
0.0
 11
1258.150089075282
 21
-923.8396871182405
 31
0.0
  0
LINE
  5
140
  8
TUBBBI
 10
1258.150089075282
 20
-923.8396871182405
 30
0.0
 11
1252.150089075282
 21
-923.8396871182405
 31
0.0
  0
LINE
  5
141
  8
TUBBBI
 10
948.7149349629883
 20
-923.8396871182405
 30
0.0
 11
948.7149349629883
 21
-911.8396871182405
 31
0.0
  0
LINE
  5
142
  8
TUBBBI
 10
948.7149349629883
 20
-911.8396871182405
 30
0.0
 11
942.7149349629883
 21
-911.8396871182405
 31
0.0
  0
LINE
  5
143
  8
TUBBBI
 10
942.7149349629883
 20
-911.8396871182405
 30
0.0
 11
942.7149349629883
 21
-923.8396871182405
 31
0.0
  0
LINE
  5
144
  8
TUBBBI
 10
942.7149349629883
 20
-923.8396871182405
 30
0.0
 11
948.7149349629883
 21
-923.8396871182405
 31
0.0
  0
LINE
  5
145
  8
TUBBBI
 10
948.7149349629883
 20
-953.83968711824
 30
0.0
 11
948.7149349629883
 21
-935.8396871182405
 31
0.0
  0
LINE
  5
146
  8
TUBBBI
 10
948.7149349629883
 20
-935.8396871182405
 30
0.0
 11
942.7149349629883
 21
-935.8396871182405
 31
0.0
  0
LINE
  5
147
  8
TUBBBI
 10
942.7149349629883
 20
-935.8396871182405
 30
0.0
 11
942.7149349629883
 21
-953.83968711824
 31
0.0
  0
LINE
  5
148
  8
TUBBBI
 10
942.7149349629883
 20
-953.83968711824
 30
0.0
 11
948.7149349629883
 21
-953.83968711824
 31
0.0
  0
LINE
  5
149
  8
TUBBBI
 10
948.7149349629883
 20
-977.83968711824
 30
0.0
 11
948.7149349629883
 21
-965.83968711824
 31
0.0
  0
LINE
  5
14A
  8
TUBBBI
 10
948.7149349629883
 20
-965.83968711824
 30
0.0
 11
942.7149349629883
 21
-965.83968711824
 31
0.0
  0
LINE
  5
14B
  8
TUBBBI
 10
942.7149349629883
 20
-965.83968711824
 30
0.0
 11
942.7149349629883
 21
-977.83968711824
 31
0.0
  0
LINE
  5
14C
  8
TUBBBI
 10
942.7149349629883
 20
-977.83968711824
 30
0.0
 11
948.7149349629883
 21
-977.83968711824
 31
0.0
  0
LINE
  5
14D
  8
PREDEFINITO
 10
909.3925120191459
 20
-996.2226959305842
 30
0.0
 11
909.3925120191459
 21
-986.2226959305841
 31
0.0
  0
LINE
  5
14E
  8
PREDEFINITO
 10
909.3925120191459
 20
-986.2226959305841
 30
0.0
 11
903.3925120191459
 21
-986.2226959305841
 31
0.0
  0
LINE
  5
14F
  8
PREDEFINITO
 10
903.3925120191459
 20
-986.2226959305841
 30
0.0
 11
903.3925120191459
 21
-974.2226959305841
 31
0.0
  0
LINE
  5
150
  8
PREDEFINITO
 10
903.3925120191459
 20
-974.2226959305841
 30
0.0
 11
909.3925120191461
 21
-974.2226959305841
 31
0.0
  0
LINE
  5
151
  8
PREDEFINITO
 10
909.3925120191461
 20
-974.2226959305841
 30
0.0
 11
909.3925120191461
 21
-962.2226959305841
 31
0.0
  0
LINE
  5
152
  8
PREDEFINITO
 10
909.3925120191461
 20
-962.2226959305841
 30
0.0
 11
903.3925120191461
 21
-962.2226959305841
 31
0.0
  0
LINE
  5
153
  8
PREDEFINITO
 10
903.3925120191461
 20
-962.2226959305841
 30
0.0
 11
903.3925120191461
 21
-934.1426959305844
 31
0.0
  0
LINE
  5
154
  8
PREDEFINITO
 10
903.3925120191461
 20
-934.1426959305844
 30
0.0
 11
909.3925120191461
 21
-934.1426959305844
 31
0.0
  0
LINE
  5
155
  8
PREDEFINITO
 10
909.3925120191461
 20
-934.1426959305844
 30
0.0
 11
909.3925120191461
 21
-922.1426959305844
 31
0.0
  0
LINE
  5
156
  8
PREDEFINITO
 10
909.3925120191461
 20
-922.1426959305844
 30
0.0
 11
903.3925120191459
 21
-922.1426959305844
 31
0.0
  0
LINE
  5
157
  8
PREDEFINITO
 10
903.3925120191459
 20
-922.1426959305844
 30
0.0
 11
903.3925120191459
 21
-910.1426959305844
 31
0.0
  0
LINE
  5
158
  8
PREDEFINITO
 10
903.3925120191459
 20
-910.1426959305844
 30
0.0
 11
909.3925120191459
 21
-910.1426959305844
 31
0.0
  0
LINE
  5
159
  8
PREDEFINITO
 10
909.3925120191459
 20
-910.1426959305844
 30
0.0
 11
909.3925120191459
 21
-898.1426959305844
 31
0.0
  0
LINE
  5
15A
  8
PREDEFINITO
 10
909.3925120191459
 20
-898.1426959305844
 30
0.0
 11
915.3925120191459
 21
-898.1426959305844
 31
0.0
  0
LINE
  5
15B
  8
PREDEFINITO
 10
915.3925120191459
 20
-898.1426959305844
 30
0.0
 11
915.3925120191459
 21
-892.1426959305844
 31
0.0
  0
LINE
  5
15C
  8
PREDEFINITO
 10
915.3925120191459
 20
-892.1426959305844
 30
0.0
 11
921.3925120191459
 21
-892.1426959305844
 31
0.0
  0
LINE
  5
15D
  8
PREDEFINITO
 10
921.3925120191459
 20
-892.1426959305844
 30
0.0
 11
921.3925120191459
 21
-898.1426959305844
 31
0.0
  0
LINE
  5
15E
  8
PREDEFINITO
 10
921.3925120191459
 20
-898.1426959305844
 30
0.0
 11
937.4884447991587
 21
-898.1426959305844
 31
0.0
  0
LINE
  5
15F
  8
PREDEFINITO
 10
937.4884447991587
 20
-898.1426959305844
 30
0.0
 11
937.4884447991587
 21
-892.1426959305844
 31
0.0
  0
LINE
  5
160
  8
PREDEFINITO
 10
937.4884447991587
 20
-892.1426959305844
 30
0.0
 11
943.4884447991587
 21
-892.1426959305844
 31
0.0
  0
LINE
  5
161
  8
PREDEFINITO
 10
943.4884447991587
 20
-892.1426959305844
 30
0.0
 11
943.4884447991587
 21
-898.1426959305844
 31
0.0
  0
LINE
  5
162
  8
PREDEFINITO
 10
943.4884447991587
 20
-898.1426959305844
 30
0.0
 11
949.4884447991587
 21
-898.1426959305844
 31
0.0
  0
LINE
  5
163
  8
PREDEFINITO
 10
949.4884447991587
 20
-898.1426959305844
 30
0.0
 11
949.4884447991587
 21
-892.1426959305844
 31
0.0
  0
LINE
  5
164
  8
PREDEFINITO
 10
949.4884447991587
 20
-892.1426959305844
 30
0.0
 11
1251.376579239112
 21
-892.1426959305844
 31
0.0
  0
LINE
  5
165
  8
PREDEFINITO
 10
1251.376579239112
 20
-892.1426959305844
 30
0.0
 11
1251.376579239112
 21
-898.1426959305844
 31
0.0
  0
LINE
  5
166
  8
PREDEFINITO
 10
1251.376579239112
 20
-898.1426959305844
 30
0.0
 11
1257.376579239112
 21
-898.1426959305844
 31
0.0
  0
LINE
  5
167
  8
PREDEFINITO
 10
1257.376579239112
 20
-898.1426959305844
 30
0.0
 11
1257.376579239112
 21
-892.1426959305844
 31
0.0
  0
LINE
  5
168
  8
PREDEFINITO
 10
1257.376579239112
 20
-892.1426959305844
 30
0.0
 11
1263.376579239112
 21
-892.1426959305844
 31
0.0
  0
LINE
  5
169
  8
PREDEFINITO
 10
1263.376579239112
 20
-892.1426959305844
 30
0.0
 11
1263.376579239112
 21
-898.1426959305844
 31
0.0
  0
LINE
  5
16A
  8
PREDEFINITO
 10
1263.376579239112
 20
-898.1426959305844
 30
0.0
 11
1279.472512019125
 21
-898.1426959305844
 31
0.0
  0
LINE
  5
16B
  8
PREDEFINITO
 10
1279.472512019125
 20
-898.1426959305844
 30
0.0
 11
1279.472512019125
 21
-892.1426959305844
 31
0.0
  0
LINE
  5
16C
  8
PREDEFINITO
 10
1279.472512019125
 20
-892.1426959305844
 30
0.0
 11
1285.472512019125
 21
-892.1426959305844
 31
0.0
  0
LINE
  5
16D
  8
PREDEFINITO
 10
1285.472512019125
 20
-892.1426959305844
 30
0.0
 11
1285.472512019125
 21
-898.1426959305844
 31
0.0
  0
LINE
  5
16E
  8
PREDEFINITO
 10
1285.472512019125
 20
-898.1426959305844
 30
0.0
 11
1291.472512019125
 21
-898.1426959305844
 31
0.0
  0
LINE
  5
16F
  8
PREDEFINITO
 10
1291.472512019125
 20
-898.1426959305844
 30
0.0
 11
1291.472512019125
 21
-910.1426959305844
 31
0.0
  0
LINE
  5
170
  8
PREDEFINITO
 10
1291.472512019125
 20
-910.1426959305844
 30
0.0
 11
1297.472512019125
 21
-910.1426959305844
 31
0.0
  0
LINE
  5
171
  8
PREDEFINITO
 10
1297.472512019125
 20
-910.1426959305844
 30
0.0
 11
1297.472512019125
 21
-922.1426959305844
 31
0.0
  0
LINE
  5
172
  8
PREDEFINITO
 10
1297.472512019125
 20
-922.1426959305844
 30
0.0
 11
1291.472512019125
 21
-922.1426959305844
 31
0.0
  0
LINE
  5
173
  8
PREDEFINITO
 10
1291.472512019125
 20
-922.1426959305844
 30
0.0
 11
1291.472512019125
 21
-934.1426959305844
 31
0.0
  0
LINE
  5
174
  8
PREDEFINITO
 10
1291.472512019125
 20
-934.1426959305844
 30
0.0
 11
1297.472512019125
 21
-934.1426959305844
 31
0.0
  0
LINE
  5
175
  8
PREDEFINITO
 10
1297.472512019125
 20
-934.1426959305844
 30
0.0
 11
1297.472512019125
 21
-962.2226959305841
 31
0.0
  0
LINE
  5
176
  8
PREDEFINITO
 10
1297.472512019125
 20
-962.2226959305841
 30
0.0
 11
1291.472512019125
 21
-962.2226959305841
 31
0.0
  0
LINE
  5
177
  8
PREDEFINITO
 10
1291.472512019125
 20
-962.2226959305841
 30
0.0
 11
1291.472512019125
 21
-974.2226959305841
 31
0.0
  0
LINE
  5
178
  8
PREDEFINITO
 10
1291.472512019125
 20
-974.2226959305841
 30
0.0
 11
1297.472512019125
 21
-974.2226959305841
 31
0.0
  0
LINE
  5
179
  8
PREDEFINITO
 10
1297.472512019125
 20
-974.2226959305841
 30
0.0
 11
1297.472512019125
 21
-986.2226959305841
 31
0.0
  0
LINE
  5
17A
  8
PREDEFINITO
 10
1297.472512019125
 20
-986.2226959305841
 30
0.0
 11
1291.472512019125
 21
-986.2226959305841
 31
0.0
  0
LINE
  5
17B
  8
PREDEFINITO
 10
1291.472512019125
 20
-986.2226959305841
 30
0.0
 11
1291.472512019125
 21
-996.2226959305842
 31
0.0
  0
LINE
  5
17C
  8
PREDEFINITO
 10
1291.472512019125
 20
-996.2226959305842
 30
0.0
 11
1291.472512019125
 21
-1002.222695930584
 31
0.0
  0
LINE
  5
17D
  8
PREDEFINITO
 10
1291.472512019125
 20
-1002.222695930584
 30
0.0
 11
1291.472512019125
 21
-1008.222695930584
 31
0.0
  0
LINE
  5
17E
  8
PREDEFINITO
 10
1291.472512019125
 20
-1008.222695930584
 30
0.0
 11
1285.472512019125
 21
-1008.222695930584
 31
0.0
  0
LINE
  5
17F
  8
PREDEFINITO
 10
1285.472512019125
 20
-1008.222695930584
 30
0.0
 11
1279.472512019125
 21
-1008.222695930584
 31
0.0
  0
LINE
  5
180
  8
PREDEFINITO
 10
1279.472512019125
 20
-1008.222695930584
 30
0.0
 11
1279.472512019125
 21
-1014.222695930584
 31
0.0
  0
LINE
  5
181
  8
PREDEFINITO
 10
1279.472512019125
 20
-1014.222695930584
 30
0.0
 11
1273.472512019125
 21
-1014.222695930584
 31
0.0
  0
LINE
  5
182
  8
PREDEFINITO
 10
1273.472512019125
 20
-1014.222695930584
 30
0.0
 11
1273.472512019125
 21
-1008.222695930584
 31
0.0
  0
LINE
  5
183
  8
PREDEFINITO
 10
1273.472512019125
 20
-1008.222695930584
 30
0.0
 11
1267.472512019125
 21
-1008.222695930584
 31
0.0
  0
LINE
  5
184
  8
PREDEFINITO
 10
1267.472512019125
 20
-1008.222695930584
 30
0.0
 11
1267.472512019125
 21
-1014.222695930584
 31
0.0
  0
LINE
  5
185
  8
PREDEFINITO
 10
1267.472512019125
 20
-1014.222695930584
 30
0.0
 11
1255.472512019125
 21
-1014.222695930584
 31
0.0
  0
LINE
  5
186
  8
PREDEFINITO
 10
1255.472512019125
 20
-1014.222695930584
 30
0.0
 11
1255.472512019125
 21
-1008.222695930584
 31
0.0
  0
LINE
  5
187
  8
PREDEFINITO
 10
1255.472512019125
 20
-1008.222695930584
 30
0.0
 11
1243.472512019125
 21
-1008.222695930584
 31
0.0
  0
LINE
  5
188
  8
PREDEFINITO
 10
1243.472512019125
 20
-1008.222695930584
 30
0.0
 11
1243.472512019125
 21
-1014.222695930584
 31
0.0
  0
LINE
  5
189
  8
PREDEFINITO
 10
1243.472512019125
 20
-1014.222695930584
 30
0.0
 11
1231.472512019125
 21
-1014.222695930584
 31
0.0
  0
LINE
  5
18A
  8
PREDEFINITO
 10
1231.472512019125
 20
-1014.222695930584
 30
0.0
 11
1231.472512019125
 21
-1008.222695930584
 31
0.0
  0
LINE
  5
18B
  8
PREDEFINITO
 10
1231.472512019125
 20
-1008.222695930584
 30
0.0
 11
1219.472512019125
 21
-1008.222695930584
 31
0.0
  0
LINE
  5
18C
  8
PREDEFINITO
 10
1219.472512019125
 20
-1008.222695930584
 30
0.0
 11
1219.472512019125
 21
-1014.222695930584
 31
0.0
  0
LINE
  5
18D
  8
PREDEFINITO
 10
1219.472512019125
 20
-1014.222695930584
 30
0.0
 11
1207.472512019125
 21
-1014.222695930584
 31
0.0
  0
LINE
  5
18E
  8
PREDEFINITO
 10
1207.472512019125
 20
-1014.222695930584
 30
0.0
 11
1207.472512019125
 21
-1008.222695930584
 31
0.0
  0
LINE
  5
18F
  8
PREDEFINITO
 10
1207.472512019125
 20
-1008.222695930584
 30
0.0
 11
1195.472512019125
 21
-1008.222695930584
 31
0.0
  0
LINE
  5
190
  8
PREDEFINITO
 10
1195.472512019125
 20
-1008.222695930584
 30
0.0
 11
1195.472512019125
 21
-1014.222695930584
 31
0.0
  0
LINE
  5
191
  8
PREDEFINITO
 10
1195.472512019125
 20
-1014.222695930584
 30
0.0
 11
1005.392512019146
 21
-1014.222695930584
 31
0.0
  0
LINE
  5
192
  8
PREDEFINITO
 10
1005.392512019146
 20
-1014.222695930584
 30
0.0
 11
1005.392512019146
 21
-1008.222695930584
 31
0.0
  0
LINE
  5
193
  8
PREDEFINITO
 10
1005.392512019146
 20
-1008.222695930584
 30
0.0
 11
993.3925120191459
 21
-1008.222695930584
 31
0.0
  0
LINE
  5
194
  8
PREDEFINITO
 10
993.3925120191459
 20
-1008.222695930584
 30
0.0
 11
993.3925120191459
 21
-1014.222695930584
 31
0.0
  0
LINE
  5
195
  8
PREDEFINITO
 10
993.3925120191459
 20
-1014.222695930584
 30
0.0
 11
981.3925120191459
 21
-1014.222695930584
 31
0.0
  0
LINE
  5
196
  8
PREDEFINITO
 10
981.3925120191459
 20
-1014.222695930584
 30
0.0
 11
981.3925120191459
 21
-1008.222695930584
 31
0.0
  0
LINE
  5
197
  8
PREDEFINITO
 10
981.3925120191459
 20
-1008.222695930584
 30
0.0
 11
969.3925120191459
 21
-1008.222695930584
 31
0.0
  0
LINE
  5
198
  8
PREDEFINITO
 10
969.3925120191459
 20
-1008.222695930584
 30
0.0
 11
969.3925120191459
 21
-1014.222695930584
 31
0.0
  0
LINE
  5
199
  8
PREDEFINITO
 10
969.3925120191459
 20
-1014.222695930584
 30
0.0
 11
957.3925120191459
 21
-1014.222695930584
 31
0.0
  0
LINE
  5
19A
  8
PREDEFINITO
 10
957.3925120191459
 20
-1014.222695930584
 30
0.0
 11
957.3925120191459
 21
-1008.222695930584
 31
0.0
  0
LINE
  5
19B
  8
PREDEFINITO
 10
957.3925120191459
 20
-1008.222695930584
 30
0.0
 11
945.3925120191459
 21
-1008.222695930584
 31
0.0
  0
LINE
  5
19C
  8
PREDEFINITO
 10
945.3925120191459
 20
-1008.222695930584
 30
0.0
 11
945.3925120191459
 21
-1014.222695930584
 31
0.0
  0
LINE
  5
19D
  8
PREDEFINITO
 10
945.3925120191459
 20
-1014.222695930584
 30
0.0
 11
933.3925120191459
 21
-1014.222695930584
 31
0.0
  0
LINE
  5
19E
  8
PREDEFINITO
 10
933.3925120191459
 20
-1014.222695930584
 30
0.0
 11
933.3925120191459
 21
-1008.222695930584
 31
0.0
  0
LINE
  5
19F
  8
PREDEFINITO
 10
933.3925120191459
 20
-1008.222695930584
 30
0.0
 11
927.3925120191459
 21
-1008.222695930584
 31
0.0
  0
LINE
  5
1A0
  8
PREDEFINITO
 10
927.3925120191459
 20
-1008.222695930584
 30
0.0
 11
927.3925120191459
 21
-1014.222695930584
 31
0.0
  0
LINE
  5
1A1
  8
PREDEFINITO
 10
927.3925120191459
 20
-1014.222695930584
 30
0.0
 11
921.3925120191459
 21
-1014.222695930584
 31
0.0
  0
LINE
  5
1A2
  8
PREDEFINITO
 10
921.3925120191459
 20
-1014.222695930584
 30
0.0
 11
921.3925120191459
 21
-1008.222695930584
 31
0.0
  0
LINE
  5
1A3
  8
PREDEFINITO
 10
921.3925120191459
 20
-1008.222695930584
 30
0.0
 11
915.3925120191459
 21
-1008.222695930584
 31
0.0
  0
LINE
  5
1A4
  8
PREDEFINITO
 10
915.3925120191459
 20
-1008.222695930584
 30
0.0
 11
909.3925120191459
 21
-1008.222695930584
 31
0.0
  0
LINE
  5
1A5
  8
PREDEFINITO
 10
909.3925120191459
 20
-1008.222695930584
 30
0.0
 11
909.3925120191459
 21
-1002.222695930584
 31
0.0
  0
LINE
  5
1A6
  8
PREDEFINITO
 10
909.3925120191459
 20
-1002.222695930584
 30
0.0
 11
909.3925120191459
 21
-996.2226959305842
 31
0.0
  0
LINE
  5
1A7
  8
PREDEFINITO
 10
1298.651828818405
 20
-809.7574706811972
 30
0.0
 11
1298.651828818405
 21
-819.7574706811972
 31
0.0
  0
LINE
  5
1A8
  8
PREDEFINITO
 10
1298.651828818405
 20
-819.7574706811972
 30
0.0
 11
1298.651828818405
 21
-844.2574706811972
 31
0.0
  0
LINE
  5
1A9
  8
PREDEFINITO
 10
1298.651828818405
 20
-844.2574706811972
 30
0.0
 11
1298.651828818405
 21
-850.2574706811972
 31
0.0
  0
LINE
  5
1AA
  8
PREDEFINITO
 10
1298.651828818405
 20
-850.2574706811972
 30
0.0
 11
1292.651828818405
 21
-850.2574706811972
 31
0.0
  0
LINE
  5
1AB
  8
PREDEFINITO
 10
1292.651828818405
 20
-850.2574706811972
 30
0.0
 11
1292.651828818405
 21
-856.2574706811972
 31
0.0
  0
LINE
  5
1AC
  8
PREDEFINITO
 10
1292.651828818405
 20
-856.2574706811972
 30
0.0
 11
1292.651828818405
 21
-862.2574706811972
 31
0.0
  0
LINE
  5
1AD
  8
PREDEFINITO
 10
1292.651828818405
 20
-862.2574706811972
 30
0.0
 11
1298.651828818405
 21
-862.2574706811972
 31
0.0
  0
LINE
  5
1AE
  8
PREDEFINITO
 10
1298.651828818405
 20
-862.2574706811972
 30
0.0
 11
1298.651828818405
 21
-868.2574706811972
 31
0.0
  0
LINE
  5
1AF
  8
PREDEFINITO
 10
1298.651828818405
 20
-868.2574706811972
 30
0.0
 11
1292.651828818405
 21
-868.2574706811972
 31
0.0
  0
LINE
  5
1B0
  8
PREDEFINITO
 10
1292.651828818405
 20
-868.2574706811972
 30
0.0
 11
1292.651828818405
 21
-874.2574706811972
 31
0.0
  0
LINE
  5
1B1
  8
PREDEFINITO
 10
1292.651828818405
 20
-874.2574706811972
 30
0.0
 11
1286.651828818405
 21
-874.2574706811972
 31
0.0
  0
LINE
  5
1B2
  8
PREDEFINITO
 10
1286.651828818405
 20
-874.2574706811972
 30
0.0
 11
1280.651828818405
 21
-874.2574706811972
 31
0.0
  0
LINE
  5
1B3
  8
PREDEFINITO
 10
1280.651828818405
 20
-874.2574706811972
 30
0.0
 11
1280.651828818405
 21
-868.2574706811972
 31
0.0
  0
LINE
  5
1B4
  8
PREDEFINITO
 10
1280.651828818405
 20
-868.2574706811972
 30
0.0
 11
1274.651828818405
 21
-868.2574706811972
 31
0.0
  0
LINE
  5
1B5
  8
PREDEFINITO
 10
1274.651828818405
 20
-868.2574706811972
 30
0.0
 11
1274.651828818405
 21
-874.2574706811972
 31
0.0
  0
LINE
  5
1B6
  8
PREDEFINITO
 10
1274.651828818405
 20
-874.2574706811972
 30
0.0
 11
1268.651828818405
 21
-874.2574706811972
 31
0.0
  0
LINE
  5
1B7
  8
PREDEFINITO
 10
1268.651828818405
 20
-874.2574706811972
 30
0.0
 11
1268.651828818405
 21
-868.2574706811972
 31
0.0
  0
LINE
  5
1B8
  8
PREDEFINITO
 10
1268.651828818405
 20
-868.2574706811972
 30
0.0
 11
1256.651828818405
 21
-868.2574706811972
 31
0.0
  0
LINE
  5
1B9
  8
PREDEFINITO
 10
1256.651828818405
 20
-868.2574706811972
 30
0.0
 11
1256.651828818405
 21
-874.2574706811972
 31
0.0
  0
LINE
  5
1BA
  8
PREDEFINITO
 10
1256.651828818405
 20
-874.2574706811972
 30
0.0
 11
1244.651828818405
 21
-874.2574706811972
 31
0.0
  0
LINE
  5
1BB
  8
PREDEFINITO
 10
1244.651828818405
 20
-874.2574706811972
 30
0.0
 11
1244.651828818405
 21
-868.2574706811972
 31
0.0
  0
LINE
  5
1BC
  8
PREDEFINITO
 10
1244.651828818405
 20
-868.2574706811972
 30
0.0
 11
1232.651828818405
 21
-868.2574706811972
 31
0.0
  0
LINE
  5
1BD
  8
PREDEFINITO
 10
1232.651828818405
 20
-868.2574706811972
 30
0.0
 11
1232.651828818405
 21
-874.2574706811972
 31
0.0
  0
LINE
  5
1BE
  8
PREDEFINITO
 10
1232.651828818405
 20
-874.2574706811972
 30
0.0
 11
1220.651828818405
 21
-874.2574706811972
 31
0.0
  0
LINE
  5
1BF
  8
PREDEFINITO
 10
1220.651828818405
 20
-874.2574706811972
 30
0.0
 11
1220.651828818405
 21
-868.2574706811972
 31
0.0
  0
LINE
  5
1C0
  8
PREDEFINITO
 10
1220.651828818405
 20
-868.2574706811972
 30
0.0
 11
1208.651828818405
 21
-868.2574706811972
 31
0.0
  0
LINE
  5
1C1
  8
PREDEFINITO
 10
1208.651828818405
 20
-868.2574706811972
 30
0.0
 11
1208.651828818405
 21
-874.2574706811972
 31
0.0
  0
LINE
  5
1C2
  8
PREDEFINITO
 10
1208.651828818405
 20
-874.2574706811972
 30
0.0
 11
1196.651828818405
 21
-874.2574706811972
 31
0.0
  0
LINE
  5
1C3
  8
PREDEFINITO
 10
1196.651828818405
 20
-874.2574706811972
 30
0.0
 11
1196.651828818405
 21
-868.2574706811972
 31
0.0
  0
LINE
  5
1C4
  8
PREDEFINITO
 10
1196.651828818405
 20
-868.2574706811972
 30
0.0
 11
1006.571828818426
 21
-868.2574706811972
 31
0.0
  0
LINE
  5
1C5
  8
PREDEFINITO
 10
1006.571828818426
 20
-868.2574706811972
 30
0.0
 11
1006.571828818426
 21
-874.2574706811972
 31
0.0
  0
LINE
  5
1C6
  8
PREDEFINITO
 10
1006.571828818426
 20
-874.2574706811972
 30
0.0
 11
994.5718288184264
 21
-874.2574706811972
 31
0.0
  0
LINE
  5
1C7
  8
PREDEFINITO
 10
994.5718288184264
 20
-874.2574706811972
 30
0.0
 11
994.5718288184264
 21
-868.2574706811972
 31
0.0
  0
LINE
  5
1C8
  8
PREDEFINITO
 10
994.5718288184264
 20
-868.2574706811972
 30
0.0
 11
982.5718288184264
 21
-868.2574706811972
 31
0.0
  0
LINE
  5
1C9
  8
PREDEFINITO
 10
982.5718288184264
 20
-868.2574706811972
 30
0.0
 11
982.5718288184264
 21
-874.2574706811972
 31
0.0
  0
LINE
  5
1CA
  8
PREDEFINITO
 10
982.5718288184264
 20
-874.2574706811972
 30
0.0
 11
970.5718288184264
 21
-874.2574706811972
 31
0.0
  0
LINE
  5
1CB
  8
PREDEFINITO
 10
970.5718288184264
 20
-874.2574706811972
 30
0.0
 11
970.5718288184264
 21
-868.2574706811972
 31
0.0
  0
LINE
  5
1CC
  8
PREDEFINITO
 10
970.5718288184264
 20
-868.2574706811972
 30
0.0
 11
958.5718288184264
 21
-868.2574706811972
 31
0.0
  0
LINE
  5
1CD
  8
PREDEFINITO
 10
958.5718288184264
 20
-868.2574706811972
 30
0.0
 11
958.5718288184264
 21
-874.2574706811972
 31
0.0
  0
LINE
  5
1CE
  8
PREDEFINITO
 10
958.5718288184264
 20
-874.2574706811972
 30
0.0
 11
946.5718288184264
 21
-874.2574706811972
 31
0.0
  0
LINE
  5
1CF
  8
PREDEFINITO
 10
946.5718288184264
 20
-874.2574706811972
 30
0.0
 11
946.5718288184264
 21
-868.2574706811972
 31
0.0
  0
LINE
  5
1D0
  8
PREDEFINITO
 10
946.5718288184264
 20
-868.2574706811972
 30
0.0
 11
934.5718288184264
 21
-868.2574706811972
 31
0.0
  0
LINE
  5
1D1
  8
PREDEFINITO
 10
934.5718288184264
 20
-868.2574706811972
 30
0.0
 11
934.5718288184264
 21
-874.2574706811972
 31
0.0
  0
LINE
  5
1D2
  8
PREDEFINITO
 10
934.5718288184264
 20
-874.2574706811972
 30
0.0
 11
928.5718288184264
 21
-874.2574706811972
 31
0.0
  0
LINE
  5
1D3
  8
PREDEFINITO
 10
928.5718288184264
 20
-874.2574706811972
 30
0.0
 11
928.5718288184264
 21
-868.2574706811972
 31
0.0
  0
LINE
  5
1D4
  8
PREDEFINITO
 10
928.5718288184264
 20
-868.2574706811972
 30
0.0
 11
922.5718288184264
 21
-868.2574706811972
 31
0.0
  0
LINE
  5
1D5
  8
PREDEFINITO
 10
922.5718288184264
 20
-868.2574706811972
 30
0.0
 11
922.5718288184264
 21
-874.2574706811972
 31
0.0
  0
LINE
  5
1D6
  8
PREDEFINITO
 10
922.5718288184264
 20
-874.2574706811972
 30
0.0
 11
916.5718288184264
 21
-874.2574706811972
 31
0.0
  0
LINE
  5
1D7
  8
PREDEFINITO
 10
916.5718288184264
 20
-874.2574706811972
 30
0.0
 11
910.5718288184264
 21
-874.2574706811972
 31
0.0
  0
LINE
  5
1D8
  8
PREDEFINITO
 10
910.5718288184264
 20
-874.2574706811972
 30
0.0
 11
910.5718288184264
 21
-868.2574706811972
 31
0.0
  0
LINE
  5
1D9
  8
PREDEFINITO
 10
910.5718288184264
 20
-868.2574706811972
 30
0.0
 11
904.5718288184264
 21
-868.2574706811972
 31
0.0
  0
LINE
  5
1DA
  8
PREDEFINITO
 10
904.5718288184264
 20
-868.2574706811972
 30
0.0
 11
904.5718288184264
 21
-862.2574706811972
 31
0.0
  0
LINE
  5
1DB
  8
PREDEFINITO
 10
904.5718288184264
 20
-862.2574706811972
 30
0.0
 11
910.5718288184264
 21
-862.2574706811972
 31
0.0
  0
LINE
  5
1DC
  8
PREDEFINITO
 10
910.5718288184264
 20
-862.2574706811972
 30
0.0
 11
910.5718288184264
 21
-856.2574706811972
 31
0.0
  0
LINE
  5
1DD
  8
PREDEFINITO
 10
910.5718288184264
 20
-856.2574706811972
 30
0.0
 11
910.5718288184264
 21
-850.2574706811972
 31
0.0
  0
LINE
  5
1DE
  8
PREDEFINITO
 10
910.5718288184264
 20
-850.2574706811972
 30
0.0
 11
904.5718288184264
 21
-850.2574706811972
 31
0.0
  0
LINE
  5
1DF
  8
PREDEFINITO
 10
904.5718288184264
 20
-850.2574706811972
 30
0.0
 11
904.5718288184264
 21
-844.2574706811972
 31
0.0
  0
LINE
  5
1E0
  8
PREDEFINITO
 10
904.5718288184264
 20
-844.2574706811972
 30
0.0
 11
904.5718288184264
 21
-819.7574706811972
 31
0.0
  0
LINE
  5
1E1
  8
PREDEFINITO
 10
904.5718288184264
 20
-819.7574706811972
 30
0.0
 11
904.5718288184264
 21
-809.7574706811972
 31
0.0
  0
LINE
  5
1E2
  8
PREDEFINITO
 10
904.5718288184264
 20
-809.7574706811972
 30
0.0
 11
910.5718288184264
 21
-809.7574706811972
 31
0.0
  0
LINE
  5
1E3
  8
PREDEFINITO
 10
910.5718288184264
 20
-809.7574706811972
 30
0.0
 11
910.5718288184264
 21
-797.7574706811972
 31
0.0
  0
LINE
  5
1E4
  8
PREDEFINITO
 10
910.5718288184264
 20
-797.7574706811972
 30
0.0
 11
904.5718288184264
 21
-797.7574706811972
 31
0.0
  0
LINE
  5
1E5
  8
PREDEFINITO
 10
904.5718288184264
 20
-797.7574706811972
 30
0.0
 11
904.5718288184264
 21
-791.7574706811972
 31
0.0
  0
LINE
  5
1E6
  8
PREDEFINITO
 10
904.5718288184264
 20
-791.7574706811972
 30
0.0
 11
910.5718288184264
 21
-791.7574706811972
 31
0.0
  0
LINE
  5
1E7
  8
PREDEFINITO
 10
910.5718288184264
 20
-791.7574706811972
 30
0.0
 11
910.5718288184264
 21
-785.7574706811972
 31
0.0
  0
LINE
  5
1E8
  8
PREDEFINITO
 10
910.5718288184264
 20
-785.7574706811972
 30
0.0
 11
916.5718288184264
 21
-785.7574706811972
 31
0.0
  0
LINE
  5
1E9
  8
PREDEFINITO
 10
916.5718288184264
 20
-785.7574706811972
 30
0.0
 11
916.5718288184264
 21
-779.7574706811972
 31
0.0
  0
LINE
  5
1EA
  8
PREDEFINITO
 10
916.5718288184264
 20
-779.7574706811972
 30
0.0
 11
922.5718288184264
 21
-779.7574706811972
 31
0.0
  0
LINE
  5
1EB
  8
PREDEFINITO
 10
922.5718288184264
 20
-779.7574706811972
 30
0.0
 11
922.5718288184264
 21
-785.7574706811972
 31
0.0
  0
LINE
  5
1EC
  8
PREDEFINITO
 10
922.5718288184264
 20
-785.7574706811972
 30
0.0
 11
928.5718288184264
 21
-785.7574706811972
 31
0.0
  0
LINE
  5
1ED
  8
PREDEFINITO
 10
928.5718288184264
 20
-785.7574706811972
 30
0.0
 11
928.5718288184264
 21
-779.7574706811972
 31
0.0
  0
LINE
  5
1EE
  8
PREDEFINITO
 10
928.5718288184264
 20
-779.7574706811972
 30
0.0
 11
934.5718288184264
 21
-779.7574706811972
 31
0.0
  0
LINE
  5
1EF
  8
PREDEFINITO
 10
934.5718288184264
 20
-779.7574706811972
 30
0.0
 11
934.5718288184264
 21
-785.7574706811972
 31
0.0
  0
LINE
  5
1F0
  8
PREDEFINITO
 10
934.5718288184264
 20
-785.7574706811972
 30
0.0
 11
946.5718288184264
 21
-785.7574706811972
 31
0.0
  0
LINE
  5
1F1
  8
PREDEFINITO
 10
946.5718288184264
 20
-785.7574706811972
 30
0.0
 11
946.5718288184264
 21
-779.7574706811972
 31
0.0
  0
LINE
  5
1F2
  8
PREDEFINITO
 10
946.5718288184264
 20
-779.7574706811972
 30
0.0
 11
958.5718288184264
 21
-779.7574706811972
 31
0.0
  0
LINE
  5
1F3
  8
PREDEFINITO
 10
958.5718288184264
 20
-779.7574706811972
 30
0.0
 11
958.5718288184264
 21
-785.7574706811972
 31
0.0
  0
LINE
  5
1F4
  8
PREDEFINITO
 10
958.5718288184264
 20
-785.7574706811972
 30
0.0
 11
970.5718288184264
 21
-785.7574706811972
 31
0.0
  0
LINE
  5
1F5
  8
PREDEFINITO
 10
970.5718288184264
 20
-785.7574706811972
 30
0.0
 11
970.5718288184264
 21
-779.7574706811972
 31
0.0
  0
LINE
  5
1F6
  8
PREDEFINITO
 10
970.5718288184264
 20
-779.7574706811972
 30
0.0
 11
982.5718288184264
 21
-779.7574706811972
 31
0.0
  0
LINE
  5
1F7
  8
PREDEFINITO
 10
982.5718288184264
 20
-779.7574706811972
 30
0.0
 11
982.5718288184264
 21
-785.7574706811972
 31
0.0
  0
LINE
  5
1F8
  8
PREDEFINITO
 10
982.5718288184264
 20
-785.7574706811972
 30
0.0
 11
994.5718288184264
 21
-785.7574706811972
 31
0.0
  0
LINE
  5
1F9
  8
PREDEFINITO
 10
994.5718288184264
 20
-785.7574706811972
 30
0.0
 11
994.5718288184264
 21
-779.7574706811972
 31
0.0
  0
LINE
  5
1FA
  8
PREDEFINITO
 10
994.5718288184264
 20
-779.7574706811972
 30
0.0
 11
1006.571828818426
 21
-779.7574706811972
 31
0.0
  0
LINE
  5
1FB
  8
PREDEFINITO
 10
1006.571828818426
 20
-779.7574706811972
 30
0.0
 11
1006.571828818426
 21
-785.7574706811972
 31
0.0
  0
LINE
  5
1FC
  8
PREDEFINITO
 10
1006.571828818426
 20
-785.7574706811972
 30
0.0
 11
1196.651828818405
 21
-785.7574706811972
 31
0.0
  0
LINE
  5
1FD
  8
PREDEFINITO
 10
1196.651828818405
 20
-785.7574706811972
 30
0.0
 11
1196.651828818405
 21
-779.7574706811972
 31
0.0
  0
LINE
  5
1FE
  8
PREDEFINITO
 10
1196.651828818405
 20
-779.7574706811972
 30
0.0
 11
1208.651828818405
 21
-779.7574706811972
 31
0.0
  0
LINE
  5
1FF
  8
PREDEFINITO
 10
1208.651828818405
 20
-779.7574706811972
 30
0.0
 11
1208.651828818405
 21
-785.7574706811972
 31
0.0
  0
LINE
  5
200
  8
PREDEFINITO
 10
1208.651828818405
 20
-785.7574706811972
 30
0.0
 11
1220.651828818405
 21
-785.7574706811972
 31
0.0
  0
LINE
  5
201
  8
PREDEFINITO
 10
1220.651828818405
 20
-785.7574706811972
 30
0.0
 11
1220.651828818405
 21
-779.7574706811972
 31
0.0
  0
LINE
  5
202
  8
PREDEFINITO
 10
1220.651828818405
 20
-779.7574706811972
 30
0.0
 11
1232.651828818405
 21
-779.7574706811972
 31
0.0
  0
LINE
  5
203
  8
PREDEFINITO
 10
1232.651828818405
 20
-779.7574706811972
 30
0.0
 11
1232.651828818405
 21
-785.7574706811972
 31
0.0
  0
LINE
  5
204
  8
PREDEFINITO
 10
1232.651828818405
 20
-785.7574706811972
 30
0.0
 11
1244.651828818405
 21
-785.7574706811972
 31
0.0
  0
LINE
  5
205
  8
PREDEFINITO
 10
1244.651828818405
 20
-785.7574706811972
 30
0.0
 11
1244.651828818405
 21
-779.7574706811972
 31
0.0
  0
LINE
  5
206
  8
PREDEFINITO
 10
1244.651828818405
 20
-779.7574706811972
 30
0.0
 11
1256.651828818405
 21
-779.7574706811972
 31
0.0
  0
LINE
  5
207
  8
PREDEFINITO
 10
1256.651828818405
 20
-779.7574706811972
 30
0.0
 11
1256.651828818405
 21
-785.7574706811972
 31
0.0
  0
LINE
  5
208
  8
PREDEFINITO
 10
1256.651828818405
 20
-785.7574706811972
 30
0.0
 11
1268.651828818405
 21
-785.7574706811972
 31
0.0
  0
LINE
  5
209
  8
PREDEFINITO
 10
1268.651828818405
 20
-785.7574706811972
 30
0.0
 11
1268.651828818405
 21
-779.7574706811972
 31
0.0
  0
LINE
  5
20A
  8
PREDEFINITO
 10
1268.651828818405
 20
-779.7574706811972
 30
0.0
 11
1274.651828818405
 21
-779.7574706811972
 31
0.0
  0
LINE
  5
20B
  8
PREDEFINITO
 10
1274.651828818405
 20
-779.7574706811972
 30
0.0
 11
1274.651828818405
 21
-785.7574706811972
 31
0.0
  0
LINE
  5
20C
  8
PREDEFINITO
 10
1274.651828818405
 20
-785.7574706811972
 30
0.0
 11
1280.651828818405
 21
-785.7574706811972
 31
0.0
  0
LINE
  5
20D
  8
PREDEFINITO
 10
1280.651828818405
 20
-785.7574706811972
 30
0.0
 11
1280.651828818405
 21
-779.7574706811972
 31
0.0
  0
LINE
  5
20E
  8
PREDEFINITO
 10
1280.651828818405
 20
-779.7574706811972
 30
0.0
 11
1286.651828818405
 21
-779.7574706811972
 31
0.0
  0
LINE
  5
20F
  8
PREDEFINITO
 10
1286.651828818405
 20
-779.7574706811972
 30
0.0
 11
1286.651828818405
 21
-785.7574706811972
 31
0.0
  0
LINE
  5
210
  8
PREDEFINITO
 10
1286.651828818405
 20
-785.7574706811972
 30
0.0
 11
1292.651828818405
 21
-785.7574706811972
 31
0.0
  0
LINE
  5
211
  8
PREDEFINITO
 10
1292.651828818405
 20
-785.7574706811972
 30
0.0
 11
1292.651828818405
 21
-791.7574706811972
 31
0.0
  0
LINE
  5
212
  8
PREDEFINITO
 10
1292.651828818405
 20
-791.7574706811972
 30
0.0
 11
1298.651828818405
 21
-791.7574706811972
 31
0.0
  0
LINE
  5
213
  8
PREDEFINITO
 10
1298.651828818405
 20
-791.7574706811972
 30
0.0
 11
1298.651828818405
 21
-797.7574706811972
 31
0.0
  0
LINE
  5
214
  8
PREDEFINITO
 10
1298.651828818405
 20
-797.7574706811972
 30
0.0
 11
1292.651828818405
 21
-797.7574706811972
 31
0.0
  0
LINE
  5
215
  8
PREDEFINITO
 10
1292.651828818405
 20
-797.7574706811972
 30
0.0
 11
1292.651828818405
 21
-809.7574706811972
 31
0.0
  0
LINE
  5
216
  8
PREDEFINITO
 10
1292.651828818405
 20
-809.7574706811972
 30
0.0
 11
1298.651828818405
 21
-809.7574706811972
 31
0.0
  0
LINE
  5
217
  8
TUBBBI
 10
1258.651828818405
 20
-828.0798936250396
 30
0.0
 11
1258.651828818405
 21
-840.0798936250396
 31
0.0
  0
LINE
  5
218
  8
TUBBBI
 10
1258.651828818405
 20
-840.0798936250396
 30
0.0
 11
1252.651828818405
 21
-840.0798936250396
 31
0.0
  0
LINE
  5
219
  8
TUBBBI
 10
1252.651828818405
 20
-840.0798936250396
 30
0.0
 11
1252.651828818405
 21
-828.0798936250396
 31
0.0
  0
LINE
  5
21A
  8
TUBBBI
 10
1252.651828818405
 20
-828.0798936250396
 30
0.0
 11
1258.651828818405
 21
-828.0798936250396
 31
0.0
  0
LINE
  5
21B
  8
TUBBBI
 10
1258.651828818405
 20
-797.6686821531187
 30
0.0
 11
1258.651828818405
 21
-809.6686821531187
 31
0.0
  0
LINE
  5
21C
  8
TUBBBI
 10
1258.651828818405
 20
-809.6686821531187
 30
0.0
 11
1252.651828818405
 21
-809.6686821531187
 31
0.0
  0
LINE
  5
21D
  8
TUBBBI
 10
1252.651828818405
 20
-809.6686821531187
 30
0.0
 11
1252.651828818405
 21
-797.6686821531187
 31
0.0
  0
LINE
  5
21E
  8
TUBBBI
 10
1252.651828818405
 20
-797.6686821531187
 30
0.0
 11
1258.651828818405
 21
-797.6686821531187
 31
0.0
  0
LINE
  5
21F
  8
TUBBBI
 10
944.5718288184264
 20
-797.6686821531187
 30
0.0
 11
944.5718288184264
 21
-809.6686821531187
 31
0.0
  0
LINE
  5
220
  8
TUBBBI
 10
944.5718288184264
 20
-809.6686821531187
 30
0.0
 11
950.5718288184264
 21
-809.6686821531187
 31
0.0
  0
LINE
  5
221
  8
TUBBBI
 10
950.5718288184264
 20
-809.6686821531187
 30
0.0
 11
950.5718288184264
 21
-797.6686821531187
 31
0.0
  0
LINE
  5
222
  8
TUBBBI
 10
950.5718288184264
 20
-797.6686821531187
 30
0.0
 11
944.5718288184264
 21
-797.6686821531187
 31
0.0
  0
LINE
  5
223
  8
TUBBBI
 10
944.5718288184264
 20
-828.0798936250396
 30
0.0
 11
944.5718288184264
 21
-840.0798936250396
 31
0.0
  0
LINE
  5
224
  8
TUBBBI
 10
944.5718288184264
 20
-840.0798936250396
 30
0.0
 11
950.5718288184264
 21
-840.0798936250396
 31
0.0
  0
LINE
  5
225
  8
TUBBBI
 10
950.5718288184264
 20
-840.0798936250396
 30
0.0
 11
950.5718288184264
 21
-828.0798936250396
 31
0.0
  0
LINE
  5
226
  8
TUBBBI
 10
950.5718288184264
 20
-828.0798936250396
 30
0.0
 11
944.5718288184264
 21
-828.0798936250396
 31
0.0
  0
LINE
  5
227
  8
TUBBBI
 10
943.9821704187862
 20
-718.480805888862
 30
0.0
 11
943.9821704187862
 21
-706.480805888862
 31
0.0
  0
LINE
  5
228
  8
TUBBBI
 10
943.9821704187862
 20
-706.480805888862
 30
0.0
 11
949.9821704187862
 21
-706.480805888862
 31
0.0
  0
LINE
  5
229
  8
TUBBBI
 10
949.9821704187862
 20
-706.480805888862
 30
0.0
 11
949.9821704187862
 21
-718.480805888862
 31
0.0
  0
LINE
  5
22A
  8
TUBBBI
 10
949.9821704187862
 20
-718.480805888862
 30
0.0
 11
943.9821704187862
 21
-718.480805888862
 31
0.0
  0
LINE
  5
22B
  8
TUBBBI
 10
943.9821704187862
 20
-748.892017360783
 30
0.0
 11
943.9821704187862
 21
-736.892017360783
 31
0.0
  0
LINE
  5
22C
  8
TUBBBI
 10
943.9821704187862
 20
-736.892017360783
 30
0.0
 11
949.9821704187862
 21
-736.892017360783
 31
0.0
  0
LINE
  5
22D
  8
TUBBBI
 10
949.9821704187862
 20
-736.892017360783
 30
0.0
 11
949.9821704187862
 21
-748.892017360783
 31
0.0
  0
LINE
  5
22E
  8
TUBBBI
 10
949.9821704187862
 20
-748.892017360783
 30
0.0
 11
943.9821704187862
 21
-748.892017360783
 31
0.0
  0
LINE
  5
22F
  8
TUBBBI
 10
1258.062170418765
 20
-748.892017360783
 30
0.0
 11
1258.062170418765
 21
-736.892017360783
 31
0.0
  0
LINE
  5
230
  8
TUBBBI
 10
1258.062170418765
 20
-736.892017360783
 30
0.0
 11
1252.062170418765
 21
-736.892017360783
 31
0.0
  0
LINE
  5
231
  8
TUBBBI
 10
1252.062170418765
 20
-736.892017360783
 30
0.0
 11
1252.062170418765
 21
-748.892017360783
 31
0.0
  0
LINE
  5
232
  8
TUBBBI
 10
1252.062170418765
 20
-748.892017360783
 30
0.0
 11
1258.062170418765
 21
-748.892017360783
 31
0.0
  0
LINE
  5
233
  8
TUBBBI
 10
1258.062170418765
 20
-718.480805888862
 30
0.0
 11
1258.062170418765
 21
-706.480805888862
 31
0.0
  0
LINE
  5
234
  8
TUBBBI
 10
1258.062170418765
 20
-706.480805888862
 30
0.0
 11
1252.062170418765
 21
-706.480805888862
 31
0.0
  0
LINE
  5
235
  8
TUBBBI
 10
1252.062170418765
 20
-706.480805888862
 30
0.0
 11
1252.062170418765
 21
-718.480805888862
 31
0.0
  0
LINE
  5
236
  8
TUBBBI
 10
1252.062170418765
 20
-718.480805888862
 30
0.0
 11
1258.062170418765
 21
-718.480805888862
 31
0.0
  0
LINE
  5
237
  8
PREDEFINITO
 10
1298.062170418765
 20
-736.8032288327045
 30
0.0
 11
1298.062170418765
 21
-726.8032288327045
 31
0.0
  0
LINE
  5
238
  8
PREDEFINITO
 10
1298.062170418765
 20
-726.8032288327045
 30
0.0
 11
1298.062170418765
 21
-702.3032288327045
 31
0.0
  0
LINE
  5
239
  8
PREDEFINITO
 10
1298.062170418765
 20
-702.3032288327045
 30
0.0
 11
1298.062170418765
 21
-696.3032288327045
 31
0.0
  0
LINE
  5
23A
  8
PREDEFINITO
 10
1298.062170418765
 20
-696.3032288327045
 30
0.0
 11
1292.062170418765
 21
-696.3032288327045
 31
0.0
  0
LINE
  5
23B
  8
PREDEFINITO
 10
1292.062170418765
 20
-696.3032288327045
 30
0.0
 11
1292.062170418765
 21
-690.3032288327045
 31
0.0
  0
LINE
  5
23C
  8
PREDEFINITO
 10
1292.062170418765
 20
-690.3032288327045
 30
0.0
 11
1292.062170418765
 21
-684.3032288327045
 31
0.0
  0
LINE
  5
23D
  8
PREDEFINITO
 10
1292.062170418765
 20
-684.3032288327045
 30
0.0
 11
1298.062170418765
 21
-684.3032288327045
 31
0.0
  0
LINE
  5
23E
  8
PREDEFINITO
 10
1298.062170418765
 20
-684.3032288327045
 30
0.0
 11
1298.062170418765
 21
-678.3032288327045
 31
0.0
  0
LINE
  5
23F
  8
PREDEFINITO
 10
1298.062170418765
 20
-678.3032288327045
 30
0.0
 11
1292.062170418765
 21
-678.3032288327045
 31
0.0
  0
LINE
  5
240
  8
PREDEFINITO
 10
1292.062170418765
 20
-678.3032288327045
 30
0.0
 11
1292.062170418765
 21
-672.3032288327045
 31
0.0
  0
LINE
  5
241
  8
PREDEFINITO
 10
1292.062170418765
 20
-672.3032288327045
 30
0.0
 11
1286.062170418765
 21
-672.3032288327045
 31
0.0
  0
LINE
  5
242
  8
PREDEFINITO
 10
1286.062170418765
 20
-672.3032288327045
 30
0.0
 11
1280.062170418765
 21
-672.3032288327045
 31
0.0
  0
LINE
  5
243
  8
PREDEFINITO
 10
1280.062170418765
 20
-672.3032288327045
 30
0.0
 11
1280.062170418765
 21
-678.3032288327045
 31
0.0
  0
LINE
  5
244
  8
PREDEFINITO
 10
1280.062170418765
 20
-678.3032288327045
 30
0.0
 11
1274.062170418765
 21
-678.3032288327045
 31
0.0
  0
LINE
  5
245
  8
PREDEFINITO
 10
1274.062170418765
 20
-678.3032288327045
 30
0.0
 11
1274.062170418765
 21
-672.3032288327045
 31
0.0
  0
LINE
  5
246
  8
PREDEFINITO
 10
1274.062170418765
 20
-672.3032288327045
 30
0.0
 11
1268.062170418765
 21
-672.3032288327045
 31
0.0
  0
LINE
  5
247
  8
PREDEFINITO
 10
1268.062170418765
 20
-672.3032288327045
 30
0.0
 11
1268.062170418765
 21
-678.3032288327045
 31
0.0
  0
LINE
  5
248
  8
PREDEFINITO
 10
1268.062170418765
 20
-678.3032288327045
 30
0.0
 11
1256.062170418765
 21
-678.3032288327045
 31
0.0
  0
LINE
  5
249
  8
PREDEFINITO
 10
1256.062170418765
 20
-678.3032288327045
 30
0.0
 11
1256.062170418765
 21
-672.3032288327045
 31
0.0
  0
LINE
  5
24A
  8
PREDEFINITO
 10
1256.062170418765
 20
-672.3032288327045
 30
0.0
 11
1244.062170418765
 21
-672.3032288327045
 31
0.0
  0
LINE
  5
24B
  8
PREDEFINITO
 10
1244.062170418765
 20
-672.3032288327045
 30
0.0
 11
1244.062170418765
 21
-678.3032288327045
 31
0.0
  0
LINE
  5
24C
  8
PREDEFINITO
 10
1244.062170418765
 20
-678.3032288327045
 30
0.0
 11
1232.062170418765
 21
-678.3032288327045
 31
0.0
  0
LINE
  5
24D
  8
PREDEFINITO
 10
1232.062170418765
 20
-678.3032288327045
 30
0.0
 11
1232.062170418765
 21
-672.3032288327045
 31
0.0
  0
LINE
  5
24E
  8
PREDEFINITO
 10
1232.062170418765
 20
-672.3032288327045
 30
0.0
 11
1220.062170418765
 21
-672.3032288327045
 31
0.0
  0
LINE
  5
24F
  8
PREDEFINITO
 10
1220.062170418765
 20
-672.3032288327045
 30
0.0
 11
1220.062170418765
 21
-678.3032288327045
 31
0.0
  0
LINE
  5
250
  8
PREDEFINITO
 10
1220.062170418765
 20
-678.3032288327045
 30
0.0
 11
1208.062170418765
 21
-678.3032288327045
 31
0.0
  0
LINE
  5
251
  8
PREDEFINITO
 10
1208.062170418765
 20
-678.3032288327045
 30
0.0
 11
1208.062170418765
 21
-672.3032288327045
 31
0.0
  0
LINE
  5
252
  8
PREDEFINITO
 10
1208.062170418765
 20
-672.3032288327045
 30
0.0
 11
1196.062170418765
 21
-672.3032288327045
 31
0.0
  0
LINE
  5
253
  8
PREDEFINITO
 10
1196.062170418765
 20
-672.3032288327045
 30
0.0
 11
1196.062170418765
 21
-678.3032288327045
 31
0.0
  0
LINE
  5
254
  8
PREDEFINITO
 10
1196.062170418765
 20
-678.3032288327045
 30
0.0
 11
1005.982170418786
 21
-678.3032288327045
 31
0.0
  0
LINE
  5
255
  8
PREDEFINITO
 10
1005.982170418786
 20
-678.3032288327045
 30
0.0
 11
1005.982170418786
 21
-672.3032288327045
 31
0.0
  0
LINE
  5
256
  8
PREDEFINITO
 10
1005.982170418786
 20
-672.3032288327045
 30
0.0
 11
993.9821704187862
 21
-672.3032288327045
 31
0.0
  0
LINE
  5
257
  8
PREDEFINITO
 10
993.9821704187862
 20
-672.3032288327045
 30
0.0
 11
993.9821704187862
 21
-678.3032288327045
 31
0.0
  0
LINE
  5
258
  8
PREDEFINITO
 10
993.9821704187862
 20
-678.3032288327045
 30
0.0
 11
981.9821704187862
 21
-678.3032288327045
 31
0.0
  0
LINE
  5
259
  8
PREDEFINITO
 10
981.9821704187862
 20
-678.3032288327045
 30
0.0
 11
981.9821704187862
 21
-672.3032288327045
 31
0.0
  0
LINE
  5
25A
  8
PREDEFINITO
 10
981.9821704187862
 20
-672.3032288327045
 30
0.0
 11
969.9821704187862
 21
-672.3032288327045
 31
0.0
  0
LINE
  5
25B
  8
PREDEFINITO
 10
969.9821704187862
 20
-672.3032288327045
 30
0.0
 11
969.9821704187862
 21
-678.3032288327045
 31
0.0
  0
LINE
  5
25C
  8
PREDEFINITO
 10
969.9821704187862
 20
-678.3032288327045
 30
0.0
 11
957.9821704187862
 21
-678.3032288327045
 31
0.0
  0
LINE
  5
25D
  8
PREDEFINITO
 10
957.9821704187862
 20
-678.3032288327045
 30
0.0
 11
957.9821704187862
 21
-672.3032288327045
 31
0.0
  0
LINE
  5
25E
  8
PREDEFINITO
 10
957.9821704187862
 20
-672.3032288327045
 30
0.0
 11
945.9821704187862
 21
-672.3032288327045
 31
0.0
  0
LINE
  5
25F
  8
PREDEFINITO
 10
945.9821704187862
 20
-672.3032288327045
 30
0.0
 11
945.9821704187862
 21
-678.3032288327045
 31
0.0
  0
LINE
  5
260
  8
PREDEFINITO
 10
945.9821704187862
 20
-678.3032288327045
 30
0.0
 11
933.9821704187862
 21
-678.3032288327045
 31
0.0
  0
LINE
  5
261
  8
PREDEFINITO
 10
933.9821704187862
 20
-678.3032288327045
 30
0.0
 11
933.9821704187862
 21
-672.3032288327045
 31
0.0
  0
LINE
  5
262
  8
PREDEFINITO
 10
933.9821704187862
 20
-672.3032288327045
 30
0.0
 11
927.9821704187862
 21
-672.3032288327045
 31
0.0
  0
LINE
  5
263
  8
PREDEFINITO
 10
927.9821704187862
 20
-672.3032288327045
 30
0.0
 11
927.9821704187862
 21
-678.3032288327045
 31
0.0
  0
LINE
  5
264
  8
PREDEFINITO
 10
927.9821704187862
 20
-678.3032288327045
 30
0.0
 11
921.9821704187862
 21
-678.3032288327045
 31
0.0
  0
LINE
  5
265
  8
PREDEFINITO
 10
921.9821704187862
 20
-678.3032288327045
 30
0.0
 11
921.9821704187862
 21
-672.3032288327045
 31
0.0
  0
LINE
  5
266
  8
PREDEFINITO
 10
921.9821704187862
 20
-672.3032288327045
 30
0.0
 11
915.9821704187862
 21
-672.3032288327045
 31
0.0
  0
LINE
  5
267
  8
PREDEFINITO
 10
915.9821704187862
 20
-672.3032288327045
 30
0.0
 11
909.9821704187862
 21
-672.3032288327045
 31
0.0
  0
LINE
  5
268
  8
PREDEFINITO
 10
909.9821704187862
 20
-672.3032288327045
 30
0.0
 11
909.9821704187862
 21
-678.3032288327045
 31
0.0
  0
LINE
  5
269
  8
PREDEFINITO
 10
909.9821704187862
 20
-678.3032288327045
 30
0.0
 11
903.9821704187862
 21
-678.3032288327045
 31
0.0
  0
LINE
  5
26A
  8
PREDEFINITO
 10
903.9821704187862
 20
-678.3032288327045
 30
0.0
 11
903.9821704187862
 21
-684.3032288327045
 31
0.0
  0
LINE
  5
26B
  8
PREDEFINITO
 10
903.9821704187862
 20
-684.3032288327045
 30
0.0
 11
909.9821704187862
 21
-684.3032288327045
 31
0.0
  0
LINE
  5
26C
  8
PREDEFINITO
 10
909.9821704187862
 20
-684.3032288327045
 30
0.0
 11
909.9821704187862
 21
-690.3032288327045
 31
0.0
  0
LINE
  5
26D
  8
PREDEFINITO
 10
909.9821704187862
 20
-690.3032288327045
 30
0.0
 11
909.9821704187862
 21
-696.3032288327045
 31
0.0
  0
LINE
  5
26E
  8
PREDEFINITO
 10
909.9821704187862
 20
-696.3032288327045
 30
0.0
 11
903.9821704187862
 21
-696.3032288327045
 31
0.0
  0
LINE
  5
26F
  8
PREDEFINITO
 10
903.9821704187862
 20
-696.3032288327045
 30
0.0
 11
903.9821704187862
 21
-702.3032288327045
 31
0.0
  0
LINE
  5
270
  8
PREDEFINITO
 10
903.9821704187862
 20
-702.3032288327045
 30
0.0
 11
903.9821704187862
 21
-726.8032288327045
 31
0.0
  0
LINE
  5
271
  8
PREDEFINITO
 10
903.9821704187862
 20
-726.8032288327045
 30
0.0
 11
903.9821704187862
 21
-736.8032288327045
 31
0.0
  0
LINE
  5
272
  8
PREDEFINITO
 10
903.9821704187862
 20
-736.8032288327045
 30
0.0
 11
909.9821704187862
 21
-736.8032288327045
 31
0.0
  0
LINE
  5
273
  8
PREDEFINITO
 10
909.9821704187862
 20
-736.8032288327045
 30
0.0
 11
909.9821704187862
 21
-748.8032288327045
 31
0.0
  0
LINE
  5
274
  8
PREDEFINITO
 10
909.9821704187862
 20
-748.8032288327045
 30
0.0
 11
903.9821704187862
 21
-748.8032288327045
 31
0.0
  0
LINE
  5
275
  8
PREDEFINITO
 10
903.9821704187862
 20
-748.8032288327045
 30
0.0
 11
903.9821704187862
 21
-754.8032288327045
 31
0.0
  0
LINE
  5
276
  8
PREDEFINITO
 10
903.9821704187862
 20
-754.8032288327045
 30
0.0
 11
909.9821704187862
 21
-754.8032288327045
 31
0.0
  0
LINE
  5
277
  8
PREDEFINITO
 10
909.9821704187862
 20
-754.8032288327045
 30
0.0
 11
909.9821704187862
 21
-760.8032288327045
 31
0.0
  0
LINE
  5
278
  8
PREDEFINITO
 10
909.9821704187862
 20
-760.8032288327045
 30
0.0
 11
915.9821704187862
 21
-760.8032288327045
 31
0.0
  0
LINE
  5
279
  8
PREDEFINITO
 10
915.9821704187862
 20
-760.8032288327045
 30
0.0
 11
915.9821704187862
 21
-766.8032288327045
 31
0.0
  0
LINE
  5
27A
  8
PREDEFINITO
 10
915.9821704187862
 20
-766.8032288327045
 30
0.0
 11
921.9821704187862
 21
-766.8032288327045
 31
0.0
  0
LINE
  5
27B
  8
PREDEFINITO
 10
921.9821704187862
 20
-766.8032288327045
 30
0.0
 11
921.9821704187862
 21
-760.8032288327045
 31
0.0
  0
LINE
  5
27C
  8
PREDEFINITO
 10
921.9821704187862
 20
-760.8032288327045
 30
0.0
 11
927.9821704187862
 21
-760.8032288327045
 31
0.0
  0
LINE
  5
27D
  8
PREDEFINITO
 10
927.9821704187862
 20
-760.8032288327045
 30
0.0
 11
927.9821704187862
 21
-766.8032288327045
 31
0.0
  0
LINE
  5
27E
  8
PREDEFINITO
 10
927.9821704187862
 20
-766.8032288327045
 30
0.0
 11
933.9821704187862
 21
-766.8032288327045
 31
0.0
  0
LINE
  5
27F
  8
PREDEFINITO
 10
933.9821704187862
 20
-766.8032288327045
 30
0.0
 11
933.9821704187862
 21
-760.8032288327045
 31
0.0
  0
LINE
  5
280
  8
PREDEFINITO
 10
933.9821704187862
 20
-760.8032288327045
 30
0.0
 11
945.9821704187862
 21
-760.8032288327045
 31
0.0
  0
LINE
  5
281
  8
PREDEFINITO
 10
945.9821704187862
 20
-760.8032288327045
 30
0.0
 11
945.9821704187862
 21
-766.8032288327045
 31
0.0
  0
LINE
  5
282
  8
PREDEFINITO
 10
945.9821704187862
 20
-766.8032288327045
 30
0.0
 11
957.9821704187862
 21
-766.8032288327045
 31
0.0
  0
LINE
  5
283
  8
PREDEFINITO
 10
957.9821704187862
 20
-766.8032288327045
 30
0.0
 11
957.9821704187862
 21
-760.8032288327045
 31
0.0
  0
LINE
  5
284
  8
PREDEFINITO
 10
957.9821704187862
 20
-760.8032288327045
 30
0.0
 11
969.9821704187862
 21
-760.8032288327045
 31
0.0
  0
LINE
  5
285
  8
PREDEFINITO
 10
969.9821704187862
 20
-760.8032288327045
 30
0.0
 11
969.9821704187862
 21
-766.8032288327045
 31
0.0
  0
LINE
  5
286
  8
PREDEFINITO
 10
969.9821704187862
 20
-766.8032288327045
 30
0.0
 11
981.9821704187862
 21
-766.8032288327045
 31
0.0
  0
LINE
  5
287
  8
PREDEFINITO
 10
981.9821704187862
 20
-766.8032288327045
 30
0.0
 11
981.9821704187862
 21
-760.8032288327045
 31
0.0
  0
LINE
  5
288
  8
PREDEFINITO
 10
981.9821704187862
 20
-760.8032288327045
 30
0.0
 11
993.9821704187862
 21
-760.8032288327045
 31
0.0
  0
LINE
  5
289
  8
PREDEFINITO
 10
993.9821704187862
 20
-760.8032288327045
 30
0.0
 11
993.9821704187862
 21
-766.8032288327045
 31
0.0
  0
LINE
  5
28A
  8
PREDEFINITO
 10
993.9821704187862
 20
-766.8032288327045
 30
0.0
 11
1005.982170418786
 21
-766.8032288327045
 31
0.0
  0
LINE
  5
28B
  8
PREDEFINITO
 10
1005.982170418786
 20
-766.8032288327045
 30
0.0
 11
1005.982170418786
 21
-760.8032288327045
 31
0.0
  0
LINE
  5
28C
  8
PREDEFINITO
 10
1005.982170418786
 20
-760.8032288327045
 30
0.0
 11
1196.062170418765
 21
-760.8032288327045
 31
0.0
  0
LINE
  5
28D
  8
PREDEFINITO
 10
1196.062170418765
 20
-760.8032288327045
 30
0.0
 11
1196.062170418765
 21
-766.8032288327045
 31
0.0
  0
LINE
  5
28E
  8
PREDEFINITO
 10
1196.062170418765
 20
-766.8032288327045
 30
0.0
 11
1208.062170418765
 21
-766.8032288327045
 31
0.0
  0
LINE
  5
28F
  8
PREDEFINITO
 10
1208.062170418765
 20
-766.8032288327045
 30
0.0
 11
1208.062170418765
 21
-760.8032288327045
 31
0.0
  0
LINE
  5
290
  8
PREDEFINITO
 10
1208.062170418765
 20
-760.8032288327045
 30
0.0
 11
1220.062170418765
 21
-760.8032288327045
 31
0.0
  0
LINE
  5
291
  8
PREDEFINITO
 10
1220.062170418765
 20
-760.8032288327045
 30
0.0
 11
1220.062170418765
 21
-766.8032288327045
 31
0.0
  0
LINE
  5
292
  8
PREDEFINITO
 10
1220.062170418765
 20
-766.8032288327045
 30
0.0
 11
1232.062170418765
 21
-766.8032288327045
 31
0.0
  0
LINE
  5
293
  8
PREDEFINITO
 10
1232.062170418765
 20
-766.8032288327045
 30
0.0
 11
1232.062170418765
 21
-760.8032288327045
 31
0.0
  0
LINE
  5
294
  8
PREDEFINITO
 10
1232.062170418765
 20
-760.8032288327045
 30
0.0
 11
1244.062170418765
 21
-760.8032288327045
 31
0.0
  0
LINE
  5
295
  8
PREDEFINITO
 10
1244.062170418765
 20
-760.8032288327045
 30
0.0
 11
1244.062170418765
 21
-766.8032288327045
 31
0.0
  0
LINE
  5
296
  8
PREDEFINITO
 10
1244.062170418765
 20
-766.8032288327045
 30
0.0
 11
1256.062170418765
 21
-766.8032288327045
 31
0.0
  0
LINE
  5
297
  8
PREDEFINITO
 10
1256.062170418765
 20
-766.8032288327045
 30
0.0
 11
1256.062170418765
 21
-760.8032288327045
 31
0.0
  0
LINE
  5
298
  8
PREDEFINITO
 10
1256.062170418765
 20
-760.8032288327045
 30
0.0
 11
1268.062170418765
 21
-760.8032288327045
 31
0.0
  0
LINE
  5
299
  8
PREDEFINITO
 10
1268.062170418765
 20
-760.8032288327045
 30
0.0
 11
1268.062170418765
 21
-766.8032288327045
 31
0.0
  0
LINE
  5
29A
  8
PREDEFINITO
 10
1268.062170418765
 20
-766.8032288327045
 30
0.0
 11
1274.062170418765
 21
-766.8032288327045
 31
0.0
  0
LINE
  5
29B
  8
PREDEFINITO
 10
1274.062170418765
 20
-766.8032288327045
 30
0.0
 11
1274.062170418765
 21
-760.8032288327045
 31
0.0
  0
LINE
  5
29C
  8
PREDEFINITO
 10
1274.062170418765
 20
-760.8032288327045
 30
0.0
 11
1280.062170418765
 21
-760.8032288327045
 31
0.0
  0
LINE
  5
29D
  8
PREDEFINITO
 10
1280.062170418765
 20
-760.8032288327045
 30
0.0
 11
1280.062170418765
 21
-766.8032288327045
 31
0.0
  0
LINE
  5
29E
  8
PREDEFINITO
 10
1280.062170418765
 20
-766.8032288327045
 30
0.0
 11
1286.062170418765
 21
-766.8032288327045
 31
0.0
  0
LINE
  5
29F
  8
PREDEFINITO
 10
1286.062170418765
 20
-766.8032288327045
 30
0.0
 11
1286.062170418765
 21
-760.8032288327045
 31
0.0
  0
LINE
  5
2A0
  8
PREDEFINITO
 10
1286.062170418765
 20
-760.8032288327045
 30
0.0
 11
1292.062170418765
 21
-760.8032288327045
 31
0.0
  0
LINE
  5
2A1
  8
PREDEFINITO
 10
1292.062170418765
 20
-760.8032288327045
 30
0.0
 11
1292.062170418765
 21
-754.8032288327045
 31
0.0
  0
LINE
  5
2A2
  8
PREDEFINITO
 10
1292.062170418765
 20
-754.8032288327045
 30
0.0
 11
1298.062170418765
 21
-754.8032288327045
 31
0.0
  0
LINE
  5
2A3
  8
PREDEFINITO
 10
1298.062170418765
 20
-754.8032288327045
 30
0.0
 11
1298.062170418765
 21
-748.8032288327045
 31
0.0
  0
LINE
  5
2A4
  8
PREDEFINITO
 10
1298.062170418765
 20
-748.8032288327045
 30
0.0
 11
1292.062170418765
 21
-748.8032288327045
 31
0.0
  0
LINE
  5
2A5
  8
PREDEFINITO
 10
1292.062170418765
 20
-748.8032288327045
 30
0.0
 11
1292.062170418765
 21
-736.8032288327045
 31
0.0
  0
LINE
  5
2A6
  8
PREDEFINITO
 10
1292.062170418765
 20
-736.8032288327045
 30
0.0
 11
1298.062170418765
 21
-736.8032288327045
 31
0.0
  0
LINE
  5
2A7
  8
PREDEFINITO
 10
908.8028536195056
 20
-550.3380035833176
 30
0.0
 11
908.8028536195056
 21
-560.3380035833176
 31
0.0
  0
LINE
  5
2A8
  8
PREDEFINITO
 10
908.8028536195056
 20
-560.3380035833176
 30
0.0
 11
902.8028536195056
 21
-560.3380035833176
 31
0.0
  0
LINE
  5
2A9
  8
PREDEFINITO
 10
902.8028536195056
 20
-560.3380035833176
 30
0.0
 11
902.8028536195056
 21
-572.3380035833176
 31
0.0
  0
LINE
  5
2AA
  8
PREDEFINITO
 10
902.8028536195056
 20
-572.3380035833176
 30
0.0
 11
908.8028536195059
 21
-572.3380035833176
 31
0.0
  0
LINE
  5
2AB
  8
PREDEFINITO
 10
908.8028536195059
 20
-572.3380035833176
 30
0.0
 11
908.8028536195059
 21
-584.3380035833176
 31
0.0
  0
LINE
  5
2AC
  8
PREDEFINITO
 10
908.8028536195059
 20
-584.3380035833176
 30
0.0
 11
902.8028536195059
 21
-584.3380035833176
 31
0.0
  0
LINE
  5
2AD
  8
PREDEFINITO
 10
902.8028536195059
 20
-584.3380035833176
 30
0.0
 11
902.8028536195059
 21
-612.4180035833173
 31
0.0
  0
LINE
  5
2AE
  8
PREDEFINITO
 10
902.8028536195059
 20
-612.4180035833173
 30
0.0
 11
908.8028536195059
 21
-612.4180035833173
 31
0.0
  0
LINE
  5
2AF
  8
PREDEFINITO
 10
908.8028536195059
 20
-612.4180035833173
 30
0.0
 11
908.8028536195059
 21
-624.4180035833173
 31
0.0
  0
LINE
  5
2B0
  8
PREDEFINITO
 10
908.8028536195059
 20
-624.4180035833173
 30
0.0
 11
902.8028536195056
 21
-624.4180035833173
 31
0.0
  0
LINE
  5
2B1
  8
PREDEFINITO
 10
902.8028536195056
 20
-624.4180035833173
 30
0.0
 11
902.8028536195056
 21
-636.4180035833173
 31
0.0
  0
LINE
  5
2B2
  8
PREDEFINITO
 10
902.8028536195056
 20
-636.4180035833173
 30
0.0
 11
908.8028536195056
 21
-636.4180035833173
 31
0.0
  0
LINE
  5
2B3
  8
PREDEFINITO
 10
908.8028536195056
 20
-636.4180035833173
 30
0.0
 11
908.8028536195056
 21
-648.4180035833173
 31
0.0
  0
LINE
  5
2B4
  8
PREDEFINITO
 10
908.8028536195056
 20
-648.4180035833173
 30
0.0
 11
914.8028536195056
 21
-648.4180035833173
 31
0.0
  0
LINE
  5
2B5
  8
PREDEFINITO
 10
914.8028536195056
 20
-648.4180035833173
 30
0.0
 11
914.8028536195056
 21
-654.4180035833173
 31
0.0
  0
LINE
  5
2B6
  8
PREDEFINITO
 10
914.8028536195056
 20
-654.4180035833173
 30
0.0
 11
920.8028536195056
 21
-654.4180035833173
 31
0.0
  0
LINE
  5
2B7
  8
PREDEFINITO
 10
920.8028536195056
 20
-654.4180035833173
 30
0.0
 11
920.8028536195056
 21
-648.4180035833173
 31
0.0
  0
LINE
  5
2B8
  8
PREDEFINITO
 10
920.8028536195056
 20
-648.4180035833173
 30
0.0
 11
936.8987863995185
 21
-648.4180035833173
 31
0.0
  0
LINE
  5
2B9
  8
PREDEFINITO
 10
936.8987863995185
 20
-648.4180035833173
 30
0.0
 11
936.8987863995185
 21
-654.4180035833173
 31
0.0
  0
LINE
  5
2BA
  8
PREDEFINITO
 10
936.8987863995185
 20
-654.4180035833173
 30
0.0
 11
942.8987863995185
 21
-654.4180035833173
 31
0.0
  0
LINE
  5
2BB
  8
PREDEFINITO
 10
942.8987863995185
 20
-654.4180035833173
 30
0.0
 11
942.8987863995185
 21
-648.4180035833173
 31
0.0
  0
LINE
  5
2BC
  8
PREDEFINITO
 10
942.8987863995185
 20
-648.4180035833173
 30
0.0
 11
948.8987863995185
 21
-648.4180035833173
 31
0.0
  0
LINE
  5
2BD
  8
PREDEFINITO
 10
948.8987863995185
 20
-648.4180035833173
 30
0.0
 11
948.8987863995185
 21
-654.4180035833173
 31
0.0
  0
LINE
  5
2BE
  8
PREDEFINITO
 10
948.8987863995185
 20
-654.4180035833173
 30
0.0
 11
1250.786920839472
 21
-654.4180035833173
 31
0.0
  0
LINE
  5
2BF
  8
PREDEFINITO
 10
1250.786920839472
 20
-654.4180035833173
 30
0.0
 11
1250.786920839472
 21
-648.4180035833173
 31
0.0
  0
LINE
  5
2C0
  8
PREDEFINITO
 10
1250.786920839472
 20
-648.4180035833173
 30
0.0
 11
1256.786920839472
 21
-648.4180035833173
 31
0.0
  0
LINE
  5
2C1
  8
PREDEFINITO
 10
1256.786920839472
 20
-648.4180035833173
 30
0.0
 11
1256.786920839472
 21
-654.4180035833173
 31
0.0
  0
LINE
  5
2C2
  8
PREDEFINITO
 10
1256.786920839472
 20
-654.4180035833173
 30
0.0
 11
1262.786920839472
 21
-654.4180035833173
 31
0.0
  0
LINE
  5
2C3
  8
PREDEFINITO
 10
1262.786920839472
 20
-654.4180035833173
 30
0.0
 11
1262.786920839472
 21
-648.4180035833173
 31
0.0
  0
LINE
  5
2C4
  8
PREDEFINITO
 10
1262.786920839472
 20
-648.4180035833173
 30
0.0
 11
1278.882853619485
 21
-648.4180035833173
 31
0.0
  0
LINE
  5
2C5
  8
PREDEFINITO
 10
1278.882853619485
 20
-648.4180035833173
 30
0.0
 11
1278.882853619485
 21
-654.4180035833173
 31
0.0
  0
LINE
  5
2C6
  8
PREDEFINITO
 10
1278.882853619485
 20
-654.4180035833173
 30
0.0
 11
1284.882853619485
 21
-654.4180035833173
 31
0.0
  0
LINE
  5
2C7
  8
PREDEFINITO
 10
1284.882853619485
 20
-654.4180035833173
 30
0.0
 11
1284.882853619485
 21
-648.4180035833173
 31
0.0
  0
LINE
  5
2C8
  8
PREDEFINITO
 10
1284.882853619485
 20
-648.4180035833173
 30
0.0
 11
1290.882853619485
 21
-648.4180035833173
 31
0.0
  0
LINE
  5
2C9
  8
PREDEFINITO
 10
1290.882853619485
 20
-648.4180035833173
 30
0.0
 11
1290.882853619485
 21
-636.4180035833173
 31
0.0
  0
LINE
  5
2CA
  8
PREDEFINITO
 10
1290.882853619485
 20
-636.4180035833173
 30
0.0
 11
1296.882853619485
 21
-636.4180035833173
 31
0.0
  0
LINE
  5
2CB
  8
PREDEFINITO
 10
1296.882853619485
 20
-636.4180035833173
 30
0.0
 11
1296.882853619485
 21
-624.4180035833173
 31
0.0
  0
LINE
  5
2CC
  8
PREDEFINITO
 10
1296.882853619485
 20
-624.4180035833173
 30
0.0
 11
1290.882853619485
 21
-624.4180035833173
 31
0.0
  0
LINE
  5
2CD
  8
PREDEFINITO
 10
1290.882853619485
 20
-624.4180035833173
 30
0.0
 11
1290.882853619485
 21
-612.4180035833173
 31
0.0
  0
LINE
  5
2CE
  8
PREDEFINITO
 10
1290.882853619485
 20
-612.4180035833173
 30
0.0
 11
1296.882853619485
 21
-612.4180035833173
 31
0.0
  0
LINE
  5
2CF
  8
PREDEFINITO
 10
1296.882853619485
 20
-612.4180035833173
 30
0.0
 11
1296.882853619485
 21
-584.3380035833176
 31
0.0
  0
LINE
  5
2D0
  8
PREDEFINITO
 10
1296.882853619485
 20
-584.3380035833176
 30
0.0
 11
1290.882853619485
 21
-584.3380035833176
 31
0.0
  0
LINE
  5
2D1
  8
PREDEFINITO
 10
1290.882853619485
 20
-584.3380035833176
 30
0.0
 11
1290.882853619485
 21
-572.3380035833176
 31
0.0
  0
LINE
  5
2D2
  8
PREDEFINITO
 10
1290.882853619485
 20
-572.3380035833176
 30
0.0
 11
1296.882853619485
 21
-572.3380035833176
 31
0.0
  0
LINE
  5
2D3
  8
PREDEFINITO
 10
1296.882853619485
 20
-572.3380035833176
 30
0.0
 11
1296.882853619485
 21
-560.3380035833176
 31
0.0
  0
LINE
  5
2D4
  8
PREDEFINITO
 10
1296.882853619485
 20
-560.3380035833176
 30
0.0
 11
1290.882853619485
 21
-560.3380035833176
 31
0.0
  0
LINE
  5
2D5
  8
PREDEFINITO
 10
1290.882853619485
 20
-560.3380035833176
 30
0.0
 11
1290.882853619485
 21
-550.3380035833176
 31
0.0
  0
LINE
  5
2D6
  8
PREDEFINITO
 10
1290.882853619485
 20
-550.3380035833176
 30
0.0
 11
1290.882853619485
 21
-544.3380035833175
 31
0.0
  0
LINE
  5
2D7
  8
PREDEFINITO
 10
1290.882853619485
 20
-544.3380035833175
 30
0.0
 11
1290.882853619485
 21
-538.3380035833175
 31
0.0
  0
LINE
  5
2D8
  8
PREDEFINITO
 10
1290.882853619485
 20
-538.3380035833175
 30
0.0
 11
1284.882853619485
 21
-538.3380035833175
 31
0.0
  0
LINE
  5
2D9
  8
PREDEFINITO
 10
1284.882853619485
 20
-538.3380035833175
 30
0.0
 11
1278.882853619485
 21
-538.3380035833175
 31
0.0
  0
LINE
  5
2DA
  8
PREDEFINITO
 10
1278.882853619485
 20
-538.3380035833175
 30
0.0
 11
1278.882853619485
 21
-532.3380035833175
 31
0.0
  0
LINE
  5
2DB
  8
PREDEFINITO
 10
1278.882853619485
 20
-532.3380035833175
 30
0.0
 11
1272.882853619485
 21
-532.3380035833175
 31
0.0
  0
LINE
  5
2DC
  8
PREDEFINITO
 10
1272.882853619485
 20
-532.3380035833175
 30
0.0
 11
1272.882853619485
 21
-538.3380035833175
 31
0.0
  0
LINE
  5
2DD
  8
PREDEFINITO
 10
1272.882853619485
 20
-538.3380035833175
 30
0.0
 11
1266.882853619485
 21
-538.3380035833175
 31
0.0
  0
LINE
  5
2DE
  8
PREDEFINITO
 10
1266.882853619485
 20
-538.3380035833175
 30
0.0
 11
1266.882853619485
 21
-532.3380035833175
 31
0.0
  0
LINE
  5
2DF
  8
PREDEFINITO
 10
1266.882853619485
 20
-532.3380035833175
 30
0.0
 11
1254.882853619485
 21
-532.3380035833175
 31
0.0
  0
LINE
  5
2E0
  8
PREDEFINITO
 10
1254.882853619485
 20
-532.3380035833175
 30
0.0
 11
1254.882853619485
 21
-538.3380035833175
 31
0.0
  0
LINE
  5
2E1
  8
PREDEFINITO
 10
1254.882853619485
 20
-538.3380035833175
 30
0.0
 11
1242.882853619485
 21
-538.3380035833175
 31
0.0
  0
LINE
  5
2E2
  8
PREDEFINITO
 10
1242.882853619485
 20
-538.3380035833175
 30
0.0
 11
1242.882853619485
 21
-532.3380035833175
 31
0.0
  0
LINE
  5
2E3
  8
PREDEFINITO
 10
1242.882853619485
 20
-532.3380035833175
 30
0.0
 11
1230.882853619485
 21
-532.3380035833175
 31
0.0
  0
LINE
  5
2E4
  8
PREDEFINITO
 10
1230.882853619485
 20
-532.3380035833175
 30
0.0
 11
1230.882853619485
 21
-538.3380035833175
 31
0.0
  0
LINE
  5
2E5
  8
PREDEFINITO
 10
1230.882853619485
 20
-538.3380035833175
 30
0.0
 11
1218.882853619485
 21
-538.3380035833175
 31
0.0
  0
LINE
  5
2E6
  8
PREDEFINITO
 10
1218.882853619485
 20
-538.3380035833175
 30
0.0
 11
1218.882853619485
 21
-532.3380035833175
 31
0.0
  0
LINE
  5
2E7
  8
PREDEFINITO
 10
1218.882853619485
 20
-532.3380035833175
 30
0.0
 11
1206.882853619485
 21
-532.3380035833175
 31
0.0
  0
LINE
  5
2E8
  8
PREDEFINITO
 10
1206.882853619485
 20
-532.3380035833175
 30
0.0
 11
1206.882853619485
 21
-538.3380035833175
 31
0.0
  0
LINE
  5
2E9
  8
PREDEFINITO
 10
1206.882853619485
 20
-538.3380035833175
 30
0.0
 11
1194.882853619485
 21
-538.3380035833175
 31
0.0
  0
LINE
  5
2EA
  8
PREDEFINITO
 10
1194.882853619485
 20
-538.3380035833175
 30
0.0
 11
1194.882853619485
 21
-532.3380035833175
 31
0.0
  0
LINE
  5
2EB
  8
PREDEFINITO
 10
1194.882853619485
 20
-532.3380035833175
 30
0.0
 11
1004.802853619506
 21
-532.3380035833175
 31
0.0
  0
LINE
  5
2EC
  8
PREDEFINITO
 10
1004.802853619506
 20
-532.3380035833175
 30
0.0
 11
1004.802853619506
 21
-538.3380035833175
 31
0.0
  0
LINE
  5
2ED
  8
PREDEFINITO
 10
1004.802853619506
 20
-538.3380035833175
 30
0.0
 11
992.8028536195056
 21
-538.3380035833175
 31
0.0
  0
LINE
  5
2EE
  8
PREDEFINITO
 10
992.8028536195056
 20
-538.3380035833175
 30
0.0
 11
992.8028536195056
 21
-532.3380035833175
 31
0.0
  0
LINE
  5
2EF
  8
PREDEFINITO
 10
992.8028536195056
 20
-532.3380035833175
 30
0.0
 11
980.8028536195056
 21
-532.3380035833175
 31
0.0
  0
LINE
  5
2F0
  8
PREDEFINITO
 10
980.8028536195056
 20
-532.3380035833175
 30
0.0
 11
980.8028536195056
 21
-538.3380035833175
 31
0.0
  0
LINE
  5
2F1
  8
PREDEFINITO
 10
980.8028536195056
 20
-538.3380035833175
 30
0.0
 11
968.8028536195056
 21
-538.3380035833175
 31
0.0
  0
LINE
  5
2F2
  8
PREDEFINITO
 10
968.8028536195056
 20
-538.3380035833175
 30
0.0
 11
968.8028536195056
 21
-532.3380035833175
 31
0.0
  0
LINE
  5
2F3
  8
PREDEFINITO
 10
968.8028536195056
 20
-532.3380035833175
 30
0.0
 11
956.8028536195056
 21
-532.3380035833175
 31
0.0
  0
LINE
  5
2F4
  8
PREDEFINITO
 10
956.8028536195056
 20
-532.3380035833175
 30
0.0
 11
956.8028536195056
 21
-538.3380035833175
 31
0.0
  0
LINE
  5
2F5
  8
PREDEFINITO
 10
956.8028536195056
 20
-538.3380035833175
 30
0.0
 11
944.8028536195056
 21
-538.3380035833175
 31
0.0
  0
LINE
  5
2F6
  8
PREDEFINITO
 10
944.8028536195056
 20
-538.3380035833175
 30
0.0
 11
944.8028536195056
 21
-532.3380035833175
 31
0.0
  0
LINE
  5
2F7
  8
PREDEFINITO
 10
944.8028536195056
 20
-532.3380035833175
 30
0.0
 11
932.8028536195056
 21
-532.3380035833175
 31
0.0
  0
LINE
  5
2F8
  8
PREDEFINITO
 10
932.8028536195056
 20
-532.3380035833175
 30
0.0
 11
932.8028536195056
 21
-538.3380035833175
 31
0.0
  0
LINE
  5
2F9
  8
PREDEFINITO
 10
932.8028536195056
 20
-538.3380035833175
 30
0.0
 11
926.8028536195056
 21
-538.3380035833175
 31
0.0
  0
LINE
  5
2FA
  8
PREDEFINITO
 10
926.8028536195056
 20
-538.3380035833175
 30
0.0
 11
926.8028536195056
 21
-532.3380035833175
 31
0.0
  0
LINE
  5
2FB
  8
PREDEFINITO
 10
926.8028536195056
 20
-532.3380035833175
 30
0.0
 11
920.8028536195056
 21
-532.3380035833175
 31
0.0
  0
LINE
  5
2FC
  8
PREDEFINITO
 10
920.8028536195056
 20
-532.3380035833175
 30
0.0
 11
920.8028536195056
 21
-538.3380035833175
 31
0.0
  0
LINE
  5
2FD
  8
PREDEFINITO
 10
920.8028536195056
 20
-538.3380035833175
 30
0.0
 11
914.8028536195056
 21
-538.3380035833175
 31
0.0
  0
LINE
  5
2FE
  8
PREDEFINITO
 10
914.8028536195056
 20
-538.3380035833175
 30
0.0
 11
908.8028536195056
 21
-538.3380035833175
 31
0.0
  0
LINE
  5
2FF
  8
PREDEFINITO
 10
908.8028536195056
 20
-538.3380035833175
 30
0.0
 11
908.8028536195056
 21
-544.3380035833175
 31
0.0
  0
LINE
  5
300
  8
PREDEFINITO
 10
908.8028536195056
 20
-544.3380035833175
 30
0.0
 11
908.8028536195056
 21
-550.3380035833176
 31
0.0
  0
LINE
  5
301
  8
TUBBBI
 10
948.125276563348
 20
-568.7210123956617
 30
0.0
 11
948.125276563348
 21
-580.7210123956617
 31
0.0
  0
LINE
  5
302
  8
TUBBBI
 10
948.125276563348
 20
-580.7210123956617
 30
0.0
 11
942.125276563348
 21
-580.7210123956617
 31
0.0
  0
LINE
  5
303
  8
TUBBBI
 10
942.125276563348
 20
-580.7210123956617
 30
0.0
 11
942.125276563348
 21
-568.7210123956617
 31
0.0
  0
LINE
  5
304
  8
TUBBBI
 10
942.125276563348
 20
-568.7210123956617
 30
0.0
 11
948.125276563348
 21
-568.7210123956617
 31
0.0
  0
LINE
  5
305
  8
TUBBBI
 10
948.125276563348
 20
-592.7210123956617
 30
0.0
 11
948.125276563348
 21
-610.7210123956612
 31
0.0
  0
LINE
  5
306
  8
TUBBBI
 10
948.125276563348
 20
-610.7210123956612
 30
0.0
 11
942.125276563348
 21
-610.7210123956612
 31
0.0
  0
LINE
  5
307
  8
TUBBBI
 10
942.125276563348
 20
-610.7210123956612
 30
0.0
 11
942.125276563348
 21
-592.7210123956617
 31
0.0
  0
LINE
  5
308
  8
TUBBBI
 10
942.125276563348
 20
-592.7210123956617
 30
0.0
 11
948.125276563348
 21
-592.7210123956617
 31
0.0
  0
LINE
  5
309
  8
TUBBBI
 10
948.125276563348
 20
-622.7210123956612
 30
0.0
 11
948.125276563348
 21
-634.7210123956612
 31
0.0
  0
LINE
  5
30A
  8
TUBBBI
 10
948.125276563348
 20
-634.7210123956612
 30
0.0
 11
942.125276563348
 21
-634.7210123956612
 31
0.0
  0
LINE
  5
30B
  8
TUBBBI
 10
942.125276563348
 20
-634.7210123956612
 30
0.0
 11
942.125276563348
 21
-622.7210123956612
 31
0.0
  0
LINE
  5
30C
  8
TUBBBI
 10
942.125276563348
 20
-622.7210123956612
 30
0.0
 11
948.125276563348
 21
-622.7210123956612
 31
0.0
  0
LINE
  5
30D
  8
TUBBBI
 10
1251.560430675642
 20
-622.7210123956612
 30
0.0
 11
1251.560430675642
 21
-634.7210123956612
 31
0.0
  0
LINE
  5
30E
  8
TUBBBI
 10
1251.560430675642
 20
-634.7210123956612
 30
0.0
 11
1257.560430675642
 21
-634.7210123956612
 31
0.0
  0
LINE
  5
30F
  8
TUBBBI
 10
1257.560430675642
 20
-634.7210123956612
 30
0.0
 11
1257.560430675642
 21
-622.7210123956612
 31
0.0
  0
LINE
  5
310
  8
TUBBBI
 10
1257.560430675642
 20
-622.7210123956612
 30
0.0
 11
1251.560430675642
 21
-622.7210123956612
 31
0.0
  0
LINE
  5
311
  8
TUBBBI
 10
1251.560430675642
 20
-568.7210123956617
 30
0.0
 11
1251.560430675642
 21
-580.7210123956617
 31
0.0
  0
LINE
  5
312
  8
TUBBBI
 10
1251.560430675642
 20
-580.7210123956617
 30
0.0
 11
1257.560430675642
 21
-580.7210123956617
 31
0.0
  0
LINE
  5
313
  8
TUBBBI
 10
1257.560430675642
 20
-580.7210123956617
 30
0.0
 11
1257.560430675642
 21
-568.7210123956617
 31
0.0
  0
LINE
  5
314
  8
TUBBBI
 10
1257.560430675642
 20
-568.7210123956617
 30
0.0
 11
1251.560430675642
 21
-568.7210123956617
 31
0.0
  0
LINE
  5
315
  8
TUBBBI
 10
1251.560430675642
 20
-592.7210123956617
 30
0.0
 11
1251.560430675642
 21
-610.7210123956612
 31
0.0
  0
LINE
  5
316
  8
TUBBBI
 10
1251.560430675642
 20
-610.7210123956612
 30
0.0
 11
1257.560430675642
 21
-610.7210123956612
 31
0.0
  0
LINE
  5
317
  8
TUBBBI
 10
1257.560430675642
 20
-610.7210123956612
 30
0.0
 11
1257.560430675642
 21
-592.7210123956617
 31
0.0
  0
LINE
  5
318
  8
TUBBBI
 10
1257.560430675642
 20
-592.7210123956617
 30
0.0
 11
1251.560430675642
 21
-592.7210123956617
 31
0.0
  0
LINE
  5
319
  8
TUBBBI
 10
981.1252765633478
 20
-568.7210123956617
 30
0.0
 11
1218.560430675642
 21
-568.7210123956671
 31
0.0
  0
LINE
  5
31A
  8
TUBBBI
 10
1218.560430675642
 20
-568.7210123956671
 30
0.0
 11
1218.56043067564
 21
-601.7210123956723
 31
0.0
  0
LINE
  5
31B
  8
TUBBBI
 10
1218.56043067564
 20
-601.7210123956614
 30
0.0
 11
981.1252765633478
 21
-601.7210123956614
 31
0.0
  0
LINE
  5
31C
  8
TUBBBI
 10
981.1252765633478
 20
-601.7210123956614
 30
0.0
 11
981.1252765633478
 21
-568.7210123956617
 31
0.0
  0
LINE
  5
31D
  8
PREDEFINITO
 10
1717.825304732677
 20
-450.6467885085275
 30
0.0
 11
1717.825304732677
 21
-440.6467885085274
 31
0.0
  0
LINE
  5
31E
  8
PREDEFINITO
 10
1717.825304732677
 20
-440.6467885085274
 30
0.0
 11
1717.825304732677
 21
-434.6467885085273
 31
0.0
  0
LINE
  5
31F
  8
PREDEFINITO
 10
1717.825304732677
 20
-434.6467885085273
 30
0.0
 11
1711.825304732677
 21
-434.6467885085273
 31
0.0
  0
LINE
  5
320
  8
PREDEFINITO
 10
1711.825304732677
 20
-434.6467885085273
 30
0.0
 11
1711.825304732677
 21
-440.6467885085273
 31
0.0
  0
LINE
  5
321
  8
PREDEFINITO
 10
1711.825304732677
 20
-440.6467885085273
 30
0.0
 11
1705.825304732677
 21
-440.6467885085273
 31
0.0
  0
LINE
  5
322
  8
PREDEFINITO
 10
1705.825304732677
 20
-440.6467885085273
 30
0.0
 11
1705.825304732677
 21
-434.6467885085273
 31
0.0
  0
LINE
  5
323
  8
PREDEFINITO
 10
1705.825304732677
 20
-434.6467885085273
 30
0.0
 11
1699.825304732677
 21
-434.6467885085273
 31
0.0
  0
LINE
  5
324
  8
PREDEFINITO
 10
1699.825304732677
 20
-434.6467885085273
 30
0.0
 11
1699.825304732677
 21
-440.6467885085273
 31
0.0
  0
LINE
  5
325
  8
PREDEFINITO
 10
1699.825304732677
 20
-440.6467885085273
 30
0.0
 11
1693.825304732677
 21
-440.6467885085273
 31
0.0
  0
LINE
  5
326
  8
PREDEFINITO
 10
1693.825304732677
 20
-440.6467885085273
 30
0.0
 11
1693.825304732677
 21
-434.6467885085273
 31
0.0
  0
LINE
  5
327
  8
PREDEFINITO
 10
1693.825304732677
 20
-434.6467885085273
 30
0.0
 11
1681.825304732677
 21
-434.6467885085273
 31
0.0
  0
LINE
  5
328
  8
PREDEFINITO
 10
1681.825304732677
 20
-434.6467885085273
 30
0.0
 11
1681.825304732677
 21
-440.6467885085273
 31
0.0
  0
LINE
  5
329
  8
PREDEFINITO
 10
1681.825304732677
 20
-440.6467885085273
 30
0.0
 11
1669.825304732677
 21
-440.6467885085273
 31
0.0
  0
LINE
  5
32A
  8
PREDEFINITO
 10
1669.825304732677
 20
-440.6467885085273
 30
0.0
 11
1669.825304732677
 21
-434.6467885085273
 31
0.0
  0
LINE
  5
32B
  8
PREDEFINITO
 10
1669.825304732677
 20
-434.6467885085273
 30
0.0
 11
1657.825304732677
 21
-434.6467885085273
 31
0.0
  0
LINE
  5
32C
  8
PREDEFINITO
 10
1657.825304732677
 20
-434.6467885085273
 30
0.0
 11
1657.825304732677
 21
-440.6467885085273
 31
0.0
  0
LINE
  5
32D
  8
PREDEFINITO
 10
1657.825304732677
 20
-440.6467885085273
 30
0.0
 11
1645.825304732677
 21
-440.6467885085273
 31
0.0
  0
LINE
  5
32E
  8
PREDEFINITO
 10
1645.825304732677
 20
-440.6467885085273
 30
0.0
 11
1645.825304732677
 21
-434.6467885085273
 31
0.0
  0
LINE
  5
32F
  8
PREDEFINITO
 10
1645.825304732677
 20
-434.6467885085273
 30
0.0
 11
1633.825304732677
 21
-434.6467885085273
 31
0.0
  0
LINE
  5
330
  8
PREDEFINITO
 10
1633.825304732677
 20
-434.6467885085273
 30
0.0
 11
1633.825304732677
 21
-440.6467885085273
 31
0.0
  0
LINE
  5
331
  8
PREDEFINITO
 10
1633.825304732677
 20
-440.6467885085273
 30
0.0
 11
1621.825304732677
 21
-440.6467885085273
 31
0.0
  0
LINE
  5
332
  8
PREDEFINITO
 10
1621.825304732677
 20
-440.6467885085273
 30
0.0
 11
1621.825304732677
 21
-434.6467885085273
 31
0.0
  0
LINE
  5
333
  8
PREDEFINITO
 10
1621.825304732677
 20
-434.6467885085273
 30
0.0
 11
1431.745304732698
 21
-434.6467885085273
 31
0.0
  0
LINE
  5
334
  8
PREDEFINITO
 10
1431.745304732698
 20
-434.6467885085273
 30
0.0
 11
1431.745304732698
 21
-440.6467885085273
 31
0.0
  0
LINE
  5
335
  8
PREDEFINITO
 10
1431.745304732698
 20
-440.6467885085273
 30
0.0
 11
1419.745304732698
 21
-440.6467885085273
 31
0.0
  0
LINE
  5
336
  8
PREDEFINITO
 10
1419.745304732698
 20
-440.6467885085273
 30
0.0
 11
1419.745304732698
 21
-434.6467885085273
 31
0.0
  0
LINE
  5
337
  8
PREDEFINITO
 10
1419.745304732698
 20
-434.6467885085273
 30
0.0
 11
1407.745304732697
 21
-434.6467885085273
 31
0.0
  0
LINE
  5
338
  8
PREDEFINITO
 10
1407.745304732697
 20
-434.6467885085273
 30
0.0
 11
1407.745304732697
 21
-440.6467885085273
 31
0.0
  0
LINE
  5
339
  8
PREDEFINITO
 10
1407.745304732697
 20
-440.6467885085273
 30
0.0
 11
1395.745304732697
 21
-440.6467885085273
 31
0.0
  0
LINE
  5
33A
  8
PREDEFINITO
 10
1395.745304732697
 20
-440.6467885085273
 30
0.0
 11
1395.745304732697
 21
-434.6467885085273
 31
0.0
  0
LINE
  5
33B
  8
PREDEFINITO
 10
1395.745304732697
 20
-434.6467885085273
 30
0.0
 11
1383.745304732697
 21
-434.6467885085273
 31
0.0
  0
LINE
  5
33C
  8
PREDEFINITO
 10
1383.745304732697
 20
-434.6467885085273
 30
0.0
 11
1383.745304732697
 21
-440.6467885085273
 31
0.0
  0
LINE
  5
33D
  8
PREDEFINITO
 10
1383.745304732697
 20
-440.6467885085273
 30
0.0
 11
1371.745304732697
 21
-440.6467885085273
 31
0.0
  0
LINE
  5
33E
  8
PREDEFINITO
 10
1371.745304732697
 20
-440.6467885085273
 30
0.0
 11
1371.745304732697
 21
-434.6467885085273
 31
0.0
  0
LINE
  5
33F
  8
PREDEFINITO
 10
1371.745304732697
 20
-434.6467885085273
 30
0.0
 11
1359.745304732697
 21
-434.6467885085273
 31
0.0
  0
LINE
  5
340
  8
PREDEFINITO
 10
1359.745304732697
 20
-434.6467885085273
 30
0.0
 11
1359.745304732697
 21
-440.6467885085273
 31
0.0
  0
LINE
  5
341
  8
PREDEFINITO
 10
1359.745304732697
 20
-440.6467885085273
 30
0.0
 11
1353.745304732697
 21
-440.6467885085273
 31
0.0
  0
LINE
  5
342
  8
PREDEFINITO
 10
1353.745304732697
 20
-440.6467885085273
 30
0.0
 11
1353.745304732697
 21
-434.6467885085273
 31
0.0
  0
LINE
  5
343
  8
PREDEFINITO
 10
1353.745304732697
 20
-434.6467885085273
 30
0.0
 11
1347.745304732697
 21
-434.6467885085273
 31
0.0
  0
LINE
  5
344
  8
PREDEFINITO
 10
1347.745304732697
 20
-434.6467885085273
 30
0.0
 11
1347.745304732697
 21
-440.6467885085273
 31
0.0
  0
LINE
  5
345
  8
PREDEFINITO
 10
1347.745304732697
 20
-440.6467885085273
 30
0.0
 11
1341.745304732697
 21
-440.6467885085273
 31
0.0
  0
LINE
  5
346
  8
PREDEFINITO
 10
1341.745304732697
 20
-440.6467885085273
 30
0.0
 11
1341.745304732697
 21
-434.6467885085273
 31
0.0
  0
LINE
  5
347
  8
PREDEFINITO
 10
1341.745304732697
 20
-434.6467885085273
 30
0.0
 11
1335.745304732697
 21
-434.6467885085273
 31
0.0
  0
LINE
  5
348
  8
PREDEFINITO
 10
1335.745304732697
 20
-434.6467885085273
 30
0.0
 11
1335.745304732697
 21
-440.6467885085273
 31
0.0
  0
LINE
  5
349
  8
PREDEFINITO
 10
1335.745304732697
 20
-440.6467885085273
 30
0.0
 11
1335.745304732698
 21
-446.6467885085273
 31
0.0
  0
LINE
  5
34A
  8
PREDEFINITO
 10
1335.745304732698
 20
-446.6467885085273
 30
0.0
 11
1335.745304732698
 21
-456.6467885085273
 31
0.0
  0
LINE
  5
34B
  8
PREDEFINITO
 10
1335.745304732697
 20
-456.6467885085275
 30
0.0
 11
1329.745304732697
 21
-456.6467885085275
 31
0.0
  0
LINE
  5
34C
  8
PREDEFINITO
 10
1329.745304732697
 20
-456.6467885085275
 30
0.0
 11
1329.745304732697
 21
-462.6467885085275
 31
0.0
  0
LINE
  5
34D
  8
PREDEFINITO
 10
1329.745304732697
 20
-462.6467885085275
 30
0.0
 11
1335.745304732697
 21
-462.6467885085275
 31
0.0
  0
LINE
  5
34E
  8
PREDEFINITO
 10
1335.745304732697
 20
-462.6467885085275
 30
0.0
 11
1335.745304732697
 21
-468.6467885085275
 31
0.0
  0
LINE
  5
34F
  8
PREDEFINITO
 10
1335.745304732697
 20
-468.6467885085275
 30
0.0
 11
1329.745304732697
 21
-468.6467885085275
 31
0.0
  0
LINE
  5
350
  8
PREDEFINITO
 10
1329.745304732697
 20
-468.6467885085275
 30
0.0
 11
1329.745304732697
 21
-480.6467885085275
 31
0.0
  0
LINE
  5
351
  8
PREDEFINITO
 10
1329.745304732697
 20
-480.6467885085275
 30
0.0
 11
1335.745304732697
 21
-480.6467885085275
 31
0.0
  0
LINE
  5
352
  8
PREDEFINITO
 10
1335.745304732697
 20
-480.6467885085275
 30
0.0
 11
1335.745304732697
 21
-514.726788508527
 31
0.0
  0
LINE
  5
353
  8
PREDEFINITO
 10
1335.745304732697
 20
-514.726788508527
 30
0.0
 11
1329.745304732697
 21
-514.726788508527
 31
0.0
  0
LINE
  5
354
  8
PREDEFINITO
 10
1329.745304732697
 20
-514.726788508527
 30
0.0
 11
1329.745304732697
 21
-526.726788508527
 31
0.0
  0
LINE
  5
355
  8
PREDEFINITO
 10
1329.745304732697
 20
-526.726788508527
 30
0.0
 11
1335.745304732697
 21
-526.726788508527
 31
0.0
  0
LINE
  5
356
  8
PREDEFINITO
 10
1335.745304732697
 20
-526.726788508527
 30
0.0
 11
1335.745304732697
 21
-532.726788508527
 31
0.0
  0
LINE
  5
357
  8
PREDEFINITO
 10
1335.745304732697
 20
-532.726788508527
 30
0.0
 11
1329.745304732697
 21
-532.726788508527
 31
0.0
  0
LINE
  5
358
  8
PREDEFINITO
 10
1329.745304732697
 20
-532.726788508527
 30
0.0
 11
1329.745304732697
 21
-538.726788508527
 31
0.0
  0
LINE
  5
359
  8
PREDEFINITO
 10
1329.745304732697
 20
-538.726788508527
 30
0.0
 11
1335.745304732697
 21
-538.726788508527
 31
0.0
  0
LINE
  5
35A
  8
PREDEFINITO
 10
1335.745304732697
 20
-538.726788508527
 30
0.0
 11
1335.745304732697
 21
-544.726788508527
 31
0.0
  0
LINE
  5
35B
  8
PREDEFINITO
 10
1335.745304732697
 20
-544.726788508527
 30
0.0
 11
1329.745304732697
 21
-544.726788508527
 31
0.0
  0
LINE
  5
35C
  8
PREDEFINITO
 10
1329.745304732697
 20
-544.726788508527
 30
0.0
 11
1329.745304732697
 21
-550.726788508527
 31
0.0
  0
LINE
  5
35D
  8
PREDEFINITO
 10
1329.745304732697
 20
-550.726788508527
 30
0.0
 11
1341.745304732697
 21
-550.726788508527
 31
0.0
  0
LINE
  5
35E
  8
PREDEFINITO
 10
1341.745304732697
 20
-550.726788508527
 30
0.0
 11
1341.745304732697
 21
-556.7267885085272
 31
0.0
  0
LINE
  5
35F
  8
PREDEFINITO
 10
1341.745304732697
 20
-556.7267885085272
 30
0.0
 11
1329.745304732697
 21
-556.726788508527
 31
0.0
  0
LINE
  5
360
  8
PREDEFINITO
 10
1329.745304732697
 20
-556.726788508527
 30
0.0
 11
1329.745304732697
 21
-904.9867885085272
 31
0.0
  0
LINE
  5
361
  8
PREDEFINITO
 10
1329.745304732697
 20
-904.9867885085272
 30
0.0
 11
1341.745304732697
 21
-904.9867885085272
 31
0.0
  0
LINE
  5
362
  8
PREDEFINITO
 10
1341.745304732697
 20
-904.9867885085272
 30
0.0
 11
1341.745304732697
 21
-910.9867885085272
 31
0.0
  0
LINE
  5
363
  8
PREDEFINITO
 10
1341.745304732697
 20
-910.9867885085272
 30
0.0
 11
1329.745304732697
 21
-910.9867885085272
 31
0.0
  0
LINE
  5
364
  8
PREDEFINITO
 10
1329.745304732697
 20
-910.9867885085272
 30
0.0
 11
1329.745304732697
 21
-916.9867885085272
 31
0.0
  0
LINE
  5
365
  8
PREDEFINITO
 10
1329.745304732697
 20
-916.9867885085272
 30
0.0
 11
1335.745304732697
 21
-916.9867885085272
 31
0.0
  0
LINE
  5
366
  8
PREDEFINITO
 10
1335.745304732697
 20
-916.9867885085272
 30
0.0
 11
1335.745304732697
 21
-922.9867885085272
 31
0.0
  0
LINE
  5
367
  8
PREDEFINITO
 10
1335.745304732697
 20
-922.9867885085272
 30
0.0
 11
1329.745304732697
 21
-922.9867885085272
 31
0.0
  0
LINE
  5
368
  8
PREDEFINITO
 10
1329.745304732697
 20
-922.9867885085272
 30
0.0
 11
1329.745304732697
 21
-928.9867885085272
 31
0.0
  0
LINE
  5
369
  8
PREDEFINITO
 10
1329.745304732697
 20
-928.9867885085272
 30
0.0
 11
1335.745304732697
 21
-928.9867885085272
 31
0.0
  0
LINE
  5
36A
  8
PREDEFINITO
 10
1335.745304732697
 20
-928.9867885085272
 30
0.0
 11
1335.745304732697
 21
-934.9867885085272
 31
0.0
  0
LINE
  5
36B
  8
PREDEFINITO
 10
1335.745304732697
 20
-934.9867885085272
 30
0.0
 11
1329.745304732697
 21
-934.9867885085272
 31
0.0
  0
LINE
  5
36C
  8
PREDEFINITO
 10
1329.745304732697
 20
-934.9867885085272
 30
0.0
 11
1329.745304732697
 21
-946.9867885085272
 31
0.0
  0
LINE
  5
36D
  8
PREDEFINITO
 10
1329.745304732697
 20
-946.9867885085272
 30
0.0
 11
1335.745304732697
 21
-946.9867885085272
 31
0.0
  0
LINE
  5
36E
  8
PREDEFINITO
 10
1335.745304732697
 20
-946.9867885085272
 30
0.0
 11
1335.745304732697
 21
-981.0667885085271
 31
0.0
  0
LINE
  5
36F
  8
PREDEFINITO
 10
1335.745304732697
 20
-981.0667885085271
 30
0.0
 11
1329.745304732697
 21
-981.0667885085271
 31
0.0
  0
LINE
  5
370
  8
PREDEFINITO
 10
1329.745304732697
 20
-981.0667885085271
 30
0.0
 11
1329.745304732697
 21
-993.0667885085271
 31
0.0
  0
LINE
  5
371
  8
PREDEFINITO
 10
1329.745304732697
 20
-993.0667885085271
 30
0.0
 11
1335.745304732697
 21
-993.0667885085271
 31
0.0
  0
LINE
  5
372
  8
PREDEFINITO
 10
1335.745304732697
 20
-993.0667885085271
 30
0.0
 11
1335.745304732697
 21
-999.0667885085271
 31
0.0
  0
LINE
  5
373
  8
PREDEFINITO
 10
1335.745304732697
 20
-999.0667885085271
 30
0.0
 11
1329.745304732697
 21
-999.0667885085271
 31
0.0
  0
LINE
  5
374
  8
PREDEFINITO
 10
1329.745304732697
 20
-999.0667885085271
 30
0.0
 11
1329.745304732697
 21
-1005.066788508527
 31
0.0
  0
LINE
  5
375
  8
PREDEFINITO
 10
1329.745304732697
 20
-1005.066788508527
 30
0.0
 11
1335.745304732698
 21
-1005.066788508527
 31
0.0
  0
LINE
  5
376
  8
PREDEFINITO
 10
1335.745304732698
 20
-1005.066788508527
 30
0.0
 11
1335.745304732698
 21
-1015.066788508527
 31
0.0
  0
LINE
  5
377
  8
PREDEFINITO
 10
1335.745304732698
 20
-1015.066788508527
 30
0.0
 11
1335.745304732697
 21
-1021.066788508527
 31
0.0
  0
LINE
  5
378
  8
PREDEFINITO
 10
1335.745304732697
 20
-1021.066788508527
 30
0.0
 11
1335.745304732697
 21
-1027.066788508527
 31
0.0
  0
LINE
  5
379
  8
PREDEFINITO
 10
1335.745304732697
 20
-1027.066788508527
 30
0.0
 11
1341.745304732697
 21
-1027.066788508527
 31
0.0
  0
LINE
  5
37A
  8
PREDEFINITO
 10
1341.745304732697
 20
-1027.066788508527
 30
0.0
 11
1341.745304732697
 21
-1021.066788508527
 31
0.0
  0
LINE
  5
37B
  8
PREDEFINITO
 10
1341.745304732697
 20
-1021.066788508527
 30
0.0
 11
1347.745304732697
 21
-1021.066788508527
 31
0.0
  0
LINE
  5
37C
  8
PREDEFINITO
 10
1347.745304732697
 20
-1021.066788508527
 30
0.0
 11
1347.745304732697
 21
-1027.066788508527
 31
0.0
  0
LINE
  5
37D
  8
PREDEFINITO
 10
1347.745304732697
 20
-1027.066788508527
 30
0.0
 11
1353.745304732697
 21
-1027.066788508527
 31
0.0
  0
LINE
  5
37E
  8
PREDEFINITO
 10
1353.745304732697
 20
-1027.066788508527
 30
0.0
 11
1353.745304732697
 21
-1021.066788508527
 31
0.0
  0
LINE
  5
37F
  8
PREDEFINITO
 10
1353.745304732697
 20
-1021.066788508527
 30
0.0
 11
1359.745304732697
 21
-1021.066788508527
 31
0.0
  0
LINE
  5
380
  8
PREDEFINITO
 10
1359.745304732697
 20
-1021.066788508527
 30
0.0
 11
1359.745304732697
 21
-1027.066788508527
 31
0.0
  0
LINE
  5
381
  8
PREDEFINITO
 10
1359.745304732697
 20
-1027.066788508527
 30
0.0
 11
1371.745304732697
 21
-1027.066788508527
 31
0.0
  0
LINE
  5
382
  8
PREDEFINITO
 10
1371.745304732697
 20
-1027.066788508527
 30
0.0
 11
1371.745304732697
 21
-1021.066788508527
 31
0.0
  0
LINE
  5
383
  8
PREDEFINITO
 10
1371.745304732697
 20
-1021.066788508527
 30
0.0
 11
1383.745304732697
 21
-1021.066788508527
 31
0.0
  0
LINE
  5
384
  8
PREDEFINITO
 10
1383.745304732697
 20
-1021.066788508527
 30
0.0
 11
1383.745304732697
 21
-1027.066788508527
 31
0.0
  0
LINE
  5
385
  8
PREDEFINITO
 10
1383.745304732697
 20
-1027.066788508527
 30
0.0
 11
1395.745304732697
 21
-1027.066788508527
 31
0.0
  0
LINE
  5
386
  8
PREDEFINITO
 10
1395.745304732697
 20
-1027.066788508527
 30
0.0
 11
1395.745304732697
 21
-1021.066788508527
 31
0.0
  0
LINE
  5
387
  8
PREDEFINITO
 10
1395.745304732697
 20
-1021.066788508527
 30
0.0
 11
1407.745304732697
 21
-1021.066788508527
 31
0.0
  0
LINE
  5
388
  8
PREDEFINITO
 10
1407.745304732697
 20
-1021.066788508527
 30
0.0
 11
1407.745304732697
 21
-1027.066788508527
 31
0.0
  0
LINE
  5
389
  8
PREDEFINITO
 10
1407.745304732697
 20
-1027.066788508527
 30
0.0
 11
1419.745304732698
 21
-1027.066788508527
 31
0.0
  0
LINE
  5
38A
  8
PREDEFINITO
 10
1419.745304732698
 20
-1027.066788508527
 30
0.0
 11
1419.745304732698
 21
-1021.066788508527
 31
0.0
  0
LINE
  5
38B
  8
PREDEFINITO
 10
1419.745304732698
 20
-1021.066788508527
 30
0.0
 11
1431.745304732698
 21
-1021.066788508527
 31
0.0
  0
LINE
  5
38C
  8
PREDEFINITO
 10
1431.745304732698
 20
-1021.066788508527
 30
0.0
 11
1431.745304732698
 21
-1027.066788508527
 31
0.0
  0
LINE
  5
38D
  8
PREDEFINITO
 10
1431.745304732698
 20
-1027.066788508527
 30
0.0
 11
1621.825304732677
 21
-1027.066788508527
 31
0.0
  0
LINE
  5
38E
  8
PREDEFINITO
 10
1621.825304732677
 20
-1027.066788508527
 30
0.0
 11
1621.825304732677
 21
-1021.066788508527
 31
0.0
  0
LINE
  5
38F
  8
PREDEFINITO
 10
1621.825304732677
 20
-1021.066788508527
 30
0.0
 11
1633.825304732677
 21
-1021.066788508527
 31
0.0
  0
LINE
  5
390
  8
PREDEFINITO
 10
1633.825304732677
 20
-1021.066788508527
 30
0.0
 11
1633.825304732677
 21
-1027.066788508527
 31
0.0
  0
LINE
  5
391
  8
PREDEFINITO
 10
1633.825304732677
 20
-1027.066788508527
 30
0.0
 11
1645.825304732677
 21
-1027.066788508527
 31
0.0
  0
LINE
  5
392
  8
PREDEFINITO
 10
1645.825304732677
 20
-1027.066788508527
 30
0.0
 11
1645.825304732677
 21
-1021.066788508527
 31
0.0
  0
LINE
  5
393
  8
PREDEFINITO
 10
1645.825304732677
 20
-1021.066788508527
 30
0.0
 11
1657.825304732677
 21
-1021.066788508527
 31
0.0
  0
LINE
  5
394
  8
PREDEFINITO
 10
1657.825304732677
 20
-1021.066788508527
 30
0.0
 11
1657.825304732677
 21
-1027.066788508527
 31
0.0
  0
LINE
  5
395
  8
PREDEFINITO
 10
1657.825304732677
 20
-1027.066788508527
 30
0.0
 11
1669.825304732677
 21
-1027.066788508527
 31
0.0
  0
LINE
  5
396
  8
PREDEFINITO
 10
1669.825304732677
 20
-1027.066788508527
 30
0.0
 11
1669.825304732677
 21
-1021.066788508527
 31
0.0
  0
LINE
  5
397
  8
PREDEFINITO
 10
1669.825304732677
 20
-1021.066788508527
 30
0.0
 11
1681.825304732677
 21
-1021.066788508527
 31
0.0
  0
LINE
  5
398
  8
PREDEFINITO
 10
1681.825304732677
 20
-1021.066788508527
 30
0.0
 11
1681.825304732677
 21
-1027.066788508527
 31
0.0
  0
LINE
  5
399
  8
PREDEFINITO
 10
1681.825304732677
 20
-1027.066788508527
 30
0.0
 11
1693.825304732677
 21
-1027.066788508527
 31
0.0
  0
LINE
  5
39A
  8
PREDEFINITO
 10
1693.825304732677
 20
-1027.066788508527
 30
0.0
 11
1693.825304732677
 21
-1021.066788508527
 31
0.0
  0
LINE
  5
39B
  8
PREDEFINITO
 10
1693.825304732677
 20
-1021.066788508527
 30
0.0
 11
1699.825304732677
 21
-1021.066788508527
 31
0.0
  0
LINE
  5
39C
  8
PREDEFINITO
 10
1699.825304732677
 20
-1021.066788508527
 30
0.0
 11
1699.825304732677
 21
-1027.066788508527
 31
0.0
  0
LINE
  5
39D
  8
PREDEFINITO
 10
1699.825304732677
 20
-1027.066788508527
 30
0.0
 11
1705.825304732677
 21
-1027.066788508527
 31
0.0
  0
LINE
  5
39E
  8
PREDEFINITO
 10
1705.825304732677
 20
-1027.066788508527
 30
0.0
 11
1705.825304732677
 21
-1021.066788508527
 31
0.0
  0
LINE
  5
39F
  8
PREDEFINITO
 10
1705.825304732677
 20
-1021.066788508527
 30
0.0
 11
1711.825304732677
 21
-1021.066788508527
 31
0.0
  0
LINE
  5
3A0
  8
PREDEFINITO
 10
1711.825304732677
 20
-1021.066788508527
 30
0.0
 11
1711.825304732677
 21
-1027.066788508527
 31
0.0
  0
LINE
  5
3A1
  8
PREDEFINITO
 10
1711.825304732677
 20
-1027.066788508527
 30
0.0
 11
1717.825304732677
 21
-1027.066788508527
 31
0.0
  0
LINE
  5
3A2
  8
PREDEFINITO
 10
1717.825304732677
 20
-1027.066788508527
 30
0.0
 11
1717.825304732677
 21
-1021.066788508527
 31
0.0
  0
LINE
  5
3A3
  8
PREDEFINITO
 10
1717.825304732677
 20
-1021.066788508527
 30
0.0
 11
1717.825304732677
 21
-1015.066788508527
 31
0.0
  0
LINE
  5
3A4
  8
PREDEFINITO
 10
1717.825304732677
 20
-1015.066788508527
 30
0.0
 11
1717.825304732677
 21
-1005.066788508527
 31
0.0
  0
LINE
  5
3A5
  8
PREDEFINITO
 10
1717.825304732677
 20
-1005.066788508527
 30
0.0
 11
1723.825304732677
 21
-1005.066788508527
 31
0.0
  0
LINE
  5
3A6
  8
PREDEFINITO
 10
1723.825304732677
 20
-1005.066788508527
 30
0.0
 11
1723.825304732677
 21
-999.0667885085271
 31
0.0
  0
LINE
  5
3A7
  8
PREDEFINITO
 10
1723.825304732677
 20
-999.0667885085271
 30
0.0
 11
1717.825304732677
 21
-999.0667885085271
 31
0.0
  0
LINE
  5
3A8
  8
PREDEFINITO
 10
1717.825304732677
 20
-999.0667885085271
 30
0.0
 11
1717.825304732677
 21
-993.0667885085271
 31
0.0
  0
LINE
  5
3A9
  8
PREDEFINITO
 10
1717.825304732677
 20
-993.0667885085271
 30
0.0
 11
1723.825304732677
 21
-993.0667885085271
 31
0.0
  0
LINE
  5
3AA
  8
PREDEFINITO
 10
1723.825304732677
 20
-993.0667885085271
 30
0.0
 11
1723.825304732677
 21
-981.0667885085271
 31
0.0
  0
LINE
  5
3AB
  8
PREDEFINITO
 10
1723.825304732677
 20
-981.0667885085271
 30
0.0
 11
1717.825304732677
 21
-981.0667885085271
 31
0.0
  0
LINE
  5
3AC
  8
PREDEFINITO
 10
1717.825304732677
 20
-981.0667885085271
 30
0.0
 11
1717.825304732677
 21
-946.9867885085272
 31
0.0
  0
LINE
  5
3AD
  8
PREDEFINITO
 10
1717.825304732677
 20
-946.9867885085272
 30
0.0
 11
1723.825304732677
 21
-946.9867885085272
 31
0.0
  0
LINE
  5
3AE
  8
PREDEFINITO
 10
1723.825304732677
 20
-946.9867885085272
 30
0.0
 11
1723.825304732677
 21
-934.9867885085272
 31
0.0
  0
LINE
  5
3AF
  8
PREDEFINITO
 10
1723.825304732677
 20
-934.9867885085272
 30
0.0
 11
1717.825304732677
 21
-934.9867885085272
 31
0.0
  0
LINE
  5
3B0
  8
PREDEFINITO
 10
1717.825304732677
 20
-934.9867885085272
 30
0.0
 11
1717.825304732677
 21
-928.9867885085272
 31
0.0
  0
LINE
  5
3B1
  8
PREDEFINITO
 10
1717.825304732677
 20
-928.9867885085272
 30
0.0
 11
1723.825304732677
 21
-928.9867885085272
 31
0.0
  0
LINE
  5
3B2
  8
PREDEFINITO
 10
1723.825304732677
 20
-928.9867885085272
 30
0.0
 11
1723.825304732677
 21
-922.9867885085272
 31
0.0
  0
LINE
  5
3B3
  8
PREDEFINITO
 10
1723.825304732677
 20
-922.9867885085272
 30
0.0
 11
1717.825304732677
 21
-922.9867885085272
 31
0.0
  0
LINE
  5
3B4
  8
PREDEFINITO
 10
1717.825304732677
 20
-922.9867885085272
 30
0.0
 11
1717.825304732677
 21
-916.9867885085272
 31
0.0
  0
LINE
  5
3B5
  8
PREDEFINITO
 10
1717.825304732677
 20
-916.9867885085272
 30
0.0
 11
1723.825304732677
 21
-916.9867885085272
 31
0.0
  0
LINE
  5
3B6
  8
PREDEFINITO
 10
1723.825304732677
 20
-916.9867885085272
 30
0.0
 11
1723.825304732677
 21
-910.9867885085272
 31
0.0
  0
LINE
  5
3B7
  8
PREDEFINITO
 10
1723.825304732677
 20
-910.9867885085272
 30
0.0
 11
1711.825304732677
 21
-910.9867885085272
 31
0.0
  0
LINE
  5
3B8
  8
PREDEFINITO
 10
1711.825304732677
 20
-910.9867885085272
 30
0.0
 11
1711.825304732677
 21
-904.9867885085272
 31
0.0
  0
LINE
  5
3B9
  8
PREDEFINITO
 10
1711.825304732677
 20
-904.9867885085272
 30
0.0
 11
1723.825304732677
 21
-904.9867885085274
 31
0.0
  0
LINE
  5
3BA
  8
PREDEFINITO
 10
1723.825304732677
 20
-904.9867885085274
 30
0.0
 11
1723.825304732677
 21
-556.726788508527
 31
0.0
  0
LINE
  5
3BB
  8
PREDEFINITO
 10
1723.825304732677
 20
-556.726788508527
 30
0.0
 11
1711.825304732677
 21
-556.7267885085272
 31
0.0
  0
LINE
  5
3BC
  8
PREDEFINITO
 10
1711.825304732677
 20
-556.7267885085272
 30
0.0
 11
1711.825304732677
 21
-550.726788508527
 31
0.0
  0
LINE
  5
3BD
  8
PREDEFINITO
 10
1711.825304732677
 20
-550.726788508527
 30
0.0
 11
1723.825304732677
 21
-550.7267885085272
 31
0.0
  0
LINE
  5
3BE
  8
PREDEFINITO
 10
1723.825304732677
 20
-550.7267885085272
 30
0.0
 11
1723.825304732677
 21
-544.7267885085272
 31
0.0
  0
LINE
  5
3BF
  8
PREDEFINITO
 10
1723.825304732677
 20
-544.7267885085272
 30
0.0
 11
1717.825304732677
 21
-544.726788508527
 31
0.0
  0
LINE
  5
3C0
  8
PREDEFINITO
 10
1717.825304732677
 20
-544.726788508527
 30
0.0
 11
1717.825304732677
 21
-538.726788508527
 31
0.0
  0
LINE
  5
3C1
  8
PREDEFINITO
 10
1717.825304732677
 20
-538.726788508527
 30
0.0
 11
1723.825304732677
 21
-538.726788508527
 31
0.0
  0
LINE
  5
3C2
  8
PREDEFINITO
 10
1723.825304732677
 20
-538.726788508527
 30
0.0
 11
1723.825304732677
 21
-532.726788508527
 31
0.0
  0
LINE
  5
3C3
  8
PREDEFINITO
 10
1723.825304732677
 20
-532.726788508527
 30
0.0
 11
1717.825304732677
 21
-532.726788508527
 31
0.0
  0
LINE
  5
3C4
  8
PREDEFINITO
 10
1717.825304732677
 20
-532.726788508527
 30
0.0
 11
1717.825304732677
 21
-526.726788508527
 31
0.0
  0
LINE
  5
3C5
  8
PREDEFINITO
 10
1717.825304732677
 20
-526.726788508527
 30
0.0
 11
1723.825304732677
 21
-526.726788508527
 31
0.0
  0
LINE
  5
3C6
  8
PREDEFINITO
 10
1723.825304732677
 20
-526.726788508527
 30
0.0
 11
1723.825304732677
 21
-514.726788508527
 31
0.0
  0
LINE
  5
3C7
  8
PREDEFINITO
 10
1723.825304732677
 20
-514.726788508527
 30
0.0
 11
1717.825304732677
 21
-514.726788508527
 31
0.0
  0
LINE
  5
3C8
  8
PREDEFINITO
 10
1717.825304732677
 20
-514.726788508527
 30
0.0
 11
1717.825304732677
 21
-480.6467885085275
 31
0.0
  0
LINE
  5
3C9
  8
PREDEFINITO
 10
1717.825304732677
 20
-480.6467885085275
 30
0.0
 11
1723.825304732677
 21
-480.6467885085275
 31
0.0
  0
LINE
  5
3CA
  8
PREDEFINITO
 10
1723.825304732677
 20
-480.6467885085275
 30
0.0
 11
1723.825304732677
 21
-468.6467885085275
 31
0.0
  0
LINE
  5
3CB
  8
PREDEFINITO
 10
1723.825304732677
 20
-468.6467885085275
 30
0.0
 11
1717.825304732677
 21
-468.6467885085275
 31
0.0
  0
LINE
  5
3CC
  8
PREDEFINITO
 10
1717.825304732677
 20
-468.6467885085275
 30
0.0
 11
1717.825304732677
 21
-462.6467885085275
 31
0.0
  0
LINE
  5
3CD
  8
PREDEFINITO
 10
1717.825304732677
 20
-462.6467885085275
 30
0.0
 11
1723.825304732677
 21
-462.6467885085275
 31
0.0
  0
LINE
  5
3CE
  8
PREDEFINITO
 10
1723.825304732677
 20
-462.6467885085275
 30
0.0
 11
1723.825304732677
 21
-456.6467885085275
 31
0.0
  0
LINE
  5
3CF
  8
PREDEFINITO
 10
1723.825304732677
 20
-456.6467885085275
 30
0.0
 11
1717.825304732677
 21
-456.6467885085275
 31
0.0
  0
LINE
  5
3D0
  8
PREDEFINITO
 10
1717.825304732677
 20
-456.6467885085275
 30
0.0
 11
1717.825304732677
 21
-450.6467885085275
 31
0.0
  0
LINE
  5
3D1
  8
TUBBBI
 10
1369.745304732697
 20
-925.0267885085271
 30
0.0
 11
1375.745304732697
 21
-925.0267885085271
 31
0.0
  0
LINE
  5
3D2
  8
TUBBBI
 10
1375.745304732697
 20
-925.0267885085271
 30
0.0
 11
1375.745304732697
 21
-937.0267885085271
 31
0.0
  0
LINE
  5
3D3
  8
TUBBBI
 10
1375.745304732697
 20
-937.0267885085271
 30
0.0
 11
1369.745304732697
 21
-937.0267885085271
 31
0.0
  0
LINE
  5
3D4
  8
TUBBBI
 10
1369.745304732697
 20
-937.0267885085271
 30
0.0
 11
1369.745304732697
 21
-925.0267885085271
 31
0.0
  0
LINE
  5
3D5
  8
TUBBBI
 10
1369.745304732697
 20
-979.0267885085267
 30
0.0
 11
1375.745304732697
 21
-979.0267885085267
 31
0.0
  0
LINE
  5
3D6
  8
TUBBBI
 10
1375.745304732697
 20
-979.0267885085267
 30
0.0
 11
1375.745304732697
 21
-991.0267885085267
 31
0.0
  0
LINE
  5
3D7
  8
TUBBBI
 10
1375.745304732697
 20
-991.0267885085267
 30
0.0
 11
1369.745304732697
 21
-991.0267885085267
 31
0.0
  0
LINE
  5
3D8
  8
TUBBBI
 10
1369.745304732697
 20
-991.0267885085267
 30
0.0
 11
1369.745304732697
 21
-979.0267885085267
 31
0.0
  0
LINE
  5
3D9
  8
TUBBBI
 10
1683.825304732677
 20
-979.0267885085267
 30
0.0
 11
1677.825304732677
 21
-979.0267885085267
 31
0.0
  0
LINE
  5
3DA
  8
TUBBBI
 10
1677.825304732677
 20
-979.0267885085267
 30
0.0
 11
1677.825304732677
 21
-991.0267885085267
 31
0.0
  0
LINE
  5
3DB
  8
TUBBBI
 10
1677.825304732677
 20
-991.0267885085267
 30
0.0
 11
1683.825304732677
 21
-991.0267885085267
 31
0.0
  0
LINE
  5
3DC
  8
TUBBBI
 10
1683.825304732677
 20
-991.0267885085267
 30
0.0
 11
1683.825304732677
 21
-979.0267885085267
 31
0.0
  0
LINE
  5
3DD
  8
TUBBBI
 10
1683.825304732677
 20
-925.0267885085271
 30
0.0
 11
1677.825304732677
 21
-925.0267885085271
 31
0.0
  0
LINE
  5
3DE
  8
TUBBBI
 10
1677.825304732677
 20
-925.0267885085271
 30
0.0
 11
1677.825304732677
 21
-937.0267885085271
 31
0.0
  0
LINE
  5
3DF
  8
TUBBBI
 10
1677.825304732677
 20
-937.0267885085271
 30
0.0
 11
1683.825304732677
 21
-937.0267885085271
 31
0.0
  0
LINE
  5
3E0
  8
TUBBBI
 10
1683.825304732677
 20
-937.0267885085271
 30
0.0
 11
1683.825304732677
 21
-925.0267885085271
 31
0.0
  0
LINE
  5
3E1
  8
TUBBBI
 10
1683.825304732677
 20
-949.0267885085271
 30
0.0
 11
1677.825304732677
 21
-949.0267885085271
 31
0.0
  0
LINE
  5
3E2
  8
TUBBBI
 10
1677.825304732677
 20
-949.0267885085271
 30
0.0
 11
1677.825304732677
 21
-967.0267885085267
 31
0.0
  0
LINE
  5
3E3
  8
TUBBBI
 10
1677.825304732677
 20
-967.0267885085267
 30
0.0
 11
1683.825304732677
 21
-967.0267885085267
 31
0.0
  0
LINE
  5
3E4
  8
TUBBBI
 10
1683.825304732677
 20
-967.0267885085267
 30
0.0
 11
1683.825304732677
 21
-949.0267885085271
 31
0.0
  0
LINE
  5
3E5
  8
TUBBBI
 10
1363.84123751271
 20
-556.726788508527
 30
0.0
 11
1347.745304732697
 21
-556.726788508527
 31
0.0
  0
LINE
  5
3E6
  8
TUBBBI
 10
1347.745304732697
 20
-556.726788508527
 30
0.0
 11
1347.745304732697
 21
-550.726788508527
 31
0.0
  0
LINE
  5
3E7
  8
TUBBBI
 10
1347.745304732697
 20
-550.726788508527
 30
0.0
 11
1363.84123751271
 21
-550.726788508527
 31
0.0
  0
LINE
  5
3E8
  8
TUBBBI
 10
1363.84123751271
 20
-550.726788508527
 30
0.0
 11
1363.84123751271
 21
-556.726788508527
 31
0.0
  0
LINE
  5
3E9
  8
TUBBBI
 10
1677.729371952664
 20
-556.726788508527
 30
0.0
 11
1683.729371952664
 21
-556.726788508527
 31
0.0
  0
LINE
  5
3EA
  8
TUBBBI
 10
1683.729371952664
 20
-556.726788508527
 30
0.0
 11
1683.729371952664
 21
-550.726788508527
 31
0.0
  0
LINE
  5
3EB
  8
TUBBBI
 10
1683.729371952664
 20
-550.726788508527
 30
0.0
 11
1677.729371952664
 21
-550.726788508527
 31
0.0
  0
LINE
  5
3EC
  8
TUBBBI
 10
1677.729371952664
 20
-550.726788508527
 30
0.0
 11
1677.729371952664
 21
-556.726788508527
 31
0.0
  0
LINE
  5
3ED
  8
TUBBBI
 10
1689.729371952664
 20
-556.726788508527
 30
0.0
 11
1705.825304732677
 21
-556.726788508527
 31
0.0
  0
LINE
  5
3EE
  8
TUBBBI
 10
1705.825304732677
 20
-556.726788508527
 30
0.0
 11
1705.825304732677
 21
-550.726788508527
 31
0.0
  0
LINE
  5
3EF
  8
TUBBBI
 10
1705.825304732677
 20
-550.726788508527
 30
0.0
 11
1689.729371952664
 21
-550.726788508527
 31
0.0
  0
LINE
  5
3F0
  8
TUBBBI
 10
1689.729371952664
 20
-550.726788508527
 30
0.0
 11
1689.729371952664
 21
-556.726788508527
 31
0.0
  0
LINE
  5
3F1
  8
TUBBBI
 10
1375.84123751271
 20
-556.726788508527
 30
0.0
 11
1369.84123751271
 21
-556.726788508527
 31
0.0
  0
LINE
  5
3F2
  8
TUBBBI
 10
1369.84123751271
 20
-556.726788508527
 30
0.0
 11
1369.84123751271
 21
-550.726788508527
 31
0.0
  0
LINE
  5
3F3
  8
TUBBBI
 10
1369.84123751271
 20
-550.726788508527
 30
0.0
 11
1375.84123751271
 21
-550.726788508527
 31
0.0
  0
LINE
  5
3F4
  8
TUBBBI
 10
1375.84123751271
 20
-550.726788508527
 30
0.0
 11
1375.84123751271
 21
-556.726788508527
 31
0.0
  0
LINE
  5
3F5
  8
TUBBBI
 10
1375.84123751271
 20
-904.9867885085272
 30
0.0
 11
1369.84123751271
 21
-904.9867885085272
 31
0.0
  0
LINE
  5
3F6
  8
TUBBBI
 10
1369.84123751271
 20
-904.9867885085272
 30
0.0
 11
1369.84123751271
 21
-910.9867885085272
 31
0.0
  0
LINE
  5
3F7
  8
TUBBBI
 10
1369.84123751271
 20
-910.9867885085272
 30
0.0
 11
1375.84123751271
 21
-910.9867885085272
 31
0.0
  0
LINE
  5
3F8
  8
TUBBBI
 10
1375.84123751271
 20
-910.9867885085272
 30
0.0
 11
1375.84123751271
 21
-904.9867885085272
 31
0.0
  0
LINE
  5
3F9
  8
TUBBBI
 10
1689.729371952664
 20
-904.9867885085272
 30
0.0
 11
1705.825304732677
 21
-904.9867885085272
 31
0.0
  0
LINE
  5
3FA
  8
TUBBBI
 10
1705.825304732677
 20
-904.9867885085272
 30
0.0
 11
1705.825304732677
 21
-910.9867885085272
 31
0.0
  0
LINE
  5
3FB
  8
TUBBBI
 10
1705.825304732677
 20
-910.9867885085272
 30
0.0
 11
1689.729371952664
 21
-910.9867885085272
 31
0.0
  0
LINE
  5
3FC
  8
TUBBBI
 10
1689.729371952664
 20
-910.9867885085272
 30
0.0
 11
1689.729371952664
 21
-904.9867885085272
 31
0.0
  0
LINE
  5
3FD
  8
TUBBBI
 10
1677.729371952664
 20
-904.9867885085272
 30
0.0
 11
1683.729371952664
 21
-904.9867885085272
 31
0.0
  0
LINE
  5
3FE
  8
TUBBBI
 10
1683.729371952664
 20
-904.9867885085272
 30
0.0
 11
1683.729371952664
 21
-910.9867885085272
 31
0.0
  0
LINE
  5
3FF
  8
TUBBBI
 10
1683.729371952664
 20
-910.9867885085272
 30
0.0
 11
1677.729371952664
 21
-910.9867885085272
 31
0.0
  0
LINE
  5
400
  8
TUBBBI
 10
1677.729371952664
 20
-910.9867885085272
 30
0.0
 11
1677.729371952664
 21
-904.9867885085272
 31
0.0
  0
LINE
  5
401
  8
TUBBBI
 10
1363.84123751271
 20
-904.9867885085272
 30
0.0
 11
1347.745304732697
 21
-904.9867885085272
 31
0.0
  0
LINE
  5
402
  8
TUBBBI
 10
1347.745304732697
 20
-904.9867885085272
 30
0.0
 11
1347.745304732697
 21
-910.9867885085272
 31
0.0
  0
LINE
  5
403
  8
TUBBBI
 10
1347.745304732697
 20
-910.9867885085272
 30
0.0
 11
1363.84123751271
 21
-910.9867885085272
 31
0.0
  0
LINE
  5
404
  8
TUBBBI
 10
1363.84123751271
 20
-910.9867885085272
 30
0.0
 11
1363.84123751271
 21
-904.9867885085272
 31
0.0
  0
LINE
  5
405
  8
TUBBBI
 10
1683.825304732677
 20
-512.686788508527
 30
0.0
 11
1677.825304732677
 21
-512.686788508527
 31
0.0
  0
LINE
  5
406
  8
TUBBBI
 10
1677.825304732677
 20
-512.686788508527
 30
0.0
 11
1677.825304732677
 21
-494.6867885085275
 31
0.0
  0
LINE
  5
407
  8
TUBBBI
 10
1677.825304732677
 20
-494.6867885085275
 30
0.0
 11
1683.825304732677
 21
-494.6867885085275
 31
0.0
  0
LINE
  5
408
  8
TUBBBI
 10
1683.825304732677
 20
-494.6867885085275
 30
0.0
 11
1683.825304732677
 21
-512.686788508527
 31
0.0
  0
LINE
  5
409
  8
TUBBBI
 10
1683.825304732677
 20
-482.6867885085275
 30
0.0
 11
1677.825304732677
 21
-482.6867885085275
 31
0.0
  0
LINE
  5
40A
  8
TUBBBI
 10
1677.825304732677
 20
-482.6867885085275
 30
0.0
 11
1677.825304732677
 21
-470.6867885085275
 31
0.0
  0
LINE
  5
40B
  8
TUBBBI
 10
1677.825304732677
 20
-470.6867885085275
 30
0.0
 11
1683.825304732677
 21
-470.6867885085275
 31
0.0
  0
LINE
  5
40C
  8
TUBBBI
 10
1683.825304732677
 20
-470.6867885085275
 30
0.0
 11
1683.825304732677
 21
-482.6867885085275
 31
0.0
  0
LINE
  5
40D
  8
TUBBBI
 10
1369.745304732697
 20
-482.6867885085275
 30
0.0
 11
1375.745304732697
 21
-482.6867885085275
 31
0.0
  0
LINE
  5
40E
  8
TUBBBI
 10
1375.745304732697
 20
-482.6867885085275
 30
0.0
 11
1375.745304732697
 21
-470.6867885085275
 31
0.0
  0
LINE
  5
40F
  8
TUBBBI
 10
1375.745304732697
 20
-470.6867885085275
 30
0.0
 11
1369.745304732697
 21
-470.6867885085275
 31
0.0
  0
LINE
  5
410
  8
TUBBBI
 10
1369.745304732697
 20
-470.6867885085275
 30
0.0
 11
1369.745304732697
 21
-482.6867885085275
 31
0.0
  0
LINE
  5
411
  8
TUBBBI
 10
1369.745304732697
 20
-536.686788508527
 30
0.0
 11
1375.745304732697
 21
-536.686788508527
 31
0.0
  0
LINE
  5
412
  8
TUBBBI
 10
1375.745304732697
 20
-536.686788508527
 30
0.0
 11
1375.745304732697
 21
-524.686788508527
 31
0.0
  0
LINE
  5
413
  8
TUBBBI
 10
1375.745304732697
 20
-524.686788508527
 30
0.0
 11
1369.745304732697
 21
-524.686788508527
 31
0.0
  0
LINE
  5
414
  8
TUBBBI
 10
1369.745304732697
 20
-524.686788508527
 30
0.0
 11
1369.745304732697
 21
-536.686788508527
 31
0.0
  0
LINE
  5
415
  8
TUBBBI
 10
1369.745304732697
 20
-512.686788508527
 30
0.0
 11
1375.745304732697
 21
-512.686788508527
 31
0.0
  0
LINE
  5
416
  8
TUBBBI
 10
1375.745304732697
 20
-512.686788508527
 30
0.0
 11
1375.745304732697
 21
-494.6867885085275
 31
0.0
  0
LINE
  5
417
  8
TUBBBI
 10
1375.745304732697
 20
-494.6867885085275
 30
0.0
 11
1369.745304732697
 21
-494.6867885085275
 31
0.0
  0
LINE
  5
418
  8
TUBBBI
 10
1369.745304732697
 20
-494.6867885085275
 30
0.0
 11
1369.745304732697
 21
-512.686788508527
 31
0.0
  0
LINE
  5
419
  8
TUBBBI
 10
1369.745304732697
 20
-949.0267885085271
 30
0.0
 11
1375.745304732697
 21
-949.0267885085271
 31
0.0
  0
LINE
  5
41A
  8
TUBBBI
 10
1375.745304732697
 20
-949.0267885085271
 30
0.0
 11
1375.745304732697
 21
-967.0267885085267
 31
0.0
  0
LINE
  5
41B
  8
TUBBBI
 10
1375.745304732697
 20
-967.0267885085267
 30
0.0
 11
1369.745304732697
 21
-967.0267885085267
 31
0.0
  0
LINE
  5
41C
  8
TUBBBI
 10
1369.745304732697
 20
-967.0267885085267
 30
0.0
 11
1369.745304732697
 21
-949.0267885085271
 31
0.0
  0
LINE
  5
41D
  8
TUBBBI
 10
1683.825304732677
 20
-536.686788508527
 30
0.0
 11
1677.825304732677
 21
-536.686788508527
 31
0.0
  0
LINE
  5
41E
  8
TUBBBI
 10
1677.825304732677
 20
-536.686788508527
 30
0.0
 11
1677.825304732677
 21
-524.686788508527
 31
0.0
  0
LINE
  5
41F
  8
TUBBBI
 10
1677.825304732677
 20
-524.686788508527
 30
0.0
 11
1683.825304732677
 21
-524.686788508527
 31
0.0
  0
LINE
  5
420
  8
TUBBBI
 10
1683.825304732677
 20
-524.686788508527
 30
0.0
 11
1683.825304732677
 21
-536.686788508527
 31
0.0
  0
LINE
  5
421
  8
TUBBBI
 10
1335.745304732697
 20
-910.9867885085272
 30
0.0
 11
1329.745304732697
 21
-910.9867885085272
 31
0.0
  0
ENDSEC
  0
EOF
