0
SECTION
2
HEADER
9
$INSUNITS
70
4
9
$ACADVER
1
AC1014
9
$HANDSEED
5
FFFF
0
ENDSEC
0
SECTION
2
TABLES
0
TABLE
2
VPORT
5
8
100
AcDbSymbolTable
0
ENDTAB
0
TABLE
2
LTYPE
5
5
100
AcDbSymbolTable
0
LTYPE
5
14
100
AcDbSymbolTableRecord
100
AcDbLinetypeTableRecord
2
BYBLOCK
70
0
0
LTYPE
5
15
100
AcDbSymbolTableRecord
100
AcDbLinetypeTableRecord
2
BYLAYER
70
0
0
ENDTAB
0
TABLE
2
LAYER
5
2
100
AcDbSymbolTable
70
2
0
LAYER
5
50
100
AcDbSymbolTableRecord
100
AcDbLayerTableRecord
2
0
70
0
6
CONTINUOUS
0
ENDTAB
0
TABLE
2
STYLE
5
3
100
AcDbSymbolTable
70
1
0
STYLE
5
11
100
AcDbSymbolTableRecord
100
AcDbTextStyleTableRecord
2
STANDARD
70
0
0
ENDTAB
0
TABLE
2
VIEW
5
6
100
AcDbSymbolTable
70
0
0
ENDTAB
0
TABLE
2
UCS
5
7
100
AcDbSymbolTable
70
0
0
ENDTAB
0
TABLE
2
APPID
5
9
100
AcDbSymbolTable
70
2
0
APPID
5
12
100
AcDbSymbolTableRecord
100
AcDbRegAppTableRecord
2
ACAD
70
0
0
ENDTAB
0
TABLE
2
DIMSTYLE
5
A
100
AcDbSymbolTable
70
1
0
ENDTAB
0
TABLE
2
BLOCK_RECORD
5
1
100
AcDbSymbolTable
70
1
0
BLOCK_RECORD
5
1F
100
AcDbSymbolTableRecord
100
AcDbBlockTableRecord
2
*MODEL_SPACE
0
BLOCK_RECORD
5
1B
100
AcDbSymbolTableRecord
100
AcDbBlockTableRecord
2
*PAPER_SPACE
0
ENDTAB
0
ENDSEC
0
SECTION
2
BLOCKS
0
BLOCK
5
20
100
AcDbEntity
100
AcDbBlockBegin
2
*MODEL_SPACE
0
ENDBLK
5
21
100
AcDbEntity
100
AcDbBlockEnd
0
BLOCK
5
1C
100
AcDbEntity
100
AcDbBlockBegin
2
*PAPER_SPACE
0
ENDBLK
5
1D
100
AcDbEntity
100
AcDbBlockEnd
0
ENDSEC
0
SECTION
2
ENTITIES
0
LWPOLYLINE
5
100
100
AcDbEntity
8
0
100
AcDbPolyline
90
40
70
1
43
0.0
10
239.00000000000003
20
-11
10
200
20
-11
10
200
20
-23
10
215
20
-23
10
215
20
-25.999999999999996
10
200
20
-25.999999999999996
10
200
20
-30
10
215
20
-30
10
215
20
-33
10
200
20
-33
10
200
20
-37
10
215
20
-37
10
215
20
-39.999999999999993
10
200
20
-39.999999999999993
10
200
20
-43.999999999999993
10
215
20
-43.999999999999993
10
215
20
-46.999999999999993
10
200
20
-46.999999999999993
10
200
20
-51
10
215
20
-51
10
215
20
-53.999999999999993
10
200
20
-53.999999999999993
10
200
20
-58
10
215
20
-58
10
215
20
-61
10
200
20
-61
10
200
20
-81
10
215
20
-81
10
215
20
-87
10
200
20
-87
10
200
20
-90
10
230
20
-90
10
230
20
-55
10
233
20
-55
10
233
20
-90
10
239.00000000000003
20
-90
10
239.00000000000003
20
-20
10
219.50000000000003
20
-20
10
219.50000000000003
20
-17
10
239.00000000000003
20
-17
0
LINE
5
101
100
AcDbEntity
8
0
100
AcDbLine
10
200
20
-23
30
0
11
200
21
-11
31
0
0
LINE
5
102
100
AcDbEntity
8
0
100
AcDbLine
10
239.00000000000003
20
-90
30
0
11
233
21
-90
31
0
0
LWPOLYLINE
5
103
100
AcDbEntity
8
0
100
AcDbPolyline
90
12
70
1
43
0.0
10
197
20
-200
10
377
20
-200
10
377
20
-130
10
371.00000000000011
20
-130
10
371.00000000000011
20
-165
10
368.00000000000011
20
-165
10
368.00000000000011
20
-130
10
206
20
-130
10
206
20
-165
10
203
20
-165
10
203
20
-130
10
197
20
-130
0
LINE
5
104
100
AcDbEntity
8
0
100
AcDbLine
10
371.00000000000011
20
-130
30
0
11
377
21
-130
31
0
0
CIRCLE
5
105
100
AcDbEntity
8
0
100
AcDbCircle
10
228.98599948216196
20
-160.39073506934002
30
0
40
3.4999999999999947
0
LWPOLYLINE
5
106
100
AcDbEntity
8
0
100
AcDbPolyline
90
16
70
1
43
0.0
10
203
20
-245
10
206
20
-245
10
206
20
-210
10
240
20
-210
10
243
20
-210
10
339.00000000000011
20
-210
10
342.00000000000011
20
-210
10
368.00000000000011
20
-210
10
368.00000000000011
20
-245
10
371.00000000000011
20
-245
10
371.00000000000011
20
-210
10
377
20
-210
10
377
20
-280
10
197
20
-280
10
197
20
-210
10
203
20
-210
0
LINE
5
107
100
AcDbEntity
8
0
100
AcDbLine
10
377
20
-210
30
0
11
371.00000000000011
21
-210
31
0
0
LINE
5
108
100
AcDbEntity
8
0
100
AcDbLine
10
-42.818925475575575
20
-20.850924366000257
30
0
11
15.181076908610223
21
-20.850924366000257
31
0
0
LINE
5
109
100
AcDbEntity
8
0
100
AcDbLine
10
-94.818925475575568
20
-36.850924366000243
30
0
11
-97.818925475575583
21
-36.850924366000243
31
0
0
LINE
5
110
100
AcDbEntity
8
0
100
AcDbLine
10
-94.818925475575568
20
-20.850924366000264
30
0
11
-94.818925475575568
21
-36.850924366000243
31
0
0
LINE
5
111
100
AcDbEntity
8
0
100
AcDbLine
10
-103.81892547557558
20
-20.850924366000264
30
0
11
-97.818925475575583
21
-20.850924366000264
31
0
0
LINE
5
112
100
AcDbEntity
8
0
100
AcDbLine
10
-94.818925475575568
20
-80.850924366000271
30
0
11
-94.818925475575568
21
-64.850924366000271
31
0
0
LINE
5
113
100
AcDbEntity
8
0
100
AcDbLine
10
-94.818925475575568
20
-64.850924366000271
30
0
11
-97.818925475575583
21
-64.850924366000271
31
0
0
LINE
5
114
100
AcDbEntity
8
0
100
AcDbLine
10
-97.818925475575583
20
-64.850924366000271
30
0
11
-97.818925475575583
21
-80.850924366000271
31
0
0
LINE
5
115
100
AcDbEntity
8
0
100
AcDbLine
10
15.181076908610223
20
-20.850924366000257
30
0
11
67.181074524424446
21
-20.850924366000257
31
0
0
LINE
5
116
100
AcDbEntity
8
0
100
AcDbLine
10
76.181076908610223
20
-20.850924366000257
30
0
11
76.181076908610223
21
-80.850924366000271
31
0
0
LINE
5
117
100
AcDbEntity
8
0
100
AcDbLine
10
-103.81892547557558
20
-20.850924366000264
30
0
11
-103.81892547557558
21
-80.850924366000271
31
0
0
LINE
5
118
100
AcDbEntity
8
0
100
AcDbLine
10
-42.818925475575575
20
-20.850924366000257
30
0
11
-94.818925475575568
21
-20.850924366000264
31
0
0
LWPOLYLINE
5
119
100
AcDbEntity
8
0
100
AcDbPolyline
90
4
70
1
43
0.0
10
-32.81892428348268
20
-31.850925558093159
10
-32.81892428348268
20
-69.850925558093167
10
5.1810757165173271
20
-69.850925558093167
10
5.1810757165173271
20
-31.850925558093159
0
LINE
5
120
100
AcDbEntity
8
0
100
AcDbLine
10
76.181076908610223
20
-80.850924366000271
30
0
11
70.181074524424432
21
-80.850924366000271
31
0
0
LINE
5
121
100
AcDbEntity
8
0
100
AcDbLine
10
-103.81892547557558
20
-80.850924366000271
30
0
11
-97.818925475575583
21
-80.850924366000271
31
0
0
LINE
5
122
100
AcDbEntity
8
0
100
AcDbLine
10
70.181074524424432
20
-36.850924366000264
30
0
11
70.181074524424432
21
-20.850924366000257
31
0
0
LINE
5
123
100
AcDbEntity
8
0
100
AcDbLine
10
67.181074524424446
20
-80.850924366000271
30
0
11
15.181076908610223
21
-80.850924366000271
31
0
0
LINE
5
124
100
AcDbEntity
8
0
100
AcDbLine
10
67.181074524424446
20
-80.850924366000271
30
0
11
67.181074524424446
21
-64.850924366000271
31
0
0
LINE
5
125
100
AcDbEntity
8
0
100
AcDbLine
10
67.181074524424446
20
-20.850924366000257
30
0
11
67.181074524424446
21
-36.850924366000264
31
0
0
LINE
5
126
100
AcDbEntity
8
0
100
AcDbLine
10
67.181074524424446
20
-64.850924366000271
30
0
11
70.181074524424432
21
-64.850924366000271
31
0
0
LINE
5
127
100
AcDbEntity
8
0
100
AcDbLine
10
15.181076908610223
20
-80.850926750186062
30
0
11
-42.818925475575575
21
-80.850926750186062
31
0
0
LINE
5
128
100
AcDbEntity
8
0
100
AcDbLine
10
67.181074524424446
20
-36.850924366000264
30
0
11
70.181074524424432
21
-36.850924366000264
31
0
0
LINE
5
129
100
AcDbEntity
8
0
100
AcDbLine
10
70.181074524424432
20
-64.850924366000271
30
0
11
70.181074524424432
21
-80.850924366000271
31
0
0
LINE
5
130
100
AcDbEntity
8
0
100
AcDbLine
10
-94.818925475575568
20
-80.850924366000271
30
0
11
-42.818925475575575
21
-80.850924366000271
31
0
0
LINE
5
131
100
AcDbEntity
8
0
100
AcDbLine
10
-97.818925475575583
20
-36.850924366000243
30
0
11
-97.818925475575583
21
-20.850924366000264
31
0
0
LINE
5
132
100
AcDbEntity
8
0
100
AcDbLine
10
70.181074524424432
20
-20.850924366000257
30
0
11
76.181076908610223
21
-20.850924366000257
31
0
0
LINE
5
133
100
AcDbEntity
8
0
100
AcDbLine
10
-103.81892547557558
20
-285.85092436600024
30
0
11
-103.81892547557558
21
-345.8509243660003
31
0
0
LINE
5
134
100
AcDbEntity
8
0
100
AcDbLine
10
70.181074524424432
20
-285.85092436600024
30
0
11
76.181076908610223
21
-285.85092436600024
31
0
0
LINE
5
135
100
AcDbEntity
8
0
100
AcDbLine
10
-97.818925475575583
20
-301.85092436600024
30
0
11
-97.818925475575583
21
-285.85092436600024
31
0
0
LINE
5
136
100
AcDbEntity
8
0
100
AcDbLine
10
-94.818925475575568
20
-345.8509243660003
30
0
11
-42.818925475575575
21
-345.8509243660003
31
0
0
LINE
5
137
100
AcDbEntity
8
0
100
AcDbLine
10
67.181074524424446
20
-329.8509243660003
30
0
11
70.181074524424432
21
-329.8509243660003
31
0
0
LINE
5
138
100
AcDbEntity
8
0
100
AcDbLine
10
76.181076908610223
20
-345.8509243660003
30
0
11
70.181074524424432
21
-345.8509243660003
31
0
0
LINE
5
139
100
AcDbEntity
8
0
100
AcDbLine
10
67.181074524424446
20
-301.85092436600024
30
0
11
70.181074524424432
21
-301.85092436600024
31
0
0
LINE
5
140
100
AcDbEntity
8
0
100
AcDbLine
10
76.181076908610223
20
-285.85092436600024
30
0
11
76.181076908610223
21
-345.8509243660003
31
0
0
LINE
5
141
100
AcDbEntity
8
0
100
AcDbLine
10
-42.818925475575575
20
-285.85092436600024
30
0
11
-94.818925475575568
21
-285.85092436600024
31
0
0
LINE
5
142
100
AcDbEntity
8
0
100
AcDbLine
10
67.181074524424446
20
-345.8509243660003
30
0
11
67.181074524424446
21
-329.8509243660003
31
0
0
LINE
5
143
100
AcDbEntity
8
0
100
AcDbLine
10
70.181074524424432
20
-301.85092436600024
30
0
11
70.181074524424432
21
-285.85092436600024
31
0
0
LINE
5
144
100
AcDbEntity
8
0
100
AcDbLine
10
-94.818925475575568
20
-329.8509243660003
30
0
11
-97.818925475575583
21
-329.8509243660003
31
0
0
LINE
5
145
100
AcDbEntity
8
0
100
AcDbLine
10
-103.81892547557558
20
-285.85092436600024
30
0
11
-97.818925475575583
21
-285.85092436600024
31
0
0
LINE
5
146
100
AcDbEntity
8
0
100
AcDbLine
10
70.181074524424432
20
-329.8509243660003
30
0
11
70.181074524424432
21
-345.8509243660003
31
0
0
LINE
5
147
100
AcDbEntity
8
0
100
AcDbLine
10
67.181074524424446
20
-345.8509243660003
30
0
11
15.181076908610223
21
-345.8509243660003
31
0
0
LINE
5
148
100
AcDbEntity
8
0
100
AcDbLine
10
67.181074524424446
20
-285.85092436600024
30
0
11
67.181074524424446
21
-301.85092436600024
31
0
0
LINE
5
149
100
AcDbEntity
8
0
100
AcDbLine
10
15.181076908610223
20
-285.85092436600024
30
0
11
67.181074524424446
21
-285.85092436600024
31
0
0
LINE
5
150
100
AcDbEntity
8
0
100
AcDbLine
10
-42.818925475575575
20
-285.85092436600024
30
0
11
15.181076908610223
21
-285.85092436600024
31
0
0
LINE
5
151
100
AcDbEntity
8
0
100
AcDbLine
10
-94.818925475575568
20
-301.85092436600024
30
0
11
-97.818925475575583
21
-301.85092436600024
31
0
0
LINE
5
152
100
AcDbEntity
8
0
100
AcDbLine
10
15.181076908610223
20
-345.85092675018609
30
0
11
-42.818925475575575
21
-345.85092675018609
31
0
0
LINE
5
153
100
AcDbEntity
8
0
100
AcDbLine
10
-103.81892547557558
20
-345.8509243660003
30
0
11
-97.818925475575583
21
-345.8509243660003
31
0
0
LINE
5
154
100
AcDbEntity
8
0
100
AcDbLine
10
-94.818925475575568
20
-345.8509243660003
30
0
11
-94.818925475575568
21
-329.8509243660003
31
0
0
LINE
5
155
100
AcDbEntity
8
0
100
AcDbLine
10
-97.818925475575583
20
-329.8509243660003
30
0
11
-97.818925475575583
21
-345.8509243660003
31
0
0
LINE
5
156
100
AcDbEntity
8
0
100
AcDbLine
10
-94.818925475575568
20
-285.85092436600024
30
0
11
-94.818925475575568
21
-301.85092436600024
31
0
0
LWPOLYLINE
5
157
100
AcDbEntity
8
0
100
AcDbPolyline
90
4
70
1
43
0.0
10
321
20
-140
10
250
20
-140
10
250
20
-164
10
321
20
-164
0
LINE
5
158
100
AcDbEntity
8
0
100
AcDbLine
10
261.00696473675606
20
-319.94716503071419
30
0
11
262.00696473675612
21
-319.94716503071419
31
0
0
LINE
5
159
100
AcDbEntity
8
0
100
AcDbLine
10
262.00696473675612
20
-322.51859360214274
30
0
11
265.50696472185496
21
-322.51859360214274
31
0
0
LINE
5
160
100
AcDbEntity
8
0
100
AcDbLine
10
262.00696473675612
20
-325.09002217357136
30
0
11
265.50696472185496
21
-325.09002217357136
31
0
0
LINE
5
161
100
AcDbEntity
8
0
100
AcDbLine
10
265.50696472185496
20
-318.7471650307142
30
0
11
265.50696472185501
21
-307.33817507610803
31
0
0
LINE
5
162
100
AcDbEntity
8
0
100
AcDbLine
10
265.50696472185496
20
-321.31859360214276
30
0
11
265.50696472185496
21
-319.94716503071419
31
0
0
LINE
5
163
100
AcDbEntity
8
0
100
AcDbLine
10
288.24083191010584
20
-302.83817509100919
30
0
11
288.24083191010584
21
-303.83817509100925
31
0
0
LINE
5
164
100
AcDbEntity
8
0
100
AcDbLine
10
265.50696472185496
20
-323.89002217357137
30
0
11
265.50696472185496
21
-322.51859360214274
31
0
0
LINE
5
165
100
AcDbEntity
8
0
100
AcDbLine
10
280.50696472185496
20
-307.33817507610803
30
0
11
281.8979747672488
21
-307.33817507610803
31
0
0
LINE
5
166
100
AcDbEntity
8
0
100
AcDbLine
10
283.09797476724873
20
-302.83817509100919
30
0
11
283.09797476724873
21
-303.83817509100925
31
0
0
LINE
5
167
100
AcDbEntity
8
0
100
AcDbLine
10
285.66940333867734
20
-307.33817507610803
30
0
11
287.04083191010591
21
-307.33817507610803
31
0
0
LINE
5
168
100
AcDbEntity
8
0
100
AcDbLine
10
284.46940333867735
20
-303.83817509100925
30
0
11
284.46940333867735
21
-307.33817507610803
31
0
0
LINE
5
169
100
AcDbEntity
8
0
100
AcDbLine
10
283.09797476724873
20
-303.83817509100925
30
0
11
283.09797476724873
21
-307.33817507610803
31
0
0
LINE
5
170
100
AcDbEntity
8
0
100
AcDbLine
10
281.8979747672488
20
-302.83817509100919
30
0
11
281.8979747672488
21
-307.33817507610803
31
0
0
LINE
5
171
100
AcDbEntity
8
0
100
AcDbLine
10
261.00696473675606
20
-327.66145074499991
30
0
11
262.00696473675612
21
-327.66145074499991
31
0
0
LINE
5
172
100
AcDbEntity
8
0
100
AcDbLine
10
285.66940333867734
20
-303.83817509100925
30
0
11
285.66940333867734
21
-307.33817507610803
31
0
0
LINE
5
173
100
AcDbEntity
8
0
100
AcDbLine
10
289.61226048153446
20
-302.83817509100919
30
0
11
289.61226048153446
21
-303.83817509100925
31
0
0
LINE
5
174
100
AcDbEntity
8
0
100
AcDbLine
10
261.00696473675606
20
-323.89002217357137
30
0
11
262.00696473675612
21
-323.89002217357137
31
0
0
LINE
5
175
100
AcDbEntity
8
0
100
AcDbLine
10
261.00696473675606
20
-321.31859360214276
30
0
11
262.00696473675612
21
-321.31859360214276
31
0
0
LINE
5
176
100
AcDbEntity
8
0
100
AcDbLine
10
261.00696473675606
20
-322.51859360214274
30
0
11
262.00696473675612
21
-322.51859360214274
31
0
0
LINE
5
177
100
AcDbEntity
8
0
100
AcDbLine
10
262.00696473675612
20
-323.89002217357137
30
0
11
265.50696472185496
21
-323.89002217357137
31
0
0
LINE
5
178
100
AcDbEntity
8
0
100
AcDbLine
10
262.00696473675612
20
-321.31859360214276
30
0
11
265.50696472185496
21
-321.31859360214276
31
0
0
LINE
5
179
100
AcDbEntity
8
0
100
AcDbLine
10
265.50696472185496
20
-326.46145074499998
30
0
11
265.50696472185496
21
-325.09002217357136
31
0
0
LINE
5
180
100
AcDbEntity
8
0
100
AcDbLine
10
261.00696473675606
20
-326.46145074499998
30
0
11
262.00696473675612
21
-326.46145074499998
31
0
0
LINE
5
181
100
AcDbEntity
8
0
100
AcDbLine
10
289.61226048153446
20
-303.83817509100925
30
0
11
289.61226048153446
21
-307.33817507610803
31
0
0
LINE
5
182
100
AcDbEntity
8
0
100
AcDbLine
10
288.24083191010584
20
-303.83817509100925
30
0
11
288.24083191010584
21
-307.33817507610803
31
0
0
LINE
5
183
100
AcDbEntity
8
0
100
AcDbLine
10
287.04083191010591
20
-303.83817509100925
30
0
11
287.04083191010591
21
-307.33817507610803
31
0
0
ARC
5
184
100
AcDbEntity
8
0
100
AcDbCircle
10
290.21226048153449
20
-302.83817509100919
30
0
40
0.59999999999998721
100
AcDbArc
50
0
51
180
0
LINE
5
185
100
AcDbEntity
8
0
100
AcDbLine
10
261.00696473675606
20
-325.09002217357136
30
0
11
262.00696473675612
21
-325.09002217357136
31
0
0
LINE
5
186
100
AcDbEntity
8
0
100
AcDbLine
10
262.00696473675612
20
-326.46145074499998
30
0
11
265.50696472185496
21
-326.46145074499998
31
0
0
LINE
5
187
100
AcDbEntity
8
0
100
AcDbLine
10
290.81226048153445
20
-303.83817509100925
30
0
11
290.81226048153445
21
-307.33817507610803
31
0
0
LINE
5
188
100
AcDbEntity
8
0
100
AcDbLine
10
284.46940333867735
20
-302.83817509100919
30
0
11
284.46940333867735
21
-303.83817509100925
31
0
0
LINE
5
189
100
AcDbEntity
8
0
100
AcDbLine
10
262.00696473675612
20
-319.94716503071419
30
0
11
265.50696472185496
21
-319.94716503071419
31
0
0
ARC
5
190
100
AcDbEntity
8
0
100
AcDbCircle
10
261.00696473675606
20
-319.34716503071422
30
0
40
0.59999999999998721
100
AcDbArc
50
90
51
270
0
LINE
5
191
100
AcDbEntity
8
0
100
AcDbLine
10
262.00696473675612
20
-318.7471650307142
30
0
11
265.50696472185496
21
-318.7471650307142
31
0
0
ARC
5
192
100
AcDbEntity
8
0
100
AcDbCircle
10
282.49797476724876
20
-302.83817509100919
30
0
40
0.59999999999998721
100
AcDbArc
50
0
51
180
0
LINE
5
193
100
AcDbEntity
8
0
100
AcDbLine
10
261.00696473675606
20
-318.7471650307142
30
0
11
262.00696473675612
21
-318.7471650307142
31
0
0
LINE
5
194
100
AcDbEntity
8
0
100
AcDbLine
10
262.00696473675612
20
-327.66145074499991
30
0
11
265.50696472185496
21
-327.66145074499991
31
0
0
LINE
5
195
100
AcDbEntity
8
0
100
AcDbLine
10
288.24083191010584
20
-307.33817507610803
30
0
11
289.61226048153446
21
-307.33817507610803
31
0
0
LINE
5
196
100
AcDbEntity
8
0
100
AcDbLine
10
290.81226048153445
20
-302.83817509100919
30
0
11
290.81226048153445
21
-303.83817509100925
31
0
0
LINE
5
197
100
AcDbEntity
8
0
100
AcDbLine
10
285.66940333867734
20
-302.83817509100919
30
0
11
285.66940333867734
21
-303.83817509100925
31
0
0
ARC
5
198
100
AcDbEntity
8
0
100
AcDbCircle
10
287.64083191010593
20
-302.83817509100919
30
0
40
0.59999999999995168
100
AcDbArc
50
0
51
180
0
LINE
5
199
100
AcDbEntity
8
0
100
AcDbLine
10
287.04083191010591
20
-302.83817509100919
30
0
11
287.04083191010591
21
-303.83817509100925
31
0
0
LINE
5
200
100
AcDbEntity
8
0
100
AcDbLine
10
283.09797476724873
20
-307.33817507610803
30
0
11
284.46940333867735
21
-307.33817507610803
31
0
0
ARC
5
201
100
AcDbEntity
8
0
100
AcDbCircle
10
285.06940333867732
20
-302.83817509100919
30
0
40
0.60000000000002274
100
AcDbArc
50
0
51
180
0
LINE
5
202
100
AcDbEntity
8
0
100
AcDbLine
10
372.50696352976206
20
-298.33817388401508
30
0
11
372.50696352976206
21
-314.33817388401513
31
0
0
LINE
5
203
100
AcDbEntity
8
0
100
AcDbLine
10
375.50696352976206
20
-298.33817388401508
30
0
11
381.50696591394785
21
-298.33817388401508
31
0
0
LINE
5
204
100
AcDbEntity
8
0
100
AcDbLine
10
320.50696591394785
20
-298.33817388401508
30
0
11
372.50696352976206
21
-298.33817388401508
31
0
0
ARC
5
205
100
AcDbEntity
8
0
100
AcDbCircle
10
322.0069647069538
20
-322.04347083578762
30
0
40
0.59999999999995168
100
AcDbArc
50
-90
51
90
0
ARC
5
206
100
AcDbEntity
8
0
100
AcDbCircle
10
322.0069647069538
20
-332.32918512150195
30
0
40
0.59999999999995168
100
AcDbArc
50
-90
51
90
0
LINE
5
207
100
AcDbEntity
8
0
100
AcDbLine
10
317.5069647218549
20
-327.78632797864475
30
0
11
317.5069647218549
21
-329.15775655007337
31
0
0
LINE
5
208
100
AcDbEntity
8
0
100
AcDbLine
10
317.5069647218549
20
-325.21489940721614
30
0
11
317.5069647218549
21
-326.5863279786447
31
0
0
LINE
5
209
100
AcDbEntity
8
0
100
AcDbLine
10
321.00696470695374
20
-322.64347083578753
30
0
11
317.5069647218549
21
-322.64347083578753
31
0
0
LINE
5
210
100
AcDbEntity
8
0
100
AcDbLine
10
317.5069647218549
20
-322.64347083578753
30
0
11
317.5069647218549
21
-324.01489940721615
31
0
0
LINE
5
211
100
AcDbEntity
8
0
100
AcDbLine
10
372.50696352976206
20
-314.33817388401513
30
0
11
375.50696352976206
21
-314.33817388401513
31
0
0
LINE
5
212
100
AcDbEntity
8
0
100
AcDbLine
10
375.50696352976206
20
-342.33817388401513
30
0
11
375.50696352976206
21
-358.33817388401513
31
0
0
LINE
5
213
100
AcDbEntity
8
0
100
AcDbLine
10
372.50696352976206
20
-358.33817388401513
30
0
11
372.50696352976206
21
-342.33817388401513
31
0
0
LINE
5
214
100
AcDbEntity
8
0
100
AcDbLine
10
381.50696591394785
20
-298.33817388401508
30
0
11
381.50696591394785
21
-358.33817388401513
31
0
0
LINE
5
215
100
AcDbEntity
8
0
100
AcDbLine
10
372.50696352976206
20
-342.33817388401513
30
0
11
375.50696352976206
21
-342.33817388401513
31
0
0
LINE
5
216
100
AcDbEntity
8
0
100
AcDbLine
10
375.50696352976206
20
-314.33817388401513
30
0
11
375.50696352976206
21
-298.33817388401508
31
0
0
ARC
5
217
100
AcDbEntity
8
0
100
AcDbCircle
10
322.0069647069538
20
-316.90061369293051
30
0
40
0.60000000000002274
100
AcDbArc
50
-90
51
90
0
LINE
5
218
100
AcDbEntity
8
0
100
AcDbLine
10
322.0069647069538
20
-320.07204226435903
30
0
11
321.00696470695374
21
-320.07204226435903
31
0
0
LINE
5
219
100
AcDbEntity
8
0
100
AcDbLine
10
321.00696470695374
20
-329.15775655007337
30
0
11
317.5069647218549
21
-329.15775655007337
31
0
0
LINE
5
220
100
AcDbEntity
8
0
100
AcDbLine
10
322.0069647069538
20
-329.15775655007337
30
0
11
321.00696470695374
21
-329.15775655007337
31
0
0
LINE
5
221
100
AcDbEntity
8
0
100
AcDbLine
10
317.5069647218549
20
-332.92918512150186
30
0
11
317.5069647218549
21
-334.33817507610809
31
0
0
LINE
5
222
100
AcDbEntity
8
0
100
AcDbLine
10
322.0069647069538
20
-324.01489940721615
30
0
11
321.00696470695374
21
-324.01489940721615
31
0
0
LINE
5
223
100
AcDbEntity
8
0
100
AcDbLine
10
321.00696470695374
20
-330.3577565500733
30
0
11
317.5069647218549
21
-330.3577565500733
31
0
0
LINE
5
224
100
AcDbEntity
8
0
100
AcDbLine
10
322.0069647069538
20
-317.50061369293053
30
0
11
321.00696470695374
21
-317.50061369293053
31
0
0
LINE
5
225
100
AcDbEntity
8
0
100
AcDbLine
10
322.0069647069538
20
-327.78632797864475
30
0
11
321.00696470695374
21
-327.78632797864475
31
0
0
ARC
5
226
100
AcDbEntity
8
0
100
AcDbCircle
10
322.0069647069538
20
-329.75775655007328
30
0
40
0.60000000000002274
100
AcDbArc
50
-90
51
90
0
LINE
5
227
100
AcDbEntity
8
0
100
AcDbLine
10
321.00696470695374
20
-317.50061369293053
30
0
11
317.5069647218549
21
-317.50061369293053
31
0
0
LINE
5
228
100
AcDbEntity
8
0
100
AcDbLine
10
317.50696472185501
20
-307.33817507610814
30
0
11
317.5069647218549
21
-313.72918512150193
31
0
0
LINE
5
229
100
AcDbEntity
8
0
100
AcDbLine
10
321.00696470695374
20
-332.92918512150186
30
0
11
317.5069647218549
21
-332.92918512150186
31
0
0
LINE
5
230
100
AcDbEntity
8
0
100
AcDbLine
10
322.0069647069538
20
-332.92918512150186
30
0
11
321.00696470695374
21
-332.92918512150186
31
0
0
LINE
5
231
100
AcDbEntity
8
0
100
AcDbLine
10
317.5069647218549
20
-317.50061369293053
30
0
11
317.5069647218549
21
-318.87204226435898
31
0
0
LINE
5
232
100
AcDbEntity
8
0
100
AcDbLine
10
322.0069647069538
20
-316.30061369293048
30
0
11
321.00696470695374
21
-316.30061369293048
31
0
0
LINE
5
233
100
AcDbEntity
8
0
100
AcDbLine
10
322.0069647069538
20
-318.87204226435898
30
0
11
321.00696470695374
21
-318.87204226435898
31
0
0
LINE
5
234
100
AcDbEntity
8
0
100
AcDbLine
10
321.00696470695374
20
-331.72918512150193
30
0
11
317.5069647218549
21
-331.72918512150193
31
0
0
LINE
5
235
100
AcDbEntity
8
0
100
AcDbLine
10
322.0069647069538
20
-331.72918512150193
30
0
11
321.00696470695374
21
-331.72918512150193
31
0
0
LINE
5
236
100
AcDbEntity
8
0
100
AcDbLine
10
322.0069647069538
20
-330.3577565500733
30
0
11
321.00696470695374
21
-330.3577565500733
31
0
0
LINE
5
237
100
AcDbEntity
8
0
100
AcDbLine
10
317.5069647218549
20
-330.3577565500733
30
0
11
317.5069647218549
21
-331.72918512150193
31
0
0
LINE
5
238
100
AcDbEntity
8
0
100
AcDbLine
10
321.00696470695374
20
-326.5863279786447
30
0
11
317.5069647218549
21
-326.5863279786447
31
0
0
LINE
5
239
100
AcDbEntity
8
0
100
AcDbLine
10
321.00696470695374
20
-325.21489940721614
30
0
11
317.5069647218549
21
-325.21489940721614
31
0
0
LINE
5
240
100
AcDbEntity
8
0
100
AcDbLine
10
321.00696470695374
20
-327.78632797864475
30
0
11
317.5069647218549
21
-327.78632797864475
31
0
0
LINE
5
241
100
AcDbEntity
8
0
100
AcDbLine
10
322.0069647069538
20
-322.64347083578753
30
0
11
321.00696470695374
21
-322.64347083578753
31
0
0
LINE
5
242
100
AcDbEntity
8
0
100
AcDbLine
10
321.00696470695374
20
-324.01489940721615
30
0
11
317.5069647218549
21
-324.01489940721615
31
0
0
ARC
5
243
100
AcDbEntity
8
0
100
AcDbCircle
10
322.0069647069538
20
-324.61489940721617
30
0
40
0.59999999999995168
100
AcDbArc
50
-90
51
90
0
LINE
5
244
100
AcDbEntity
8
0
100
AcDbLine
10
322.0069647069538
20
-326.5863279786447
30
0
11
321.00696470695374
21
-326.5863279786447
31
0
0
LINE
5
245
100
AcDbEntity
8
0
100
AcDbLine
10
322.0069647069538
20
-325.21489940721614
30
0
11
321.00696470695374
21
-325.21489940721614
31
0
0
ARC
5
246
100
AcDbEntity
8
0
100
AcDbCircle
10
322.0069647069538
20
-327.18632797864473
30
0
40
0.60000000000002274
100
AcDbArc
50
-90
51
90
0
ARC
5
247
100
AcDbEntity
8
0
100
AcDbCircle
10
261.00696473675606
20
-337.34716503071422
30
0
40
0.60000000000002274
100
AcDbArc
50
90
51
270
0
LINE
5
248
100
AcDbEntity
8
0
100
AcDbLine
10
322.0069647069538
20
-321.44347083578765
30
0
11
321.00696470695374
21
-321.44347083578765
31
0
0
LINE
5
249
100
AcDbEntity
8
0
100
AcDbLine
10
299.8979747672488
20
-302.83817509100919
30
0
11
299.8979747672488
21
-303.83817509100925
31
0
0
ARC
5
250
100
AcDbEntity
8
0
100
AcDbCircle
10
322.0069647069538
20
-314.32918512150189
30
0
40
0.59999999999998721
100
AcDbArc
50
-90
51
90
0
LINE
5
251
100
AcDbEntity
8
0
100
AcDbLine
10
261.00696473675606
20
-331.60430788785709
30
0
11
262.00696473675612
21
-331.60430788785709
31
0
0
LINE
5
252
100
AcDbEntity
8
0
100
AcDbLine
10
301.09797476724873
20
-303.83817509100925
30
0
11
301.09797476724873
21
-307.33817507610803
31
0
0
LINE
5
253
100
AcDbEntity
8
0
100
AcDbLine
10
290.81226048153445
20
-307.33817507610803
30
0
11
292.18368905296308
21
-307.33817507610803
31
0
0
LINE
5
254
100
AcDbEntity
8
0
100
AcDbLine
10
293.38368905296301
20
-303.83817509100925
30
0
11
293.38368905296301
21
-307.33817507610803
31
0
0
LINE
5
255
100
AcDbEntity
8
0
100
AcDbLine
10
294.75511762439163
20
-302.83817509100919
30
0
11
294.75511762439163
21
-303.83817509100925
31
0
0
LINE
5
256
100
AcDbEntity
8
0
100
AcDbLine
10
261.00696473675606
20
-332.80430788785708
30
0
11
262.00696473675612
21
-332.80430788785708
31
0
0
LINE
5
257
100
AcDbEntity
8
0
100
AcDbLine
10
317.5069647218549
20
-320.07204226435903
30
0
11
317.5069647218549
21
-321.44347083578765
31
0
0
LINE
5
258
100
AcDbEntity
8
0
100
AcDbLine
10
301.09797476724873
20
-302.83817509100919
30
0
11
301.09797476724873
21
-303.83817509100925
31
0
0
LINE
5
259
100
AcDbEntity
8
0
100
AcDbLine
10
295.95511762439162
20
-307.33817507610803
30
0
11
297.32654619582024
21
-307.33817507610803
31
0
0
LINE
5
260
100
AcDbEntity
8
0
100
AcDbLine
10
261.00696473675606
20
-335.37573645928558
30
0
11
262.00696473675612
21
-335.37573645928558
31
0
0
LINE
5
261
100
AcDbEntity
8
0
100
AcDbLine
10
295.95511762439162
20
-303.83817509100925
30
0
11
295.95511762439162
21
-307.33817507610803
31
0
0
LINE
5
262
100
AcDbEntity
8
0
100
AcDbLine
10
261.00696473675606
20
-337.94716503071419
30
0
11
265.50696472185496
21
-337.94716503071419
31
0
0
LINE
5
263
100
AcDbEntity
8
0
100
AcDbLine
10
294.75511762439163
20
-303.83817509100925
30
0
11
294.75511762439163
21
-307.33817507610803
31
0
0
LINE
5
264
100
AcDbEntity
8
0
100
AcDbLine
10
262.00696473675612
20
-335.37573645928558
30
0
11
265.50696472185496
21
-335.37573645928558
31
0
0
LINE
5
265
100
AcDbEntity
8
0
100
AcDbLine
10
293.38368905296301
20
-302.83817509100919
30
0
11
293.38368905296301
21
-303.83817509100925
31
0
0
ARC
5
266
100
AcDbEntity
8
0
100
AcDbCircle
10
297.92654619582015
20
-302.83817509100919
30
0
40
0.60000000000002274
100
AcDbArc
50
0
51
180
0
LINE
5
267
100
AcDbEntity
8
0
100
AcDbLine
10
298.52654619582017
20
-307.33817507610803
30
0
11
299.8979747672488
21
-307.33817507610803
31
0
0
LINE
5
268
100
AcDbEntity
8
0
100
AcDbLine
10
262.00696473675612
20
-336.7471650307142
30
0
11
265.50696472185496
21
-336.7471650307142
31
0
0
LINE
5
269
100
AcDbEntity
8
0
100
AcDbLine
10
262.00696473675612
20
-331.60430788785709
30
0
11
265.50696472185496
21
-331.60430788785709
31
0
0
LINE
5
270
100
AcDbEntity
8
0
100
AcDbLine
10
265.50696472185496
20
-334.17573645928564
30
0
11
265.50696472185496
21
-332.80430788785708
31
0
0
LINE
5
271
100
AcDbEntity
8
0
100
AcDbLine
10
297.32654619582024
20
-303.83817509100925
30
0
11
297.32654619582024
21
-307.33817507610803
31
0
0
LINE
5
272
100
AcDbEntity
8
0
100
AcDbLine
10
322.0069647069538
20
-314.92918512150192
30
0
11
321.00696470695374
21
-314.92918512150192
31
0
0
LINE
5
273
100
AcDbEntity
8
0
100
AcDbLine
10
321.00696470695374
20
-321.44347083578765
30
0
11
317.5069647218549
21
-321.44347083578765
31
0
0
ARC
5
274
100
AcDbEntity
8
0
100
AcDbCircle
10
322.0069647069538
20
-319.472042264359
30
0
40
0.60000000000002274
100
AcDbArc
50
-90
51
90
0
LINE
5
275
100
AcDbEntity
8
0
100
AcDbLine
10
261.00696473675606
20
-329.03287931642853
30
0
11
262.00696473675612
21
-329.03287931642853
31
0
0
LINE
5
276
100
AcDbEntity
8
0
100
AcDbLine
10
321.00696470695374
20
-318.87204226435898
30
0
11
317.5069647218549
21
-318.87204226435898
31
0
0
ARC
5
277
100
AcDbEntity
8
0
100
AcDbCircle
10
300.49797476724876
20
-302.83817509100919
30
0
40
0.59999999999998721
100
AcDbArc
50
0
51
180
0
LINE
5
278
100
AcDbEntity
8
0
100
AcDbLine
10
321.00696470695374
20
-316.30061369293048
30
0
11
317.5069647218549
21
-316.30061369293048
31
0
0
LINE
5
279
100
AcDbEntity
8
0
100
AcDbLine
10
297.32654619582024
20
-302.83817509100919
30
0
11
297.32654619582024
21
-303.83817509100925
31
0
0
LINE
5
280
100
AcDbEntity
8
0
100
AcDbLine
10
262.00696473675612
20
-332.80430788785708
30
0
11
265.50696472185496
21
-332.80430788785708
31
0
0
LINE
5
281
100
AcDbEntity
8
0
100
AcDbLine
10
265.50696472185496
20
-331.60430788785709
30
0
11
265.50696472185496
21
-330.23287931642847
31
0
0
LINE
5
282
100
AcDbEntity
8
0
100
AcDbLine
10
265.50696472185496
20
-336.7471650307142
30
0
11
265.50696472185496
21
-335.37573645928558
31
0
0
ARC
5
283
100
AcDbEntity
8
0
100
AcDbCircle
10
261.00696473675606
20
-329.63287931642856
30
0
40
0.60000000000002274
100
AcDbArc
50
90
51
270
0
LINE
5
284
100
AcDbEntity
8
0
100
AcDbLine
10
262.00696473675612
20
-329.03287931642853
30
0
11
265.50696472185496
21
-329.03287931642853
31
0
0
LINE
5
285
100
AcDbEntity
8
0
100
AcDbLine
10
299.8979747672488
20
-303.83817509100925
30
0
11
299.8979747672488
21
-307.33817507610803
31
0
0
LINE
5
286
100
AcDbEntity
8
0
100
AcDbLine
10
293.38368905296301
20
-307.33817507610803
30
0
11
294.75511762439163
21
-307.33817507610803
31
0
0
ARC
5
287
100
AcDbEntity
8
0
100
AcDbCircle
10
295.35511762439165
20
-302.83817509100919
30
0
40
0.59999999999995168
100
AcDbArc
50
0
51
180
0
LINE
5
288
100
AcDbEntity
8
0
100
AcDbLine
10
292.18368905296308
20
-302.83817509100919
30
0
11
292.18368905296308
21
-303.83817509100925
31
0
0
LINE
5
289
100
AcDbEntity
8
0
100
AcDbLine
10
321.00696470695374
20
-320.07204226435903
30
0
11
317.5069647218549
21
-320.07204226435903
31
0
0
LINE
5
290
100
AcDbEntity
8
0
100
AcDbLine
10
321.00696470695374
20
-314.92918512150192
30
0
11
317.5069647218549
21
-314.92918512150192
31
0
0
LINE
5
291
100
AcDbEntity
8
0
100
AcDbLine
10
322.0069647069538
20
-313.72918512150193
30
0
11
317.5069647218549
21
-313.72918512150193
31
0
0
LINE
5
292
100
AcDbEntity
8
0
100
AcDbLine
10
298.52654619582017
20
-302.83817509100919
30
0
11
298.52654619582017
21
-303.83817509100925
31
0
0
LINE
5
293
100
AcDbEntity
8
0
100
AcDbLine
10
295.95511762439162
20
-302.83817509100919
30
0
11
295.95511762439162
21
-303.83817509100925
31
0
0
LINE
5
294
100
AcDbEntity
8
0
100
AcDbLine
10
298.52654619582017
20
-303.83817509100925
30
0
11
298.52654619582017
21
-307.33817507610803
31
0
0
LINE
5
295
100
AcDbEntity
8
0
100
AcDbLine
10
292.18368905296308
20
-303.83817509100925
30
0
11
292.18368905296308
21
-307.33817507610803
31
0
0
LINE
5
296
100
AcDbEntity
8
0
100
AcDbLine
10
261.00696473675606
20
-330.23287931642847
30
0
11
262.00696473675612
21
-330.23287931642847
31
0
0
LINE
5
297
100
AcDbEntity
8
0
100
AcDbLine
10
261.00696473675606
20
-334.17573645928564
30
0
11
262.00696473675612
21
-334.17573645928564
31
0
0
LINE
5
298
100
AcDbEntity
8
0
100
AcDbLine
10
261.00696473675606
20
-336.7471650307142
30
0
11
262.00696473675612
21
-336.7471650307142
31
0
0
LINE
5
299
100
AcDbEntity
8
0
100
AcDbLine
10
262.00696473675612
20
-334.17573645928564
30
0
11
265.50696472185496
21
-334.17573645928564
31
0
0
LINE
5
300
100
AcDbEntity
8
0
100
AcDbLine
10
262.00696473675612
20
-330.23287931642847
30
0
11
265.50696472185496
21
-330.23287931642847
31
0
0
LINE
5
301
100
AcDbEntity
8
0
100
AcDbLine
10
265.50696472185496
20
-329.03287931642853
30
0
11
265.50696472185496
21
-327.66145074499991
31
0
0
ARC
5
302
100
AcDbEntity
8
0
100
AcDbCircle
10
261.00696473675606
20
-334.77573645928567
30
0
40
0.60000000000002274
100
AcDbArc
50
90
51
270
0
ARC
5
303
100
AcDbEntity
8
0
100
AcDbCircle
10
261.00696473675606
20
-332.20430788785706
30
0
40
0.59999999999995168
100
AcDbArc
50
90
51
270
0
ARC
5
304
100
AcDbEntity
8
0
100
AcDbCircle
10
292.78368905296304
20
-302.83817509100919
30
0
40
0.59999999999998721
100
AcDbArc
50
0
51
180
0
LINE
5
305
100
AcDbEntity
8
0
100
AcDbLine
10
317.5069647218549
20
-314.92918512150192
30
0
11
317.5069647218549
21
-316.30061369293048
31
0
0
LINE
5
306
100
AcDbEntity
8
0
100
AcDbLine
10
301.09797476724873
20
-307.33817507610803
30
0
11
302.50696472185496
21
-307.33817507610803
31
0
0
LINE
5
307
100
AcDbEntity
8
0
100
AcDbLine
10
265.50696472185496
20
-339.33817507610797
30
0
11
265.50696472185496
21
-337.94716503071419
31
0
0
LINE
5
308
100
AcDbEntity
8
0
100
AcDbLine
10
201.506963529762
20
-358.33817388401513
30
0
11
207.50696352976203
21
-358.33817388401513
31
0
0
LINE
5
309
100
AcDbEntity
8
0
100
AcDbLine
10
372.50696352976206
20
-358.33817388401513
30
0
11
320.50696591394785
21
-358.33817388401513
31
0
0
LINE
5
310
100
AcDbEntity
8
0
100
AcDbLine
10
210.50696352976203
20
-314.33817388401508
30
0
11
207.50696352976203
21
-314.33817388401508
31
0
0
ARC
5
311
100
AcDbEntity
8
0
100
AcDbCircle
10
261.00696473675606
20
-324.49002217357133
30
0
40
0.59999999999995168
100
AcDbArc
50
90
51
270
0
LINE
5
312
100
AcDbEntity
8
0
100
AcDbLine
10
262.506963529762
20
-298.33817388401508
30
0
11
320.50696591394785
21
-298.33817388401508
31
0
0
LINE
5
313
100
AcDbEntity
8
0
100
AcDbLine
10
201.506963529762
20
-298.33817388401513
30
0
11
207.50696352976203
21
-298.33817388401513
31
0
0
LINE
5
314
100
AcDbEntity
8
0
100
AcDbLine
10
210.50696352976203
20
-298.33817388401513
30
0
11
210.50696352976203
21
-314.33817388401508
31
0
0
LINE
5
315
100
AcDbEntity
8
0
100
AcDbLine
10
262.506963529762
20
-298.33817388401508
30
0
11
210.50696352976203
21
-298.33817388401513
31
0
0
LINE
5
316
100
AcDbEntity
8
0
100
AcDbLine
10
210.50696352976203
20
-358.33817388401513
30
0
11
210.50696352976203
21
-342.33817388401513
31
0
0
LINE
5
317
100
AcDbEntity
8
0
100
AcDbLine
10
207.50696352976203
20
-314.33817388401508
30
0
11
207.50696352976203
21
-298.33817388401513
31
0
0
ARC
5
318
100
AcDbEntity
8
0
100
AcDbCircle
10
261.00696473675606
20
-321.91859360214278
30
0
40
0.60000000000002274
100
AcDbArc
50
90
51
270
0
LINE
5
319
100
AcDbEntity
8
0
100
AcDbLine
10
207.50696352976203
20
-342.33817388401513
30
0
11
207.50696352976203
21
-358.33817388401513
31
0
0
LINE
5
320
100
AcDbEntity
8
0
100
AcDbLine
10
210.50696352976203
20
-342.33817388401513
30
0
11
207.50696352976203
21
-342.33817388401513
31
0
0
LINE
5
321
100
AcDbEntity
8
0
100
AcDbLine
10
201.506963529762
20
-298.33817388401513
30
0
11
201.506963529762
21
-358.33817388401513
31
0
0
ARC
5
322
100
AcDbEntity
8
0
100
AcDbCircle
10
261.00696473675606
20
-327.06145074499995
30
0
40
0.59999999999995168
100
AcDbArc
50
90
51
270
0
LINE
5
323
100
AcDbEntity
8
0
100
AcDbLine
10
210.50696352976203
20
-358.33817388401513
30
0
11
262.506963529762
21
-358.33817388401513
31
0
0
LINE
5
324
100
AcDbEntity
8
0
100
AcDbLine
10
381.50696591394785
20
-358.33817388401513
30
0
11
375.50696352976206
21
-358.33817388401513
31
0
0
LINE
5
325
100
AcDbEntity
8
0
100
AcDbLine
10
265.50696472185496
20
-339.33817507610797
30
0
11
265.50696472185496
21
-358.33817626820093
31
0
0
LINE
5
326
100
AcDbEntity
8
0
100
AcDbLine
10
317.5069647218549
20
-334.33817507610809
30
0
11
317.5069647218549
21
-358.33817626820093
31
0
0
LINE
5
327
100
AcDbEntity
8
0
100
AcDbLine
10
265.50696472185501
20
-307.33817507610803
30
0
11
280.50696472185496
21
-307.33817507610803
31
0
0
LINE
5
328
100
AcDbEntity
8
0
100
AcDbLine
10
302.50696472185496
20
-307.33817507610803
30
0
11
317.50696472185501
21
-307.33817507610814
31
0
0
LINE
5
329
100
AcDbEntity
8
0
100
AcDbLine
10
320.50696591394785
20
-358.33817626820093
30
0
11
317.5069647218549
21
-358.33817626820093
31
0
0
LINE
5
330
100
AcDbEntity
8
0
100
AcDbLine
10
265.50696472185496
20
-358.33817626820093
30
0
11
262.506963529762
21
-358.33817626820093
31
0
0
LWPOLYLINE
5
331
100
AcDbEntity
8
0
100
AcDbPolyline
90
4
70
1
43
0.0
10
253.60696352976206
20
-311.9381738840151
10
218.00696352976203
20
-311.9381738840151
10
218.00696352976203
20
-313.63817388401515
10
253.60696352976206
20
-313.63817388401515
0
LWPOLYLINE
5
332
100
AcDbEntity
8
0
100
AcDbPolyline
90
4
70
1
43
0.0
10
336.80696352976202
20
-311.9381738840151
10
369.506963529762
20
-311.9381738840151
10
369.506963529762
20
-313.63817388401509
10
336.80696352976202
20
-313.63817388401509
0
LINE
5
333
100
AcDbEntity
8
0
100
AcDbLine
10
454.00000000000006
20
-20
30
0
11
454.00000000000006
21
-58.000000000000007
31
0
0
LINE
5
334
100
AcDbEntity
8
0
100
AcDbLine
10
415
20
-58
30
0
11
415
21
-20
31
0
0
LINE
5
335
100
AcDbEntity
8
0
100
AcDbLine
10
415
20
-20
30
0
11
445
21
-20
31
0
0
LINE
5
336
100
AcDbEntity
8
0
100
AcDbLine
10
448
20
-20
30
0
11
454.00000000000006
21
-20
31
0
0
LINE
5
337
100
AcDbEntity
8
0
100
AcDbLine
10
445
20
-20
30
0
11
448
21
-20
31
0
0
LINE
5
338
100
AcDbEntity
8
0
100
AcDbLine
10
429.39999999999998
20
-58
30
0
11
429.39999999999998
21
-36.499999999999993
31
0
0
LINE
5
339
100
AcDbEntity
8
0
100
AcDbLine
10
429.39999999999998
20
-36.499999999999993
30
0
11
432.40000000000003
21
-36.499999999999993
31
0
0
LINE
5
340
100
AcDbEntity
8
0
100
AcDbLine
10
432.40000000000003
20
-36.499999999999993
30
0
11
432.40000000000003
21
-58.000000000000007
31
0
0
LINE
5
341
100
AcDbEntity
8
0
100
AcDbLine
10
465
20
-20
30
0
11
495
21
-20
31
0
0
LINE
5
342
100
AcDbEntity
8
0
100
AcDbLine
10
504.00000000000006
20
-20
30
0
11
504.00000000000006
21
-58
31
0
0
LINE
5
343
100
AcDbEntity
8
0
100
AcDbLine
10
495
20
-20
30
0
11
498
21
-20
31
0
0
LINE
5
344
100
AcDbEntity
8
0
100
AcDbLine
10
498
20
-20
30
0
11
504.00000000000006
21
-20
31
0
0
LINE
5
345
100
AcDbEntity
8
0
100
AcDbLine
10
465
20
-58.000000000000007
30
0
11
465
21
-20
31
0
0
LINE
5
346
100
AcDbEntity
8
0
100
AcDbLine
10
481.39999999999998
20
-58
30
0
11
481.39999999999998
21
-46.499999999999993
31
0
0
LINE
5
347
100
AcDbEntity
8
0
100
AcDbLine
10
481.39999999999998
20
-46.499999999999993
30
0
11
479.39999999999998
21
-46.499999999999993
31
0
0
LINE
5
348
100
AcDbEntity
8
0
100
AcDbLine
10
479.39999999999998
20
-46.499999999999993
30
0
11
479.39999999999998
21
-58
31
0
0
LINE
5
349
100
AcDbEntity
8
0
100
AcDbLine
10
415
20
-58
30
0
11
429.39999999999998
21
-58
31
0
0
LINE
5
350
100
AcDbEntity
8
0
100
AcDbLine
10
432.40000000000003
20
-58.000000000000007
30
0
11
445
21
-58.000000000000007
31
0
0
LINE
5
351
100
AcDbEntity
8
0
100
AcDbLine
10
481.39999999999998
20
-58
30
0
11
495
21
-58
31
0
0
LINE
5
352
100
AcDbEntity
8
0
100
AcDbLine
10
498
20
-58
30
0
11
504.00000000000006
21
-58
31
0
0
LINE
5
353
100
AcDbEntity
8
0
100
AcDbLine
10
495
20
-58
30
0
11
495
21
-38.999999999999993
31
0
0
LINE
5
354
100
AcDbEntity
8
0
100
AcDbLine
10
495
20
-38.999999999999993
30
0
11
498
21
-38.999999999999993
31
0
0
LINE
5
355
100
AcDbEntity
8
0
100
AcDbLine
10
498
20
-38.999999999999993
30
0
11
498
21
-58
31
0
0
LINE
5
356
100
AcDbEntity
8
0
100
AcDbLine
10
445
20
-58.000000000000007
30
0
11
445
21
-39.000000000000007
31
0
0
LINE
5
357
100
AcDbEntity
8
0
100
AcDbLine
10
445
20
-39.000000000000007
30
0
11
448
21
-39.000000000000007
31
0
0
LINE
5
358
100
AcDbEntity
8
0
100
AcDbLine
10
448
20
-39.000000000000007
30
0
11
448
21
-58.000000000000007
31
0
0
LINE
5
359
100
AcDbEntity
8
0
100
AcDbLine
10
448
20
-58.000000000000007
30
0
11
454.00000000000006
21
-58.000000000000007
31
0
0
LINE
5
360
100
AcDbEntity
8
0
100
AcDbLine
10
465
20
-58.000000000000007
30
0
11
479.39999999999998
21
-58
31
0
0
LINE
5
361
100
AcDbEntity
8
0
100
AcDbLine
10
239.00000000000003
20
-11
30
0
11
239.00000000000003
21
-17
31
0
0
LWPOLYLINE
5
362
100
AcDbEntity
8
0
100
AcDbPolyline
90
40
70
1
43
0.0
10
256.66666666666669
20
-87
10
241.66666666666669
20
-87
10
241.66666666666669
20
-90
10
271.66666666666669
20
-90
10
271.66666666666669
20
-55
10
274.66666666666669
20
-55
10
274.66666666666669
20
-90
10
280.66666666666669
20
-90
10
280.66666666666669
20
-20
10
261.16666666666669
20
-20
10
261.16666666666669
20
-17
10
280.66666666666669
20
-17
10
280.66666666666669
20
-11
10
241.66666666666669
20
-11
10
241.66666666666669
20
-23
10
256.66666666666669
20
-23
10
256.66666666666669
20
-25.999999999999996
10
241.66666666666669
20
-25.999999999999996
10
241.66666666666669
20
-30
10
256.66666666666669
20
-30
10
256.66666666666669
20
-33
10
241.66666666666669
20
-33
10
241.66666666666669
20
-37
10
256.66666666666669
20
-37
10
256.66666666666669
20
-39.999999999999993
10
241.66666666666669
20
-39.999999999999993
10
241.66666666666669
20
-43.999999999999993
10
256.66666666666669
20
-43.999999999999993
10
256.66666666666669
20
-46.999999999999993
10
241.66666666666669
20
-46.999999999999993
10
241.66666666666669
20
-51
10
256.66666666666669
20
-51
10
256.66666666666669
20
-53.999999999999993
10
241.66666666666669
20
-53.999999999999993
10
241.66666666666669
20
-58
10
256.66666666666669
20
-58
10
256.66666666666669
20
-61
10
241.66666666666669
20
-61
10
241.66666666666669
20
-81
10
256.66666666666669
20
-81
0
LINE
5
363
100
AcDbEntity
8
0
100
AcDbLine
10
280.66666666666669
20
-11
30
0
11
280.66666666666669
21
-17
31
0
0
LINE
5
364
100
AcDbEntity
8
0
100
AcDbLine
10
241.66666666666669
20
-23
30
0
11
241.66666666666669
21
-11
31
0
0
LINE
5
365
100
AcDbEntity
8
0
100
AcDbLine
10
280.66666666666669
20
-90
30
0
11
274.66666666666669
21
-90
31
0
0
LWPOLYLINE
5
366
100
AcDbEntity
8
0
100
AcDbPolyline
90
40
70
1
43
0.0
10
298.33333333333337
20
-87
10
283.33333333333337
20
-87
10
283.33333333333337
20
-90
10
313.33333333333337
20
-90
10
313.33333333333337
20
-55
10
316.33333333333331
20
-55
10
316.33333333333331
20
-90
10
322.33333333333337
20
-90
10
322.33333333333337
20
-20
10
302.83333333333337
20
-20
10
302.83333333333337
20
-17
10
322.33333333333337
20
-17
10
322.33333333333337
20
-11
10
283.33333333333337
20
-11
10
283.33333333333337
20
-23
10
298.33333333333337
20
-23
10
298.33333333333337
20
-25.999999999999996
10
283.33333333333337
20
-25.999999999999996
10
283.33333333333337
20
-30
10
298.33333333333337
20
-30
10
298.33333333333337
20
-33
10
283.33333333333337
20
-33
10
283.33333333333337
20
-37
10
298.33333333333337
20
-37
10
298.33333333333337
20
-39.999999999999993
10
283.33333333333337
20
-39.999999999999993
10
283.33333333333337
20
-43.999999999999993
10
298.33333333333337
20
-43.999999999999993
10
298.33333333333337
20
-46.999999999999993
10
283.33333333333337
20
-46.999999999999993
10
283.33333333333337
20
-51
10
298.33333333333337
20
-51
10
298.33333333333337
20
-53.999999999999993
10
283.33333333333337
20
-53.999999999999993
10
283.33333333333337
20
-58
10
298.33333333333337
20
-58
10
298.33333333333337
20
-61
10
283.33333333333337
20
-61
10
283.33333333333337
20
-81
10
298.33333333333337
20
-81
0
LINE
5
367
100
AcDbEntity
8
0
100
AcDbLine
10
322.33333333333337
20
-11
30
0
11
322.33333333333337
21
-17
31
0
0
LINE
5
368
100
AcDbEntity
8
0
100
AcDbLine
10
283.33333333333337
20
-23
30
0
11
283.33333333333337
21
-11
31
0
0
LINE
5
369
100
AcDbEntity
8
0
100
AcDbLine
10
322.33333333333337
20
-90
30
0
11
316.33333333333331
21
-90
31
0
0
LWPOLYLINE
5
370
100
AcDbEntity
8
0
100
AcDbPolyline
90
40
70
1
43
0.0
10
340
20
-87
10
325
20
-87
10
325
20
-90
10
355
20
-90
10
355
20
-55
10
358
20
-55
10
358
20
-90
10
364.00000000000006
20
-90
10
364.00000000000006
20
-20
10
344.5
20
-20
10
344.5
20
-17
10
364.00000000000006
20
-17
10
364.00000000000006
20
-11
10
325
20
-11
10
325
20
-23
10
340
20
-23
10
340
20
-25.999999999999996
10
325
20
-25.999999999999996
10
325
20
-30
10
340
20
-30
10
340
20
-33
10
325
20
-33
10
325
20
-37
10
340
20
-37
10
340
20
-39.999999999999993
10
325
20
-39.999999999999993
10
325
20
-43.999999999999993
10
340
20
-43.999999999999993
10
340
20
-46.999999999999993
10
325
20
-46.999999999999993
10
325
20
-51
10
340
20
-51
10
340
20
-53.999999999999993
10
325
20
-53.999999999999993
10
325
20
-58
10
340
20
-58
10
340
20
-61
10
325
20
-61
10
325
20
-81
10
340
20
-81
0
LINE
5
371
100
AcDbEntity
8
0
100
AcDbLine
10
364.00000000000006
20
-11
30
0
11
364.00000000000006
21
-17
31
0
0
LINE
5
372
100
AcDbEntity
8
0
100
AcDbLine
10
325
20
-23
30
0
11
325
21
-11
31
0
0
LINE
5
373
100
AcDbEntity
8
0
100
AcDbLine
10
364.00000000000006
20
-90
30
0
11
358
21
-90
31
0
0
LWPOLYLINE
5
374
100
AcDbEntity
8
0
100
AcDbPolyline
90
4
70
1
43
0.0
10
254.00000000000003
20
-216
10
209.00000000000003
20
-216
10
209.00000000000003
20
-245
10
254.00000000000003
20
-245
0
LWPOLYLINE
5
375
100
AcDbEntity
8
0
100
AcDbPolyline
90
4
70
1
43
0.0
10
325.00000000000011
20
-213
10
365.00000000000011
20
-213
10
365.00000000000011
20
-242
10
325.00000000000011
20
-242
0
LWPOLYLINE
5
376
100
AcDbEntity
8
0
100
AcDbPolyline
90
12
70
1
43
0.0
10
459
20
-120
10
420
20
-120
10
420
20
-300
10
459
20
-300
10
459
20
-294
10
439.49999999999994
20
-294
10
439.49999999999994
20
-291
10
459
20
-290.99999999999994
10
459
20
-129
10
439.49999999999994
20
-129
10
439.49999999999994
20
-126
10
459
20
-126
0
LINE
5
377
100
AcDbEntity
8
0
100
AcDbLine
10
459
20
-294
30
0
11
459
21
-300
31
0
0
LWPOLYLINE
5
378
100
AcDbEntity
8
0
100
AcDbPolyline
90
16
70
1
43
0.0
10
499.49999999999994
20
-294
10
519
20
-294
10
519
20
-300
10
480
20
-300
10
480
20
-120
10
519
20
-120
10
519
20
-126
10
499.49999999999994
20
-126
10
499.49999999999994
20
-129
10
519
20
-129
10
519
20
-135
10
504
20
-135
10
504
20
-138
10
519
20
-138
10
519
20
-291
10
499.49999999999994
20
-291
0
LINE
5
379
100
AcDbEntity
8
0
100
AcDbLine
10
519
20
-294
30
0
11
519
21
-300
31
0
0
LINE
5
380
100
AcDbEntity
8
0
100
AcDbLine
10
210.50696121415342
20
-363.33817461174414
30
0
11
210.50696214954047
21
-379.33817461174408
31
0
0
LINE
5
381
100
AcDbEntity
8
0
100
AcDbLine
10
210.5069647218549
20
-423.33817461174408
30
0
11
210.50696378646785
21
-407.33817461174402
31
0
0
LINE
5
382
100
AcDbEntity
8
0
100
AcDbLine
10
275.86670603738503
20
-363.33817079070292
30
0
11
317.98706367256392
21
-363.33816832827557
31
0
0
LINE
5
383
100
AcDbEntity
8
0
100
AcDbLine
10
207.50696214954047
20
-379.33817478712911
30
0
11
207.50696121415342
21
-363.33817478712916
31
0
0
LINE
5
384
100
AcDbEntity
8
0
100
AcDbLine
10
201.50696121415339
20
-363.33817513789933
30
0
11
207.50696121415342
21
-363.33817478712916
31
0
0
LINE
5
385
100
AcDbEntity
8
0
100
AcDbLine
10
201.50696121415339
20
-363.33817513789933
30
0
11
201.50696472185487
21
-423.33817513789927
31
0
0
LINE
5
386
100
AcDbEntity
8
0
100
AcDbLine
10
210.50696214954047
20
-379.33817461174408
30
0
11
207.50696214954047
21
-379.33817478712911
31
0
0
LINE
5
387
100
AcDbEntity
8
0
100
AcDbLine
10
322.00696344145956
20
-381.30060790218079
30
0
11
321.00696344145956
21
-381.30060796064248
31
0
0
LINE
5
388
100
AcDbEntity
8
0
100
AcDbLine
10
322.00696381227374
20
-387.64346504503794
30
0
11
321.0069638122738
21
-387.64346510349958
31
0
0
LINE
5
389
100
AcDbEntity
8
0
100
AcDbLine
10
322.00696336128362
20
-379.92917933075228
30
0
11
321.00696336128351
21
-379.92917938921391
31
0
0
ARC
5
390
100
AcDbEntity
8
0
100
AcDbCircle
10
322.0069637771968
20
-387.04346504503798
30
0
40
0.59999999999995268
100
AcDbArc
50
-89.999996650399297
51
90.000003349611603
0
LINE
5
391
100
AcDbEntity
8
0
100
AcDbLine
10
317.50696451086708
20
-399.33816954843599
30
0
11
317.5069649785612
21
-407.33817894649121
31
0
0
LINE
5
392
100
AcDbEntity
8
0
100
AcDbLine
10
317.50696337618473
20
-379.92917959382987
30
0
11
317.50696345636078
21
-381.30060816525838
31
0
0
LINE
5
393
100
AcDbEntity
8
0
100
AcDbLine
10
301.09797271471768
20
-367.83817052263441
30
0
11
301.09797277317938
21
-368.83817052263447
31
0
0
LINE
5
394
100
AcDbEntity
8
0
100
AcDbLine
10
298.52654420175082
20
-368.83817067296457
30
0
11
298.52654440636672
21
-372.3381706580634
31
0
0
LINE
5
395
100
AcDbEntity
8
0
100
AcDbLine
10
322.00696389244979
20
-389.01489361646645
30
0
11
321.00696389244973
21
-389.01489367492815
31
0
0
LINE
5
396
100
AcDbEntity
8
0
100
AcDbLine
10
297.32654420175083
20
-368.83817074311855
30
0
11
297.32654440636674
21
-372.33817072821745
31
0
0
LINE
5
397
100
AcDbEntity
8
0
100
AcDbLine
10
294.75511563032222
20
-368.83817089344865
30
0
11
294.75511583493818
21
-372.33817087854754
31
0
0
LINE
5
398
100
AcDbEntity
8
0
100
AcDbLine
10
295.95511557186052
20
-367.8381708232946
30
0
11
295.95511563032221
21
-368.83817082329466
31
0
0
LINE
5
399
100
AcDbEntity
8
0
100
AcDbLine
10
321.0069636619437
20
-385.07203653207108
30
0
11
317.50696367684486
21
-385.07203673668698
31
0
0
LINE
5
400
100
AcDbEntity
8
0
100
AcDbLine
10
322.00696329112958
20
-378.72917933075229
30
0
11
317.50696330603068
21
-378.72917959382988
31
0
0
LINE
5
401
100
AcDbEntity
8
0
100
AcDbLine
10
321.00696336128351
20
-379.92917938921391
30
0
11
317.50696337618473
21
-379.92917959382987
31
0
0
ARC
5
402
100
AcDbEntity
8
0
100
AcDbCircle
10
322.00696422818692
20
-394.75775075932353
30
0
40
0.60000000000002374
100
AcDbArc
50
-89.999996650399297
51
90.000003349611603
0
LINE
5
403
100
AcDbEntity
8
0
100
AcDbLine
10
317.50696367684486
20
-385.07203673668698
30
0
11
317.50696375702086
21
-386.44346530811561
31
0
0
ARC
5
404
100
AcDbEntity
8
0
100
AcDbCircle
10
322.00696392752673
20
-389.61489361646647
30
0
40
0.59999999999995268
100
AcDbArc
50
-89.999996650383011
51
90.000003349600746
0
LINE
5
405
100
AcDbEntity
8
0
100
AcDbLine
10
293.38368700043196
20
-367.83817097362464
30
0
11
293.38368705889366
21
-368.83817097362464
31
0
0
LINE
5
406
100
AcDbEntity
8
0
100
AcDbLine
10
299.89797277317939
20
-368.83817059278852
30
0
11
299.89797297779535
21
-372.33817057788741
31
0
0
LINE
5
407
100
AcDbEntity
8
0
100
AcDbLine
10
301.09797297779528
20
-372.33817050773331
30
0
11
302.50696293240151
21
-372.33817042536145
31
0
0
ARC
5
408
100
AcDbEntity
8
0
100
AcDbCircle
10
322.00696332620652
20
-379.32917933075231
30
0
40
0.59999999999995268
100
AcDbArc
50
-89.999996650383011
51
90.000003349600746
0
LINE
5
409
100
AcDbEntity
8
0
100
AcDbLine
10
295.95511563032221
20
-368.83817082329466
30
0
11
295.95511583493811
21
-372.3381708083935
31
0
0
LINE
5
410
100
AcDbEntity
8
0
100
AcDbLine
10
321.00696389244973
20
-389.01489367492815
30
0
11
317.50696390735095
21
-389.01489387954405
31
0
0
LINE
5
411
100
AcDbEntity
8
0
100
AcDbLine
10
317.50696352651477
20
-382.50060816525843
30
0
11
317.50696360669082
21
-383.87203673668694
31
0
0
LINE
5
412
100
AcDbEntity
8
0
100
AcDbLine
10
301.09797277317938
20
-368.83817052263447
30
0
11
301.09797297779528
21
-372.33817050773331
31
0
0
LINE
5
413
100
AcDbEntity
8
0
100
AcDbLine
10
297.32654414328914
20
-367.83817074311855
30
0
11
297.32654420175083
21
-368.83817074311855
31
0
0
LINE
5
414
100
AcDbEntity
8
0
100
AcDbLine
10
298.52654414328913
20
-367.83817067296457
30
0
11
298.52654420175082
21
-368.83817067296457
31
0
0
LINE
5
415
100
AcDbEntity
8
0
100
AcDbLine
10
321.00696359178971
20
-383.87203653207104
30
0
11
317.50696360669082
21
-383.87203673668694
31
0
0
LINE
5
416
100
AcDbEntity
8
0
100
AcDbLine
10
321.00696396260378
20
-390.21489367492813
30
0
11
317.506963977505
21
-390.21489387954404
31
0
0
LINE
5
417
100
AcDbEntity
8
0
100
AcDbLine
10
321.00696344145956
20
-381.30060796064248
30
0
11
317.50696345636078
21
-381.30060816525838
31
0
0
ARC
5
418
100
AcDbEntity
8
0
100
AcDbCircle
10
300.49797271471772
20
-367.83817055771152
30
0
40
0.59999999999998821
100
AcDbArc
50
3.3066511133632061e-06
51
180.00000330665111
0
LINE
5
419
100
AcDbEntity
8
0
100
AcDbLine
10
321.00696351161361
20
-382.50060796064253
30
0
11
317.50696352651477
21
-382.50060816525843
31
0
0
LINE
5
420
100
AcDbEntity
8
0
100
AcDbLine
10
293.38368705889366
20
-368.83817097362464
30
0
11
293.38368726350956
21
-372.33817095872354
31
0
0
LINE
5
421
100
AcDbEntity
8
0
100
AcDbLine
10
317.5069638271749
20
-387.64346530811554
30
0
11
317.50696390735095
21
-389.01489387954405
31
0
0
LINE
5
422
100
AcDbEntity
8
0
100
AcDbLine
10
322.00696351161366
20
-382.50060790218083
30
0
11
321.00696351161361
21
-382.50060796064253
31
0
0
LINE
5
423
100
AcDbEntity
8
0
100
AcDbLine
10
321.00696374211975
20
-386.4434651034997
30
0
11
317.50696375702086
21
-386.44346530811561
31
0
0
ARC
5
424
100
AcDbEntity
8
0
100
AcDbCircle
10
322.00696347653661
20
-381.90060790218081
30
0
40
0.60000000000002374
100
AcDbArc
50
-89.999996650388411
51
90.000003349611603
0
LINE
5
425
100
AcDbEntity
8
0
100
AcDbLine
10
322.00696396260383
20
-390.21489361646644
30
0
11
321.00696396260378
21
-390.21489367492813
31
0
0
ARC
5
426
100
AcDbEntity
8
0
100
AcDbCircle
10
322.00696407785688
20
-392.18632218789503
30
0
40
0.60000000000002374
100
AcDbArc
50
-89.999996650388411
51
90.000003349600746
0
ARC
5
427
100
AcDbEntity
8
0
100
AcDbCircle
10
322.00696362686671
20
-384.47203647360936
30
0
40
0.60000000000002374
100
AcDbArc
50
-89.999996650399297
51
90.000003349617032
0
LINE
5
428
100
AcDbEntity
8
0
100
AcDbLine
10
322.00696404277994
20
-391.58632218789501
30
0
11
321.00696404277983
21
-391.58632224635664
31
0
0
LINE
5
429
100
AcDbEntity
8
0
100
AcDbLine
10
321.00696411293382
20
-392.78632224635669
30
0
11
317.50696412783503
21
-392.78632245097265
31
0
0
LINE
5
430
100
AcDbEntity
8
0
100
AcDbLine
10
322.0069635917896
20
-383.87203647360934
30
0
11
321.00696359178971
21
-383.87203653207104
31
0
0
LINE
5
431
100
AcDbEntity
8
0
100
AcDbLine
10
321.00696404277983
20
-391.58632224635664
30
0
11
317.50696405768099
21
-391.5863224509726
31
0
0
LINE
5
432
100
AcDbEntity
8
0
100
AcDbLine
10
293.38368726350956
20
-372.33817095872354
30
0
11
294.75511583493818
21
-372.33817087854754
31
0
0
ARC
5
433
100
AcDbEntity
8
0
100
AcDbCircle
10
322.00696437851707
20
-397.3291793307522
30
0
40
0.59999999999995268
100
AcDbArc
50
-89.999996650399297
51
90.000003349617032
0
LINE
5
434
100
AcDbEntity
8
0
100
AcDbLine
10
299.89797271471775
20
-367.83817059278852
30
0
11
299.89797277317939
21
-368.83817059278852
31
0
0
LINE
5
435
100
AcDbEntity
8
0
100
AcDbLine
10
295.95511583493811
20
-372.3381708083935
30
0
11
297.32654440636674
21
-372.33817072821745
31
0
0
ARC
5
436
100
AcDbEntity
8
0
100
AcDbCircle
10
295.35511557186061
20
-367.83817085837165
30
0
40
0.59999999999995268
100
AcDbArc
50
3.3066511133632061e-06
51
180.00000330665111
0
LINE
5
437
100
AcDbEntity
8
0
100
AcDbLine
10
321.0069638122738
20
-387.64346510349958
30
0
11
317.5069638271749
21
-387.64346530811554
31
0
0
LINE
5
438
100
AcDbEntity
8
0
100
AcDbLine
10
298.52654440636672
20
-372.3381706580634
30
0
11
299.89797297779535
21
-372.33817057788741
31
0
0
LINE
5
439
100
AcDbEntity
8
0
100
AcDbLine
10
322.00696366194364
20
-385.07203647360939
30
0
11
321.0069636619437
21
-385.07203653207108
31
0
0
LINE
5
440
100
AcDbEntity
8
0
100
AcDbLine
10
322.00696374211975
20
-386.44346504503801
30
0
11
321.00696374211975
21
-386.4434651034997
31
0
0
ARC
5
441
100
AcDbEntity
8
0
100
AcDbCircle
10
297.92654414328911
20
-367.83817070804156
30
0
40
0.60000000000002374
100
AcDbArc
50
3.3066511133632061e-06
51
180.00000330665111
0
LINE
5
442
100
AcDbEntity
8
0
100
AcDbLine
10
294.75511557186059
20
-367.83817089344865
30
0
11
294.75511563032222
21
-368.83817089344865
31
0
0
LINE
5
443
100
AcDbEntity
8
0
100
AcDbLine
10
372.50696472185467
20
-423.33816514095008
30
0
11
372.50696378646762
21
-407.33816514095003
31
0
0
LINE
5
444
100
AcDbEntity
8
0
100
AcDbLine
10
375.50696121415314
20
-363.33816496556506
30
0
11
381.50696359833898
21
-363.33816461479478
31
0
0
ARC
5
445
100
AcDbEntity
8
0
100
AcDbCircle
10
290.21225842900344
20
-367.83817115903173
30
0
40
0.59999999999998821
100
AcDbArc
50
3.3066511133632061e-06
51
180.00000330665111
0
LINE
5
446
100
AcDbEntity
8
0
100
AcDbLine
10
375.50696378646762
20
-407.338164965565
30
0
11
375.50696472185462
21
-423.338164965565
31
0
0
LINE
5
447
100
AcDbEntity
8
0
100
AcDbLine
10
317.50696442849517
20
-397.92917959382976
30
0
11
317.50696451086708
21
-399.33816954843599
31
0
0
LINE
5
448
100
AcDbEntity
8
0
100
AcDbLine
10
336.80696352976202
20
-378.63817388401515
30
0
11
369.506963529762
21
-378.63817388401515
31
0
0
LINE
5
449
100
AcDbEntity
8
0
100
AcDbLine
10
321.00696426326397
20
-395.35775081778525
30
0
11
317.50696427816513
21
-395.35775102240115
31
0
0
LINE
5
450
100
AcDbEntity
8
0
100
AcDbLine
10
372.5069621495403
20
-379.33816514095008
30
0
11
375.5069621495403
21
-379.33816496556506
31
0
0
LINE
5
451
100
AcDbEntity
8
0
100
AcDbLine
10
372.50696472185467
20
-423.33816514095008
30
0
11
366.50696472185467
21
-423.33816549172025
31
0
0
LINE
5
452
100
AcDbEntity
8
0
100
AcDbLine
10
317.506963977505
20
-390.21489387954404
30
0
11
317.50696405768099
21
-391.5863224509726
31
0
0
LINE
5
453
100
AcDbEntity
8
0
100
AcDbLine
10
292.18368705889367
20
-368.83817104377869
30
0
11
292.18368726350957
21
-372.33817102887758
31
0
0
LINE
5
454
100
AcDbEntity
8
0
100
AcDbLine
10
292.18368700043197
20
-367.83817104377869
30
0
11
292.18368705889367
21
-368.83817104377869
31
0
0
LINE
5
455
100
AcDbEntity
8
0
100
AcDbLine
10
381.50696710604052
20
-423.33816461479472
30
0
11
375.50696472185462
21
-423.338164965565
31
0
0
LINE
5
456
100
AcDbEntity
8
0
100
AcDbLine
10
381.50696359833898
20
-363.33816461479478
30
0
11
381.50696710604052
21
-423.33816461479472
31
0
0
LINE
5
457
100
AcDbEntity
8
0
100
AcDbLine
10
322.00696426326385
20
-395.35775075932355
30
0
11
321.00696426326397
21
-395.35775081778525
31
0
0
ARC
5
458
100
AcDbEntity
8
0
100
AcDbCircle
10
287.64082985757489
20
-367.83817130936177
30
0
40
0.59999999999995268
100
AcDbArc
50
3.3066511133632061e-06
51
180.00000330665111
0
LINE
5
459
100
AcDbEntity
8
0
100
AcDbLine
10
322.00696419310987
20
-394.15775075932368
30
0
11
321.00696419310992
21
-394.15775081778531
31
0
0
LINE
5
460
100
AcDbEntity
8
0
100
AcDbLine
10
372.50696378646762
20
-407.33816514095003
30
0
11
375.50696378646762
21
-407.338164965565
31
0
0
ARC
5
461
100
AcDbEntity
8
0
100
AcDbCircle
10
292.783687000432
20
-367.83817100870169
30
0
40
0.59999999999998821
100
AcDbArc
50
3.3066511133632061e-06
51
180.00000330665111
0
LINE
5
462
100
AcDbEntity
8
0
100
AcDbLine
10
322.00696411293393
20
-392.78632218789505
30
0
11
321.00696411293382
21
-392.78632224635669
31
0
0
LINE
5
463
100
AcDbEntity
8
0
100
AcDbLine
10
290.812258692081
20
-372.33817110905363
30
0
11
292.18368726350957
21
-372.33817102887758
31
0
0
ARC
5
464
100
AcDbEntity
8
0
100
AcDbCircle
10
282.49797271471772
20
-367.8381716100219
30
0
40
0.59999999999998821
100
AcDbArc
50
3.3066511133632061e-06
51
180.00000330665111
0
LINE
5
465
100
AcDbEntity
8
0
100
AcDbLine
10
321.00696441359401
20
-397.92917938921386
30
0
11
317.50696442849517
21
-397.92917959382976
31
0
0
LINE
5
466
100
AcDbEntity
8
0
100
AcDbLine
10
317.50696412783503
20
-392.78632245097265
30
0
11
317.50696420801103
21
-394.15775102240127
31
0
0
LINE
5
467
100
AcDbEntity
8
0
100
AcDbLine
10
317.50696427816513
20
-395.35775102240115
30
0
11
317.50696435834112
21
-396.72917959382977
31
0
0
LINE
5
468
100
AcDbEntity
8
0
100
AcDbLine
10
372.50696121415319
20
-363.33816514095014
30
0
11
372.5069621495403
21
-379.33816514095008
31
0
0
LINE
5
469
100
AcDbEntity
8
0
100
AcDbLine
10
375.5069621495403
20
-379.33816496556506
30
0
11
375.50696121415314
21
-363.33816496556506
31
0
0
LINE
5
470
100
AcDbEntity
8
0
100
AcDbLine
10
369.506963529762
20
-378.63817388401515
30
0
11
369.506963529762
21
-376.9381738840151
31
0
0
ARC
5
471
100
AcDbEntity
8
0
100
AcDbCircle
10
285.06940128614633
20
-367.83817145969186
30
0
40
0.60000000000002374
100
AcDbArc
50
3.3066511133632061e-06
51
180.00000330665111
0
LINE
5
472
100
AcDbEntity
8
0
100
AcDbLine
10
321.00696419310992
20
-394.15775081778531
30
0
11
317.50696420801103
21
-394.15775102240127
31
0
0
LINE
5
473
100
AcDbEntity
8
0
100
AcDbLine
10
322.00696434343996
20
-396.72917933075217
30
0
11
321.00696434344002
21
-396.72917938921387
31
0
0
LINE
5
474
100
AcDbEntity
8
0
100
AcDbLine
10
321.00696434344002
20
-396.72917938921387
30
0
11
317.50696435834112
21
-396.72917959382977
31
0
0
LINE
5
475
100
AcDbEntity
8
0
100
AcDbLine
10
322.00696441359401
20
-397.92917933075216
30
0
11
321.00696441359401
21
-397.92917938921386
31
0
0
LINE
5
476
100
AcDbEntity
8
0
100
AcDbLine
10
289.61225842900342
20
-367.83817119410878
30
0
11
289.61225848746511
21
-368.83817119410878
31
0
0
LINE
5
477
100
AcDbEntity
8
0
100
AcDbLine
10
281.89797271471775
20
-367.8381716450989
30
0
11
281.89797297779535
21
-372.33817163019779
31
0
0
LINE
5
478
100
AcDbEntity
8
0
100
AcDbLine
10
261.00696376462162
20
-386.31859137755634
30
0
11
262.00696376462162
21
-386.31859131909459
31
0
0
LINE
5
479
100
AcDbEntity
8
0
100
AcDbLine
10
262.00696413543579
20
-392.66144846195164
30
0
11
265.50696412053458
21
-392.66144825733568
31
0
0
LINE
5
480
100
AcDbEntity
8
0
100
AcDbLine
10
284.46940128614636
20
-367.83817149476886
30
0
11
284.46940134460806
21
-368.83817149476891
31
0
0
LINE
5
481
100
AcDbEntity
8
0
100
AcDbLine
10
261.00696413543579
20
-392.66144852041339
30
0
11
262.00696413543579
21
-392.66144846195164
31
0
0
LINE
5
482
100
AcDbEntity
8
0
100
AcDbLine
10
261.00696361429152
20
-383.74716280612779
30
0
11
262.00696361429158
21
-383.74716274766604
31
0
0
LINE
5
483
100
AcDbEntity
8
0
100
AcDbLine
10
265.50696435104066
20
-396.60430540019291
30
0
11
265.50696427086461
21
-395.23287682876429
31
0
0
LINE
5
484
100
AcDbEntity
8
0
100
AcDbLine
10
262.00696406528175
20
-391.4614484619517
30
0
11
265.50696405038053
21
-391.4614482573358
31
0
0
LINE
5
485
100
AcDbEntity
8
0
100
AcDbLine
10
288.24082985757479
20
-367.83817127428478
30
0
11
288.24082991603649
21
-368.83817127428478
31
0
0
ARC
5
486
100
AcDbEntity
8
0
100
AcDbCircle
10
261.00696364936857
20
-384.34716280612776
30
0
40
0.59999999999995268
100
AcDbArc
50
90.000003349611603
51
270.00000334961157
0
LINE
5
487
100
AcDbEntity
8
0
100
AcDbLine
10
262.00696443609593
20
-397.8043056048088
30
0
11
265.50696442119471
21
-397.8043054001929
31
0
0
LINE
5
488
100
AcDbEntity
8
0
100
AcDbLine
10
261.00696391495165
20
-388.89001994898484
30
0
11
262.00696391495165
21
-388.89001989052309
31
0
0
LINE
5
489
100
AcDbEntity
8
0
100
AcDbLine
10
265.5069637497204
20
-386.31859111447864
30
0
11
265.5069636695444
21
-384.94716254305001
31
0
0
LINE
5
490
100
AcDbEntity
8
0
100
AcDbLine
10
261.00696428576583
20
-395.23287709184194
30
0
11
262.00696428576583
21
-395.23287703338019
31
0
0
LINE
5
491
100
AcDbEntity
8
0
100
AcDbLine
10
261.00696368444562
20
-384.94716280612772
30
0
11
262.00696368444562
21
-384.94716274766597
31
0
0
LINE
5
492
100
AcDbEntity
8
0
100
AcDbLine
10
262.00696428576583
20
-395.23287703338019
30
0
11
265.50696427086461
21
-395.23287682876429
31
0
0
LINE
5
493
100
AcDbEntity
8
0
100
AcDbLine
10
265.50696420071063
20
-394.0328768287643
30
0
11
265.50696412053458
21
-392.66144825733568
31
0
0
LINE
5
494
100
AcDbEntity
8
0
100
AcDbLine
10
288.24083012065239
20
-372.33817125938367
30
0
11
289.61225869208101
21
-372.33817117920762
31
0
0
LINE
5
495
100
AcDbEntity
8
0
100
AcDbLine
10
285.66940134460799
20
-368.83817142461487
30
0
11
285.66940154922395
21
-372.33817140971377
31
0
0
LINE
5
496
100
AcDbEntity
8
0
100
AcDbLine
10
262.00696421561184
20
-394.03287703338026
30
0
11
265.50696420071063
21
-394.0328768287643
31
0
0
ARC
5
497
100
AcDbEntity
8
0
100
AcDbCircle
10
261.00696425068884
20
-394.63287709184203
30
0
40
0.60000000000002374
100
AcDbArc
50
90.000003349611603
51
270.00000334960617
0
ARC
5
498
100
AcDbEntity
8
0
100
AcDbCircle
10
261.00696395002871
20
-389.49001994898481
30
0
40
0.59999999999995268
100
AcDbArc
50
90.000003349611603
51
270.00000334960617
0
LINE
5
499
100
AcDbEntity
8
0
100
AcDbLine
10
265.50696390005049
20
-388.89001968590719
30
0
11
265.50696381987444
21
-387.51859111447862
31
0
0
LINE
5
500
100
AcDbEntity
8
0
100
AcDbLine
10
290.8122584874651
20
-368.83817112395479
30
0
11
290.812258692081
21
-372.33817110905363
31
0
0
LINE
5
501
100
AcDbEntity
8
0
100
AcDbLine
10
261.006964736756
20
-402.94716280612766
30
0
11
265.50696472185484
21
-402.94716254305001
31
0
0
LINE
5
502
100
AcDbEntity
8
0
100
AcDbLine
10
283.09797271471774
20
-367.83817157494491
30
0
11
283.09797277317944
21
-368.83817157494491
31
0
0
LINE
5
503
100
AcDbEntity
8
0
100
AcDbLine
10
280.50696293240156
20
-372.33817171151861
30
0
11
281.89797297779535
21
-372.33817163019779
31
0
0
LINE
5
504
100
AcDbEntity
8
0
100
AcDbLine
10
262.00696391495165
20
-388.89001989052309
30
0
11
265.50696390005049
21
-388.89001968590719
31
0
0
LINE
5
505
100
AcDbEntity
8
0
100
AcDbLine
10
265.50696450137076
20
-399.17573397162141
30
0
11
265.50696442119471
21
-397.8043054001929
31
0
0
LINE
5
506
100
AcDbEntity
8
0
100
AcDbLine
10
289.61225848746511
20
-368.83817119410878
30
0
11
289.61225869208101
21
-372.33817117920762
31
0
0
LINE
5
507
100
AcDbEntity
8
0
100
AcDbLine
10
283.09797277317944
20
-368.83817157494491
30
0
11
283.09797297779534
21
-372.33817156004375
31
0
0
LINE
5
508
100
AcDbEntity
8
0
100
AcDbLine
10
285.66940154922395
20
-372.33817140971377
30
0
11
287.04083012065246
21
-372.33817132953766
31
0
0
LINE
5
509
100
AcDbEntity
8
0
100
AcDbLine
10
290.81225842900341
20
-367.83817112395474
30
0
11
290.8122584874651
21
-368.83817112395479
31
0
0
LINE
5
510
100
AcDbEntity
8
0
100
AcDbLine
10
262.0069639851057
20
-390.09001989052308
30
0
11
265.50696397020454
21
-390.09001968590718
31
0
0
LINE
5
511
100
AcDbEntity
8
0
100
AcDbLine
10
283.09797297779534
20
-372.33817156004375
30
0
11
284.46940154922396
21
-372.33817147986775
31
0
0
LINE
5
512
100
AcDbEntity
8
0
100
AcDbLine
10
261.00696383477566
20
-387.51859137755628
30
0
11
262.00696383477566
21
-387.51859131909453
31
0
0
LINE
5
513
100
AcDbEntity
8
0
100
AcDbLine
10
262.00696376462162
20
-386.31859131909459
30
0
11
265.5069637497204
21
-386.31859111447864
31
0
0
LINE
5
514
100
AcDbEntity
8
0
100
AcDbLine
10
285.66940128614635
20
-367.83817142461487
30
0
11
285.66940134460799
21
-368.83817142461487
31
0
0
LINE
5
515
100
AcDbEntity
8
0
100
AcDbLine
10
262.00696368444562
20
-384.94716274766597
30
0
11
265.5069636695444
21
-384.94716254305001
31
0
0
LINE
5
516
100
AcDbEntity
8
0
100
AcDbLine
10
262.00696361429158
20
-383.74716274766604
30
0
11
265.50696359939036
21
-383.74716254305014
31
0
0
LINE
5
517
100
AcDbEntity
8
0
100
AcDbLine
10
262.00696383477566
20
-387.51859131909453
30
0
11
265.50696381987444
21
-387.51859111447862
31
0
0
LINE
5
518
100
AcDbEntity
8
0
100
AcDbLine
10
261.00696421561179
20
-394.03287709184201
30
0
11
262.00696421561184
21
-394.03287703338026
31
0
0
ARC
5
519
100
AcDbEntity
8
0
100
AcDbCircle
10
261.00696379969861
20
-386.91859137755637
30
0
40
0.60000000000002374
100
AcDbArc
50
90.000003349606175
51
270.00000334961157
0
LINE
5
520
100
AcDbEntity
8
0
100
AcDbLine
10
288.24082991603649
20
-368.83817127428478
30
0
11
288.24083012065239
21
-372.33817125938367
31
0
0
LINE
5
521
100
AcDbEntity
8
0
100
AcDbLine
10
261.00696436594188
20
-396.60430566327057
30
0
11
262.00696436594188
21
-396.60430560480881
31
0
0
LINE
5
522
100
AcDbEntity
8
0
100
AcDbLine
10
261.00696443609587
20
-397.80430566327055
30
0
11
262.00696443609593
21
-397.8043056048088
31
0
0
LINE
5
523
100
AcDbEntity
8
0
100
AcDbLine
10
261.00696458642597
20
-400.37573423469905
30
0
11
262.00696458642597
21
-400.3757341762373
31
0
0
LINE
5
524
100
AcDbEntity
8
0
100
AcDbLine
10
262.00696458642597
20
-400.3757341762373
30
0
11
265.50696457152475
21
-400.3757339716214
31
0
0
LINE
5
525
100
AcDbEntity
8
0
100
AcDbLine
10
261.00696406528175
20
-391.46144852041346
30
0
11
262.00696406528175
21
-391.4614484619517
31
0
0
LINE
5
526
100
AcDbEntity
8
0
100
AcDbLine
10
265.50696405038053
20
-391.4614482573358
30
0
11
265.50696397020454
21
-390.09001968590718
31
0
0
LINE
5
527
100
AcDbEntity
8
0
100
AcDbLine
10
262.00696466660202
20
-401.74716274766593
30
0
11
265.5069646517008
21
-401.74716254305002
31
0
0
LINE
5
528
100
AcDbEntity
8
0
100
AcDbLine
10
261.0069639851057
20
-390.09001994898483
30
0
11
262.0069639851057
21
-390.09001989052308
31
0
0
LINE
5
529
100
AcDbEntity
8
0
100
AcDbLine
10
284.46940134460806
20
-368.83817149476891
30
0
11
284.46940154922396
21
-372.33817147986775
31
0
0
LINE
5
530
100
AcDbEntity
8
0
100
AcDbLine
10
287.04082985757486
20
-367.83817134443882
30
0
11
287.0408299160365
21
-368.83817134443882
31
0
0
LINE
5
531
100
AcDbEntity
8
0
100
AcDbLine
10
262.00696436594188
20
-396.60430560480881
30
0
11
265.50696435104066
21
-396.60430540019291
31
0
0
ARC
5
532
100
AcDbEntity
8
0
100
AcDbCircle
10
261.00696410035874
20
-392.06144852041342
30
0
40
0.59999999999995268
100
AcDbArc
50
90.000003349606175
51
270.00000334961157
0
LINE
5
533
100
AcDbEntity
8
0
100
AcDbLine
10
287.0408299160365
20
-368.83817134443882
30
0
11
287.04083012065246
21
-372.33817132953766
31
0
0
ARC
5
534
100
AcDbEntity
8
0
100
AcDbCircle
10
261.00696440101888
20
-397.20430566327053
30
0
40
0.59999999999995268
100
AcDbArc
50
90.000003349606175
51
270.00000334960617
0
LINE
5
535
100
AcDbEntity
8
0
100
AcDbLine
10
210.50696378646785
20
-407.33817461174402
30
0
11
207.50696378646782
21
-407.33817478712911
31
0
0
ARC
5
536
100
AcDbEntity
8
0
100
AcDbCircle
10
261.00696470167901
20
-402.3471628061277
30
0
40
0.60000000000002374
100
AcDbArc
50
90.000003349606175
51
270.00000334960617
0
LINE
5
537
100
AcDbEntity
8
0
100
AcDbLine
10
261.00696451627192
20
-399.17573423469912
30
0
11
262.00696451627198
21
-399.17573417623737
31
0
0
LINE
5
538
100
AcDbEntity
8
0
100
AcDbLine
10
261.00696466660202
20
-401.74716280612768
30
0
11
262.00696466660202
21
-401.74716274766593
31
0
0
ARC
5
539
100
AcDbEntity
8
0
100
AcDbCircle
10
261.00696455134891
20
-399.77573423469914
30
0
40
0.60000000000002374
100
AcDbArc
50
90.000003349606175
51
270.00000334961157
0
LINE
5
540
100
AcDbEntity
8
0
100
AcDbLine
10
262.00696451627198
20
-399.17573417623737
30
0
11
265.50696450137076
21
-399.17573397162141
31
0
0
LINE
5
541
100
AcDbEntity
8
0
100
AcDbLine
10
207.50696378646782
20
-407.33817478712911
30
0
11
207.5069647218549
21
-423.33817478712911
31
0
0
LINE
5
542
100
AcDbEntity
8
0
100
AcDbLine
10
265.5069646517008
20
-401.74716254305002
30
0
11
265.50696457152475
21
-400.3757339716214
31
0
0
LINE
5
543
100
AcDbEntity
8
0
100
AcDbLine
10
265.50696480317561
20
-404.3381725884438
30
0
11
265.50696472185484
21
-402.94716254305001
31
0
0
LINE
5
544
100
AcDbEntity
8
0
100
AcDbLine
10
210.5069647218549
20
-423.33817461174408
30
0
11
216.5069647218549
21
-423.33817426097391
31
0
0
LINE
5
545
100
AcDbEntity
8
0
100
AcDbLine
10
321.00696470695374
20
-383.87204226435898
30
0
11
317.5069647218549
21
-383.87204226435898
31
0
0
LINE
5
546
100
AcDbEntity
8
0
100
AcDbLine
10
322.0069647069538
20
-379.92918512150192
30
0
11
321.00696470695374
21
-379.92918512150192
31
0
0
ARC
5
547
100
AcDbEntity
8
0
100
AcDbCircle
10
322.0069647069538
20
-394.75775655007328
30
0
40
0.60000000000002274
100
AcDbArc
50
-90
51
90
0
ARC
5
548
100
AcDbEntity
8
0
100
AcDbCircle
10
322.0069647069538
20
-389.61489940721617
30
0
40
0.59999999999995168
100
AcDbArc
50
-90
51
90
0
ARC
5
549
100
AcDbEntity
8
0
100
AcDbCircle
10
322.0069647069538
20
-392.18632797864473
30
0
40
0.60000000000002274
100
AcDbArc
50
-90
51
90
0
LINE
5
550
100
AcDbEntity
8
0
100
AcDbLine
10
322.0069647069538
20
-397.92918512150186
30
0
11
321.00696470695374
21
-397.92918512150186
31
0
0
LINE
5
551
100
AcDbEntity
8
0
100
AcDbLine
10
322.0069647069538
20
-396.72918512150193
30
0
11
321.00696470695374
21
-396.72918512150193
31
0
0
LINE
5
552
100
AcDbEntity
8
0
100
AcDbLine
10
321.00696470695374
20
-394.15775655007337
30
0
11
317.5069647218549
21
-394.15775655007337
31
0
0
ARC
5
553
100
AcDbEntity
8
0
100
AcDbCircle
10
322.0069647069538
20
-381.90061369293051
30
0
40
0.60000000000002274
100
AcDbArc
50
-90
51
90
0
LINE
5
554
100
AcDbEntity
8
0
100
AcDbLine
10
317.5069647218549
20
-395.3577565500733
30
0
11
317.5069647218549
21
-396.72918512150193
31
0
0
LINE
5
555
100
AcDbEntity
8
0
100
AcDbLine
10
322.0069647069538
20
-385.07204226435903
30
0
11
321.00696470695374
21
-385.07204226435903
31
0
0
LINE
5
556
100
AcDbEntity
8
0
100
AcDbLine
10
317.5069647218549
20
-392.78632797864475
30
0
11
317.5069647218549
21
-394.15775655007337
31
0
0
ARC
5
557
100
AcDbEntity
8
0
100
AcDbCircle
10
322.0069647069538
20
-379.32918512150195
30
0
40
0.59999999999995168
100
AcDbArc
50
-90
51
90
0
LINE
5
558
100
AcDbEntity
8
0
100
AcDbLine
10
321.00696470695374
20
-387.64347083578753
30
0
11
317.5069647218549
21
-387.64347083578753
31
0
0
LINE
5
559
100
AcDbEntity
8
0
100
AcDbLine
10
317.5069647218549
20
-379.92918512150192
30
0
11
317.5069647218549
21
-381.30061369293048
31
0
0
ARC
5
560
100
AcDbEntity
8
0
100
AcDbCircle
10
322.0069647069538
20
-397.32918512150195
30
0
40
0.59999999999995168
100
AcDbArc
50
-90
51
90
0
LINE
5
561
100
AcDbEntity
8
0
100
AcDbLine
10
317.5069647218549
20
-382.50061369293053
30
0
11
317.5069647218549
21
-383.87204226435898
31
0
0
LINE
5
562
100
AcDbEntity
8
0
100
AcDbLine
10
322.0069647069538
20
-387.64347083578753
30
0
11
321.00696470695374
21
-387.64347083578753
31
0
0
LINE
5
563
100
AcDbEntity
8
0
100
AcDbLine
10
321.00696470695374
20
-396.72918512150193
30
0
11
317.5069647218549
21
-396.72918512150193
31
0
0
ARC
5
564
100
AcDbEntity
8
0
100
AcDbCircle
10
322.0069647069538
20
-384.472042264359
30
0
40
0.60000000000002274
100
AcDbArc
50
-90
51
90
0
LINE
5
565
100
AcDbEntity
8
0
100
AcDbLine
10
321.00696470695374
20
-386.44347083578765
30
0
11
317.5069647218549
21
-386.44347083578765
31
0
0
LINE
5
566
100
AcDbEntity
8
0
100
AcDbLine
10
322.0069647069538
20
-382.50061369293053
30
0
11
321.00696470695374
21
-382.50061369293053
31
0
0
ARC
5
567
100
AcDbEntity
8
0
100
AcDbCircle
10
322.0069647069538
20
-387.04347083578762
30
0
40
0.59999999999995168
100
AcDbArc
50
-90
51
90
0
LINE
5
568
100
AcDbEntity
8
0
100
AcDbLine
10
321.00696470695374
20
-379.92918512150192
30
0
11
317.5069647218549
21
-379.92918512150192
31
0
0
LINE
5
569
100
AcDbEntity
8
0
100
AcDbLine
10
321.00696470695374
20
-382.50061369293053
30
0
11
317.5069647218549
21
-382.50061369293053
31
0
0
LINE
5
570
100
AcDbEntity
8
0
100
AcDbLine
10
322.0069647069538
20
-383.87204226435898
30
0
11
321.00696470695374
21
-383.87204226435898
31
0
0
LINE
5
571
100
AcDbEntity
8
0
100
AcDbLine
10
321.00696470695374
20
-381.30061369293048
30
0
11
317.5069647218549
21
-381.30061369293048
31
0
0
LINE
5
572
100
AcDbEntity
8
0
100
AcDbLine
10
321.00696470695374
20
-385.07204226435903
30
0
11
317.5069647218549
21
-385.07204226435903
31
0
0
LINE
5
573
100
AcDbEntity
8
0
100
AcDbLine
10
322.0069647069538
20
-386.44347083578765
30
0
11
321.00696470695374
21
-386.44347083578765
31
0
0
LINE
5
574
100
AcDbEntity
8
0
100
AcDbLine
10
322.0069647069538
20
-381.30061369293048
30
0
11
321.00696470695374
21
-381.30061369293048
31
0
0
LINE
5
575
100
AcDbEntity
8
0
100
AcDbLine
10
317.5069647218549
20
-385.07204226435903
30
0
11
317.5069647218549
21
-386.44347083578765
31
0
0
LINE
5
576
100
AcDbEntity
8
0
100
AcDbLine
10
322.0069647069538
20
-378.72918512150193
30
0
11
317.5069647218549
21
-378.72918512150193
31
0
0
LINE
5
577
100
AcDbEntity
8
0
100
AcDbLine
10
322.0069647069538
20
-392.78632797864475
30
0
11
321.00696470695374
21
-392.78632797864475
31
0
0
LINE
5
578
100
AcDbEntity
8
0
100
AcDbLine
10
321.00696470695374
20
-392.78632797864475
30
0
11
317.5069647218549
21
-392.78632797864475
31
0
0
LINE
5
579
100
AcDbEntity
8
0
100
AcDbLine
10
321.00696470695374
20
-390.21489940721614
30
0
11
317.5069647218549
21
-390.21489940721614
31
0
0
LINE
5
580
100
AcDbEntity
8
0
100
AcDbLine
10
321.00696470695374
20
-397.92918512150186
30
0
11
317.5069647218549
21
-397.92918512150186
31
0
0
LINE
5
581
100
AcDbEntity
8
0
100
AcDbLine
10
321.00696470695374
20
-391.5863279786447
30
0
11
317.5069647218549
21
-391.5863279786447
31
0
0
LINE
5
582
100
AcDbEntity
8
0
100
AcDbLine
10
322.0069647069538
20
-389.01489940721615
30
0
11
321.00696470695374
21
-389.01489940721615
31
0
0
LINE
5
583
100
AcDbEntity
8
0
100
AcDbLine
10
322.0069647069538
20
-394.15775655007337
30
0
11
321.00696470695374
21
-394.15775655007337
31
0
0
LINE
5
584
100
AcDbEntity
8
0
100
AcDbLine
10
322.0069647069538
20
-391.5863279786447
30
0
11
321.00696470695374
21
-391.5863279786447
31
0
0
LINE
5
585
100
AcDbEntity
8
0
100
AcDbLine
10
317.5069647218549
20
-387.64347083578753
30
0
11
317.5069647218549
21
-389.01489940721615
31
0
0
LINE
5
586
100
AcDbEntity
8
0
100
AcDbLine
10
317.5069647218549
20
-397.92918512150186
30
0
11
317.5069647218549
21
-399.33817507610809
31
0
0
LINE
5
587
100
AcDbEntity
8
0
100
AcDbLine
10
321.00696470695374
20
-389.01489940721615
30
0
11
317.5069647218549
21
-389.01489940721615
31
0
0
LINE
5
588
100
AcDbEntity
8
0
100
AcDbLine
10
322.0069647069538
20
-395.3577565500733
30
0
11
321.00696470695374
21
-395.3577565500733
31
0
0
LINE
5
589
100
AcDbEntity
8
0
100
AcDbLine
10
317.5069647218549
20
-390.21489940721614
30
0
11
317.5069647218549
21
-391.5863279786447
31
0
0
LINE
5
590
100
AcDbEntity
8
0
100
AcDbLine
10
321.00696470695374
20
-395.3577565500733
30
0
11
317.5069647218549
21
-395.3577565500733
31
0
0
LINE
5
591
100
AcDbEntity
8
0
100
AcDbLine
10
322.0069647069538
20
-390.21489940721614
30
0
11
321.00696470695374
21
-390.21489940721614
31
0
0
LINE
5
592
100
AcDbEntity
8
0
100
AcDbLine
10
219.50696240729755
20
-383.74716523228807
30
0
11
216.50696240729758
21
-383.74716540767309
31
0
0
LINE
5
593
100
AcDbEntity
8
0
100
AcDbLine
10
216.50696240729758
20
-383.74716540767309
30
0
11
216.5069647218549
21
-423.33817426097391
31
0
0
LINE
5
594
100
AcDbEntity
8
0
100
AcDbLine
10
207.5069647218549
20
-423.33817478712911
30
0
11
201.50696472185487
21
-423.33817513789927
31
0
0
LINE
5
595
100
AcDbEntity
8
0
100
AcDbLine
10
210.5069647218549
20
-423.33817461174408
30
0
11
216.5069647218549
21
-423.33817426097391
31
0
0
LINE
5
596
100
AcDbEntity
8
0
100
AcDbLine
10
223.0069618717778
20
-395.23287931338632
30
0
11
219.50693807300198
21
-395.2328795180037
31
0
0
LINE
5
597
100
AcDbEntity
8
0
100
AcDbLine
10
223.00696202210787
20
-397.80430788481488
30
0
11
219.50693822333204
21
-397.80430808943231
31
0
0
ARC
5
598
100
AcDbEntity
8
0
100
AcDbCircle
10
224.00696153604071
20
-389.49002211206744
30
0
40
0.60000000000002374
100
AcDbArc
50
-89.999996650393854
51
90.000003349611603
0
LINE
5
599
100
AcDbEntity
8
0
100
AcDbLine
10
223.00696195195385
20
-396.60430788481494
30
0
11
219.50693815317803
21
-396.60430808943232
31
0
0
ARC
5
600
100
AcDbEntity
8
0
100
AcDbCircle
10
224.00696138571061
20
-386.91859354063899
30
0
40
0.59999999999995268
100
AcDbArc
50
-89.999996650388411
51
90.000003349608889
0
LINE
5
601
100
AcDbEntity
8
0
100
AcDbLine
10
224.0069615711177
20
-390.09002211206746
30
0
11
223.0069615711177
21
-390.09002217052915
31
0
0
LINE
5
602
100
AcDbEntity
8
0
100
AcDbLine
10
224.00696165129372
20
-391.46145068349608
30
0
11
223.00696165129369
21
-391.46145074195778
31
0
0
LINE
5
603
100
AcDbEntity
8
0
100
AcDbLine
10
223.00696142078763
20
-387.51859359910065
30
0
11
219.50693762200166
21
-387.51859380371803
31
0
0
LINE
5
604
100
AcDbEntity
8
0
100
AcDbLine
10
223.00696120030352
20
-383.74716502767217
30
0
11
219.50696121520468
21
-383.74716523228813
31
0
0
LINE
5
605
100
AcDbEntity
8
0
100
AcDbLine
10
224.00696187177783
20
-395.23287925492463
30
0
11
223.0069618717778
21
-395.23287931338632
31
0
0
LINE
5
606
100
AcDbEntity
8
0
100
AcDbLine
10
223.00696180162379
20
-394.03287931338633
30
0
11
219.50693800284793
21
-394.03287951800371
31
0
0
LINE
5
607
100
AcDbEntity
8
0
100
AcDbLine
10
224.00696202210787
20
-397.80430782635324
30
0
11
223.00696202210787
21
-397.80430788481488
31
0
0
LINE
5
608
100
AcDbEntity
8
0
100
AcDbLine
10
223.00696217243794
20
-400.37573645624343
30
0
11
219.50693837366214
21
-400.37573666086087
31
0
0
ARC
5
609
100
AcDbEntity
8
0
100
AcDbCircle
10
224.00696183670081
20
-394.63287925492466
30
0
40
0.59999999999995268
100
AcDbArc
50
-89.999996650391154
51
90.000003349606175
0
LINE
5
610
100
AcDbEntity
8
0
100
AcDbLine
10
224.00696180162382
20
-394.03287925492464
30
0
11
223.00696180162379
21
-394.03287931338633
31
0
0
LINE
5
611
100
AcDbEntity
8
0
100
AcDbLine
10
224.00696172144777
20
-392.66145068349601
30
0
11
223.00696172144774
21
-392.66145074195771
31
0
0
LINE
5
612
100
AcDbEntity
8
0
100
AcDbLine
10
224.00696210228392
20
-399.17573639778175
30
0
11
223.00696210228392
21
-399.17573645624344
31
0
0
LINE
5
613
100
AcDbEntity
8
0
100
AcDbLine
10
224.00696195195388
20
-396.60430782635325
30
0
11
223.00696195195385
21
-396.60430788481494
31
0
0
ARC
5
614
100
AcDbEntity
8
0
100
AcDbCircle
10
224.00696123538054
20
-384.34716496921044
30
0
40
0.59999999999995268
100
AcDbArc
50
-89.999996650388411
51
90.000003349608889
0
LINE
5
615
100
AcDbEntity
8
0
100
AcDbLine
10
223.00696172144774
20
-392.66145074195771
30
0
11
219.50693792267188
21
-392.66145094657509
31
0
0
ARC
5
616
100
AcDbEntity
8
0
100
AcDbCircle
10
224.00696168637074
20
-392.06145068349605
30
0
40
0.59999999999995268
100
AcDbArc
50
-89.999996650391154
51
90.000003349608889
0
ARC
5
617
100
AcDbEntity
8
0
100
AcDbCircle
10
224.00696198703088
20
-397.20430782635322
30
0
40
0.60000000000002374
100
AcDbArc
50
-89.999996650393854
51
90.000003349606175
0
ARC
5
618
100
AcDbEntity
8
0
100
AcDbCircle
10
224.00696213736094
20
-399.77573639778177
30
0
40
0.59999999999995268
100
AcDbArc
50
-89.999996650393854
51
90.000003349608889
0
LINE
5
619
100
AcDbEntity
8
0
100
AcDbLine
10
223.00696210228392
20
-399.17573645624344
30
0
11
219.50693830350809
21
-399.17573666086082
31
0
0
LINE
5
620
100
AcDbEntity
8
0
100
AcDbLine
10
224.00696217243794
20
-400.37573639778174
30
0
11
223.00696217243794
21
-400.37573645624343
31
0
0
LINE
5
621
100
AcDbEntity
8
0
100
AcDbLine
10
223.0069615711177
20
-390.09002217052915
30
0
11
219.5069377723317
21
-390.09002237514659
31
0
0
LINE
5
622
100
AcDbEntity
8
0
100
AcDbLine
10
224.00696120030352
20
-383.74716496921047
30
0
11
223.00696120030352
21
-383.74716502767217
31
0
0
ARC
5
623
100
AcDbEntity
8
0
100
AcDbCircle
10
224.00696228769101
20
-402.34716496921038
30
0
40
0.59999999999995268
100
AcDbArc
50
-89.999996650393854
51
90.000003349608889
0
LINE
5
624
100
AcDbEntity
8
0
100
AcDbLine
10
223.00696150096365
20
-388.89002217052916
30
0
11
219.50693770217768
21
-388.8900223751466
31
0
0
LINE
5
625
100
AcDbEntity
8
0
100
AcDbLine
10
224.00696135063359
20
-386.31859354063897
30
0
11
223.00696135063359
21
-386.31859359910067
31
0
0
LINE
5
626
100
AcDbEntity
8
0
100
AcDbLine
10
223.00696135063359
20
-386.31859359910067
30
0
11
219.5069375518477
21
-386.31859380371804
31
0
0
LINE
5
627
100
AcDbEntity
8
0
100
AcDbLine
10
224.00696150096365
20
-388.89002211206753
30
0
11
223.00696150096365
21
-388.89002217052916
31
0
0
LINE
5
628
100
AcDbEntity
8
0
100
AcDbLine
10
223.00696127045757
20
-384.94716502767204
30
0
11
219.50693747167168
21
-384.94716523228942
31
0
0
LINE
5
629
100
AcDbEntity
8
0
100
AcDbLine
10
224.00696225261399
20
-401.74716496921036
30
0
11
223.00696225261396
21
-401.74716502767205
31
0
0
LINE
5
630
100
AcDbEntity
8
0
100
AcDbLine
10
223.00696225261396
20
-401.74716502767205
30
0
11
219.50693845383819
21
-401.74716523228949
31
0
0
LINE
5
631
100
AcDbEntity
8
0
100
AcDbLine
10
224.00696127045759
20
-384.94716496921035
30
0
11
223.00696127045757
21
-384.94716502767204
31
0
0
LINE
5
632
100
AcDbEntity
8
0
100
AcDbLine
10
224.00696142078766
20
-387.51859354063896
30
0
11
223.00696142078763
21
-387.51859359910065
31
0
0
LINE
5
633
100
AcDbEntity
8
0
100
AcDbLine
10
223.00696165129369
20
-391.46145074195778
30
0
11
219.50693785250769
21
-391.46145094657521
31
0
0
LINE
5
634
100
AcDbEntity
8
0
100
AcDbLine
10
224.006962322768
20
-402.94716496921035
30
0
11
219.50696208096343
21
-402.94716523228817
31
0
0
LINE
5
635
100
AcDbEntity
8
0
100
AcDbLine
10
219.5069375518477
20
-386.31859380371804
30
0
11
219.50693747167168
21
-384.94716523228942
31
0
0
LINE
5
636
100
AcDbEntity
8
0
100
AcDbLine
10
219.50693770217768
20
-388.8900223751466
30
0
11
219.50693762200166
21
-387.51859380371803
31
0
0
LINE
5
637
100
AcDbEntity
8
0
100
AcDbLine
10
219.50693785250769
20
-391.46145094657521
30
0
11
219.5069377723317
21
-390.09002237514659
31
0
0
LINE
5
638
100
AcDbEntity
8
0
100
AcDbLine
10
219.50693800284793
20
-394.03287951800371
30
0
11
219.50693792267188
21
-392.66145094657509
31
0
0
LINE
5
639
100
AcDbEntity
8
0
100
AcDbLine
10
219.50693815317803
20
-396.60430808943232
30
0
11
219.50693807300198
21
-395.2328795180037
31
0
0
LINE
5
640
100
AcDbEntity
8
0
100
AcDbLine
10
219.50693830350809
20
-399.17573666086082
30
0
11
219.50693822333204
21
-397.80430808943231
31
0
0
LINE
5
641
100
AcDbEntity
8
0
100
AcDbLine
10
219.50693845383819
20
-401.74716523228949
30
0
11
219.50693837366214
21
-400.37573666086087
31
0
0
LINE
5
642
100
AcDbEntity
8
0
100
AcDbLine
10
219.50696208096343
20
-402.94716523228817
30
0
11
219.50696233766919
21
-407.33817461174402
31
0
0
LINE
5
643
100
AcDbEntity
8
0
100
AcDbLine
10
265.50696480317561
20
-407.33817192250615
30
0
11
265.50696480317561
21
-404.3381725884438
31
0
0
LINE
5
644
100
AcDbEntity
8
0
100
AcDbLine
10
234.64782866434714
20
-407.33817396043014
30
0
11
234.64782866434714
21
-383.74716432693492
31
0
0
LINE
5
645
100
AcDbEntity
8
0
100
AcDbLine
10
234.64782866434714
20
-383.74716432693492
30
0
11
230.64782866434714
21
-383.74716432693492
31
0
0
LINE
5
646
100
AcDbEntity
8
0
100
AcDbLine
10
230.64782866434714
20
-383.74716432693492
30
0
11
230.64782866434714
21
-407.33817396043014
31
0
0
LINE
5
647
100
AcDbEntity
8
0
100
AcDbLine
10
219.50696233766919
20
-407.33817461174402
30
0
11
230.64782866434714
21
-407.33817396043014
31
0
0
LINE
5
648
100
AcDbEntity
8
0
100
AcDbLine
10
234.64782866434714
20
-407.33817396043014
30
0
11
265.50696480317561
21
-407.33817192250615
31
0
0
LINE
5
649
100
AcDbEntity
8
0
100
AcDbLine
10
372.50696472185467
20
-423.33816514095008
30
0
11
366.50696472185467
21
-423.33816549172025
31
0
0
LINE
5
650
100
AcDbEntity
8
0
100
AcDbLine
10
366.50696472185467
20
-423.33816549172025
30
0
11
366.50696378646757
21
-407.33816549172019
31
0
0
LINE
5
651
100
AcDbEntity
8
0
100
AcDbLine
10
334.22775902433727
20
-407.33816831151864
30
0
11
334.22775902433125
21
-383.73816866094467
31
0
0
LINE
5
652
100
AcDbEntity
8
0
100
AcDbLine
10
334.22775902433125
20
-383.73816866094467
30
0
11
330.22775902433727
21
-383.73816866094467
31
0
0
LINE
5
653
100
AcDbEntity
8
0
100
AcDbLine
10
330.22775902433727
20
-383.73816866094467
30
0
11
330.22775902433727
21
-407.33816866094463
31
0
0
LINE
5
654
100
AcDbEntity
8
0
100
AcDbLine
10
330.22775902433727
20
-407.33816866094463
30
0
11
317.5069649785612
21
-407.33817894649121
31
0
0
LINE
5
655
100
AcDbEntity
8
0
100
AcDbLine
10
354.36741149874706
20
-407.33816655218902
30
0
11
354.36741149874706
21
-392.33816655218902
31
0
0
LINE
5
656
100
AcDbEntity
8
0
100
AcDbLine
10
354.36741149874706
20
-392.33816655218902
30
0
11
350.36741149874706
21
-392.33816655218902
31
0
0
LINE
5
657
100
AcDbEntity
8
0
100
AcDbLine
10
350.36741149874706
20
-392.33816655218902
30
0
11
350.36741149874706
21
-407.33816690161507
31
0
0
LINE
5
658
100
AcDbEntity
8
0
100
AcDbLine
10
366.50696378646757
20
-407.33816549172019
30
0
11
354.36741149874706
21
-407.33816655218902
31
0
0
LINE
5
659
100
AcDbEntity
8
0
100
AcDbLine
10
350.36741149874706
20
-407.33816690161507
30
0
11
334.22775902433727
21
-407.33816831151864
31
0
0
CIRCLE
5
660
100
AcDbEntity
8
0
100
AcDbCircle
10
270.88094336250674
20
-173.26098390710811
30
0
40
0.30000000000000582
0
CIRCLE
5
661
100
AcDbEntity
8
0
100
AcDbCircle
10
273.8809433625068
20
-173.26098390710811
30
0
40
0.30000000000000582
0
CIRCLE
5
662
100
AcDbEntity
8
0
100
AcDbCircle
10
283.20351180417782
20
-173.51656609492895
30
0
40
0.30000000000000582
0
CIRCLE
5
663
100
AcDbEntity
8
0
100
AcDbCircle
10
286.20351180417788
20
-173.51656609492895
30
0
40
0.30000000000000582
0
LWPOLYLINE
5
664
100
AcDbEntity
8
0
100
AcDbPolyline
90
4
70
1
43
0.0
10
237.78599948216194
20
-159.04073506934003
10
236.38599948216194
20
-159.04073506934003
10
236.38599948216194
20
-161.74073506934002
10
237.78599948216194
20
-161.74073506934002
0
LINE
5
665
100
AcDbEntity
8
0
100
AcDbLine
10
210.50696121415342
20
-363.33817461174414
30
0
11
213.50696121415342
21
-363.33817443635905
31
0
0
LINE
5
666
100
AcDbEntity
8
0
100
AcDbLine
10
213.50696121415342
20
-363.33817443635905
30
0
11
213.50696121415342
21
-378.63817388401515
31
0
0
LINE
5
667
100
AcDbEntity
8
0
100
AcDbLine
10
213.50696121415342
20
-378.63817388401515
30
0
11
218.00696352976203
21
-378.63817388401515
31
0
0
LINE
5
668
100
AcDbEntity
8
0
100
AcDbLine
10
253.60696352976206
20
-378.63817388401515
30
0
11
218.00696352976203
21
-378.63817388401515
31
0
0
LINE
5
669
100
AcDbEntity
8
0
100
AcDbLine
10
213.50696121415342
20
-363.33817443635905
30
0
11
210.50696121415342
21
-363.33817461174414
31
0
0
LINE
5
670
100
AcDbEntity
8
0
100
AcDbLine
10
369.506963529762
20
-378.63817388401515
30
0
11
369.50696263529755
21
-363.33816531633511
31
0
0
LINE
5
671
100
AcDbEntity
8
0
100
AcDbLine
10
369.50696263529755
20
-363.33816531633511
30
0
11
372.50696121415319
21
-363.33816514095014
31
0
0
LINE
5
672
100
AcDbEntity
8
0
100
AcDbLine
10
265.50696359939036
20
-383.74716254305014
30
0
11
281.89797297779535
21
-372.33817163019779
31
0
0
LINE
5
673
100
AcDbEntity
8
0
100
AcDbLine
10
253.60696352976206
20
-378.63817388401515
30
0
11
275.86670603738503
21
-363.33817079070292
31
0
0
LINE
5
674
100
AcDbEntity
8
0
100
AcDbLine
10
336.80696352976202
20
-378.63817388401515
30
0
11
317.98706367256392
21
-363.33816832827557
31
0
0
LINE
5
675
100
AcDbEntity
8
0
100
AcDbLine
10
317.50696330603068
20
-378.72917959382988
30
0
11
301.09797297779528
21
-372.33817050773331
31
0
0
LINE
5
676
100
AcDbEntity
8
0
100
AcDbLine
10
418.00696217243797
20
-400.37573645624343
30
0
11
414.50693837366214
21
-400.37573666086087
31
0
0
LINE
5
677
100
AcDbEntity
8
0
100
AcDbLine
10
419.00696187177789
20
-395.23287925492463
30
0
11
418.00696187177778
21
-395.23287931338632
31
0
0
LINE
5
678
100
AcDbEntity
8
0
100
AcDbLine
10
419.00696180162385
20
-394.03287925492464
30
0
11
418.00696180162379
21
-394.03287931338633
31
0
0
LINE
5
679
100
AcDbEntity
8
0
100
AcDbLine
10
414.50696233766917
20
-407.33817461174402
30
0
11
425.64782866434712
21
-407.33817396043014
31
0
0
LINE
5
680
100
AcDbEntity
8
0
100
AcDbLine
10
402.50696378646779
20
-407.33817478712911
30
0
11
402.5069647218549
21
-423.33817478712911
31
0
0
LINE
5
681
100
AcDbEntity
8
0
100
AcDbLine
10
419.00696225261402
20
-401.74716496921036
30
0
11
418.00696225261396
21
-401.74716502767205
31
0
0
LINE
5
682
100
AcDbEntity
8
0
100
AcDbLine
10
405.50696472185496
20
-423.33817461174408
30
0
11
405.50696378646785
21
-407.33817461174402
31
0
0
ARC
5
683
100
AcDbEntity
8
0
100
AcDbCircle
10
419.00696183670078
20
-394.63287925492466
30
0
40
0.59999999999995268
100
AcDbArc
50
-89.999996650383011
51
90.000003349600746
0
LINE
5
684
100
AcDbEntity
8
0
100
AcDbLine
10
405.50696472185496
20
-423.33817461174408
30
0
11
411.50696472185484
21
-423.33817426097391
31
0
0
LINE
5
685
100
AcDbEntity
8
0
100
AcDbLine
10
414.50693845383819
20
-401.74716523228949
30
0
11
414.50693837366214
21
-400.37573666086087
31
0
0
ARC
5
686
100
AcDbEntity
8
0
100
AcDbCircle
10
419.00696213736097
20
-399.77573639778177
30
0
40
0.59999999999995268
100
AcDbArc
50
-89.999996650399297
51
90.000003349617032
0
LINE
5
687
100
AcDbEntity
8
0
100
AcDbLine
10
414.50693800284796
20
-394.03287951800371
30
0
11
414.50693792267191
21
-392.66145094657509
31
0
0
LINE
5
688
100
AcDbEntity
8
0
100
AcDbLine
10
419.006962322768
20
-402.94716496921035
30
0
11
414.50696208096349
21
-402.94716523228817
31
0
0
LINE
5
689
100
AcDbEntity
8
0
100
AcDbLine
10
418.00696165129364
20
-391.46145074195778
30
0
11
414.50693785250769
21
-391.46145094657521
31
0
0
LINE
5
690
100
AcDbEntity
8
0
100
AcDbLine
10
419.00696217243791
20
-400.37573639778174
30
0
11
418.00696217243797
21
-400.37573645624343
31
0
0
LINE
5
691
100
AcDbEntity
8
0
100
AcDbLine
10
418.00696172144774
20
-392.66145074195771
30
0
11
414.50693792267191
21
-392.66145094657509
31
0
0
LINE
5
692
100
AcDbEntity
8
0
100
AcDbLine
10
419.00696210228386
20
-399.17573639778175
30
0
11
418.00696210228398
21
-399.17573645624344
31
0
0
LINE
5
693
100
AcDbEntity
8
0
100
AcDbLine
10
405.50696378646785
20
-407.33817461174402
30
0
11
402.50696378646779
21
-407.33817478712911
31
0
0
ARC
5
694
100
AcDbEntity
8
0
100
AcDbCircle
10
419.00696168637074
20
-392.06145068349605
30
0
40
0.59999999999995268
100
AcDbArc
50
-89.999996650393854
51
90.000003349606175
0
LINE
5
695
100
AcDbEntity
8
0
100
AcDbLine
10
414.50693830350809
20
-399.17573666086082
30
0
11
414.5069382233321
21
-397.80430808943231
31
0
0
ARC
5
696
100
AcDbEntity
8
0
100
AcDbCircle
10
419.00696228769101
20
-402.34716496921038
30
0
40
0.59999999999995268
100
AcDbArc
50
-89.999996650393854
51
90.000003349606175
0
LINE
5
697
100
AcDbEntity
8
0
100
AcDbLine
10
414.50696208096349
20
-402.94716523228817
30
0
11
414.50696233766917
21
-407.33817461174402
31
0
0
LINE
5
698
100
AcDbEntity
8
0
100
AcDbLine
10
414.50693785250769
20
-391.46145094657521
30
0
11
414.5069377723317
21
-390.09002237514659
31
0
0
LINE
5
699
100
AcDbEntity
8
0
100
AcDbLine
10
418.00696210228398
20
-399.17573645624344
30
0
11
414.50693830350809
21
-399.17573666086082
31
0
0
LINE
5
700
100
AcDbEntity
8
0
100
AcDbLine
10
418.00696225261396
20
-401.74716502767205
30
0
11
414.50693845383819
21
-401.74716523228949
31
0
0
LINE
5
701
100
AcDbEntity
8
0
100
AcDbLine
10
419.00696195195388
20
-396.60430782635325
30
0
11
418.00696195195383
21
-396.60430788481494
31
0
0
LINE
5
702
100
AcDbEntity
8
0
100
AcDbLine
10
419.00696172144774
20
-392.66145068349601
30
0
11
418.00696172144774
21
-392.66145074195771
31
0
0
LINE
5
703
100
AcDbEntity
8
0
100
AcDbLine
10
402.5069647218549
20
-423.33817478712911
30
0
11
396.50696472185484
21
-423.33817513789927
31
0
0
LINE
5
704
100
AcDbEntity
8
0
100
AcDbLine
10
419.00696202210787
20
-397.80430782635324
30
0
11
418.00696202210787
21
-397.80430788481488
31
0
0
LINE
5
705
100
AcDbEntity
8
0
100
AcDbLine
10
418.00696180162379
20
-394.03287931338633
30
0
11
414.50693800284796
21
-394.03287951800371
31
0
0
LINE
5
706
100
AcDbEntity
8
0
100
AcDbLine
10
405.50696472185496
20
-423.33817461174408
30
0
11
411.50696472185484
21
-423.33817426097391
31
0
0
ARC
5
707
100
AcDbEntity
8
0
100
AcDbCircle
10
419.00696198703088
20
-397.20430782635322
30
0
40
0.60000000000002374
100
AcDbArc
50
-89.999996650393854
51
90.000003349606175
0
LINE
5
708
100
AcDbEntity
8
0
100
AcDbLine
10
414.50693815317806
20
-396.60430808943232
30
0
11
414.50693807300195
21
-395.2328795180037
31
0
0
LINE
5
709
100
AcDbEntity
8
0
100
AcDbLine
10
402.50696214954047
20
-379.33817478712911
30
0
11
402.50696121415342
21
-363.33817478712916
31
0
0
LINE
5
710
100
AcDbEntity
8
0
100
AcDbLine
10
396.50696121415336
20
-363.33817513789933
30
0
11
402.50696121415342
21
-363.33817478712916
31
0
0
LINE
5
711
100
AcDbEntity
8
0
100
AcDbLine
10
419.00696165129375
20
-391.46145068349608
30
0
11
418.00696165129364
21
-391.46145074195778
31
0
0
LINE
5
712
100
AcDbEntity
8
0
100
AcDbLine
10
405.50696214954041
20
-379.33817461174408
30
0
11
402.50696214954047
21
-379.33817478712911
31
0
0
LINE
5
713
100
AcDbEntity
8
0
100
AcDbLine
10
418.00696202210787
20
-397.80430788481488
30
0
11
414.5069382233321
21
-397.80430808943231
31
0
0
LINE
5
714
100
AcDbEntity
8
0
100
AcDbLine
10
419.00696135063356
20
-386.31859354063897
30
0
11
418.00696135063362
21
-386.31859359910067
31
0
0
LINE
5
715
100
AcDbEntity
8
0
100
AcDbLine
10
414.50693755184773
20
-386.31859380371804
30
0
11
414.50693747167168
21
-384.94716523228942
31
0
0
LINE
5
716
100
AcDbEntity
8
0
100
AcDbLine
10
418.00696127045751
20
-384.94716502767204
30
0
11
414.50693747167168
21
-384.94716523228942
31
0
0
LINE
5
717
100
AcDbEntity
8
0
100
AcDbLine
10
429.64782866434717
20
-383.74716432693492
30
0
11
425.64782866434712
21
-383.74716432693492
31
0
0
LINE
5
718
100
AcDbEntity
8
0
100
AcDbLine
10
418.00696120030352
20
-383.74716502767217
30
0
11
414.50696121520468
21
-383.74716523228813
31
0
0
LINE
5
719
100
AcDbEntity
8
0
100
AcDbLine
10
418.00696135063362
20
-386.31859359910067
30
0
11
414.50693755184773
21
-386.31859380371804
31
0
0
LINE
5
720
100
AcDbEntity
8
0
100
AcDbLine
10
418.0069615711177
20
-390.09002217052915
30
0
11
414.5069377723317
21
-390.09002237514659
31
0
0
LINE
5
721
100
AcDbEntity
8
0
100
AcDbLine
10
418.00696195195383
20
-396.60430788481494
30
0
11
414.50693815317806
21
-396.60430808943232
31
0
0
LINE
5
722
100
AcDbEntity
8
0
100
AcDbLine
10
419.00696120030352
20
-383.74716496921047
30
0
11
418.00696120030352
21
-383.74716502767217
31
0
0
LINE
5
723
100
AcDbEntity
8
0
100
AcDbLine
10
419.00696142078766
20
-387.51859354063896
30
0
11
418.00696142078766
21
-387.51859359910065
31
0
0
LINE
5
724
100
AcDbEntity
8
0
100
AcDbLine
10
408.50696121415342
20
-378.63817388401515
30
0
11
413.00696352976206
21
-378.63817388401515
31
0
0
LINE
5
725
100
AcDbEntity
8
0
100
AcDbLine
10
419.00696150096365
20
-388.89002211206753
30
0
11
418.00696150096365
21
-388.89002217052916
31
0
0
LINE
5
726
100
AcDbEntity
8
0
100
AcDbLine
10
414.50693770217765
20
-388.8900223751466
30
0
11
414.50693762200166
21
-387.51859380371803
31
0
0
LINE
5
727
100
AcDbEntity
8
0
100
AcDbLine
10
418.00696187177778
20
-395.23287931338632
30
0
11
414.50693807300195
21
-395.2328795180037
31
0
0
ARC
5
728
100
AcDbEntity
8
0
100
AcDbCircle
10
419.00696123538057
20
-384.34716496921044
30
0
40
0.59999999999995268
100
AcDbArc
50
-89.999996650388411
51
90.000003349611603
0
ARC
5
729
100
AcDbEntity
8
0
100
AcDbCircle
10
419.00696138571061
20
-386.91859354063899
30
0
40
0.59999999999995268
100
AcDbArc
50
-89.999996650388411
51
90.000003349611603
0
LINE
5
730
100
AcDbEntity
8
0
100
AcDbLine
10
414.50696240729758
20
-383.74716523228807
30
0
11
411.50696240729758
21
-383.74716540767309
31
0
0
ARC
5
731
100
AcDbEntity
8
0
100
AcDbCircle
10
419.00696153604076
20
-389.49002211206744
30
0
40
0.60000000000002374
100
AcDbArc
50
-89.999996650399297
51
90.000003349617032
0
LINE
5
732
100
AcDbEntity
8
0
100
AcDbLine
10
425.64782866434712
20
-383.74716432693492
30
0
11
425.64782866434712
21
-407.33817396043014
31
0
0
LINE
5
733
100
AcDbEntity
8
0
100
AcDbLine
10
419.0069615711177
20
-390.09002211206746
30
0
11
418.0069615711177
21
-390.09002217052915
31
0
0
LINE
5
734
100
AcDbEntity
8
0
100
AcDbLine
10
418.00696142078766
20
-387.51859359910065
30
0
11
414.50693762200166
21
-387.51859380371803
31
0
0
LINE
5
735
100
AcDbEntity
8
0
100
AcDbLine
10
429.64782866434717
20
-407.33817396043014
30
0
11
429.64782866434717
21
-383.74716432693492
31
0
0
LINE
5
736
100
AcDbEntity
8
0
100
AcDbLine
10
411.50696240729758
20
-383.74716540767309
30
0
11
411.50696472185484
21
-423.33817426097391
31
0
0
LINE
5
737
100
AcDbEntity
8
0
100
AcDbLine
10
396.50696121415336
20
-363.33817513789933
30
0
11
396.50696472185484
21
-423.33817513789927
31
0
0
LINE
5
738
100
AcDbEntity
8
0
100
AcDbLine
10
448.60696352976208
20
-378.63817388401515
30
0
11
413.00696352976206
21
-378.63817388401515
31
0
0
LINE
5
739
100
AcDbEntity
8
0
100
AcDbLine
10
418.00696150096365
20
-388.89002217052916
30
0
11
414.50693770217765
21
-388.8900223751466
31
0
0
LINE
5
740
100
AcDbEntity
8
0
100
AcDbLine
10
419.00696127045762
20
-384.94716496921035
30
0
11
418.00696127045751
21
-384.94716502767204
31
0
0
LINE
5
741
100
AcDbEntity
8
0
100
AcDbLine
10
457.00696391495171
20
-388.89001989052309
30
0
11
460.50696390005044
21
-388.89001968590719
31
0
0
LINE
5
742
100
AcDbEntity
8
0
100
AcDbLine
10
457.0069639851057
20
-390.09001989052308
30
0
11
460.50696397020454
21
-390.09001968590718
31
0
0
LINE
5
743
100
AcDbEntity
8
0
100
AcDbLine
10
460.50696390005044
20
-388.89001968590719
30
0
11
460.5069638198745
21
-387.51859111447862
31
0
0
ARC
5
744
100
AcDbEntity
8
0
100
AcDbCircle
10
456.00696395002871
20
-389.49001994898481
30
0
40
0.59999999999995268
100
AcDbArc
50
90.000003349617032
51
270.00000334960617
0
LINE
5
745
100
AcDbEntity
8
0
100
AcDbLine
10
457.00696451627198
20
-399.17573417623737
30
0
11
460.50696450137076
21
-399.17573397162141
31
0
0
LINE
5
746
100
AcDbEntity
8
0
100
AcDbLine
10
460.50696420071063
20
-394.0328768287643
30
0
11
460.50696412053458
21
-392.66144825733568
31
0
0
LINE
5
747
100
AcDbEntity
8
0
100
AcDbLine
10
456.00696421561179
20
-394.03287709184201
30
0
11
457.00696421561184
21
-394.03287703338026
31
0
0
LINE
5
748
100
AcDbEntity
8
0
100
AcDbLine
10
460.50696435104072
20
-396.60430540019291
30
0
11
460.50696427086461
21
-395.23287682876429
31
0
0
LINE
5
749
100
AcDbEntity
8
0
100
AcDbLine
10
460.50696359939036
20
-383.74716254305014
30
0
11
476.89797297779535
21
-372.33817163019779
31
0
0
LINE
5
750
100
AcDbEntity
8
0
100
AcDbLine
10
457.00696466660202
20
-401.74716274766593
30
0
11
460.50696465170074
21
-401.74716254305002
31
0
0
LINE
5
751
100
AcDbEntity
8
0
100
AcDbLine
10
456.00696451627192
20
-399.17573423469912
30
0
11
457.00696451627198
21
-399.17573417623737
31
0
0
ARC
5
752
100
AcDbEntity
8
0
100
AcDbCircle
10
456.00696364936852
20
-384.34716280612776
30
0
40
0.59999999999995268
100
AcDbArc
50
90.000003349600746
51
270.00000334961697
0
LINE
5
753
100
AcDbEntity
8
0
100
AcDbLine
10
456.00696428576583
20
-395.23287709184194
30
0
11
457.00696428576583
21
-395.23287703338019
31
0
0
LINE
5
754
100
AcDbEntity
8
0
100
AcDbLine
10
457.00696376462162
20
-386.31859131909459
30
0
11
460.5069637497204
21
-386.31859111447864
31
0
0
LINE
5
755
100
AcDbEntity
8
0
100
AcDbLine
10
456.00696383477566
20
-387.51859137755628
30
0
11
457.00696383477566
21
-387.51859131909453
31
0
0
ARC
5
756
100
AcDbEntity
8
0
100
AcDbCircle
10
456.00696425068884
20
-394.63287709184203
30
0
40
0.60000000000002374
100
AcDbArc
50
90.000003349611603
51
270.00000334960617
0
LINE
5
757
100
AcDbEntity
8
0
100
AcDbLine
10
460.50696405038053
20
-391.4614482573358
30
0
11
460.50696397020454
21
-390.09001968590718
31
0
0
ARC
5
758
100
AcDbEntity
8
0
100
AcDbCircle
10
456.00696379969861
20
-386.91859137755637
30
0
40
0.60000000000002374
100
AcDbArc
50
90.000003349606175
51
270.00000334961157
0
LINE
5
759
100
AcDbEntity
8
0
100
AcDbLine
10
456.00696413543574
20
-392.66144852041339
30
0
11
457.00696413543585
21
-392.66144846195164
31
0
0
LINE
5
760
100
AcDbEntity
8
0
100
AcDbLine
10
456.00696406528175
20
-391.46144852041346
30
0
11
457.00696406528175
21
-391.4614484619517
31
0
0
LINE
5
761
100
AcDbEntity
8
0
100
AcDbLine
10
456.00696436594194
20
-396.60430566327057
30
0
11
457.00696436594183
21
-396.60430560480881
31
0
0
ARC
5
762
100
AcDbEntity
8
0
100
AcDbCircle
10
456.00696470167907
20
-402.3471628061277
30
0
40
0.60000000000002374
100
AcDbArc
50
90.000003349617032
51
270.00000334960072
0
LINE
5
763
100
AcDbEntity
8
0
100
AcDbLine
10
457.00696383477566
20
-387.51859131909453
30
0
11
460.5069638198745
21
-387.51859111447862
31
0
0
LINE
5
764
100
AcDbEntity
8
0
100
AcDbLine
10
456.006964736756
20
-402.94716280612766
30
0
11
460.50696472185479
21
-402.94716254305001
31
0
0
LINE
5
765
100
AcDbEntity
8
0
100
AcDbLine
10
457.00696413543585
20
-392.66144846195164
30
0
11
460.50696412053458
21
-392.66144825733568
31
0
0
LINE
5
766
100
AcDbEntity
8
0
100
AcDbLine
10
456.00696368444562
20
-384.94716280612772
30
0
11
457.00696368444562
21
-384.94716274766597
31
0
0
LINE
5
767
100
AcDbEntity
8
0
100
AcDbLine
10
460.5069637497204
20
-386.31859111447864
30
0
11
460.5069636695444
21
-384.94716254305001
31
0
0
LINE
5
768
100
AcDbEntity
8
0
100
AcDbLine
10
460.50696465170074
20
-401.74716254305002
30
0
11
460.50696457152475
21
-400.3757339716214
31
0
0
ARC
5
769
100
AcDbEntity
8
0
100
AcDbCircle
10
456.0069641003588
20
-392.06144852041342
30
0
40
0.59999999999995268
100
AcDbArc
50
90.000003349611603
51
270.00000334960072
0
ARC
5
770
100
AcDbEntity
8
0
100
AcDbCircle
10
456.00696440101888
20
-397.20430566327053
30
0
40
0.59999999999995268
100
AcDbArc
50
90.000003349600746
51
270.00000334961157
0
ARC
5
771
100
AcDbEntity
8
0
100
AcDbCircle
10
456.00696455134891
20
-399.77573423469914
30
0
40
0.60000000000002374
100
AcDbArc
50
90.000003349606175
51
270.00000334961157
0
LINE
5
772
100
AcDbEntity
8
0
100
AcDbLine
10
460.50696480317561
20
-407.33817192250615
30
0
11
460.50696480317561
21
-404.3381725884438
31
0
0
LINE
5
773
100
AcDbEntity
8
0
100
AcDbLine
10
457.00696421561184
20
-394.03287703338026
30
0
11
460.50696420071063
21
-394.0328768287643
31
0
0
LINE
5
774
100
AcDbEntity
8
0
100
AcDbLine
10
460.50696480317561
20
-404.3381725884438
30
0
11
460.50696472185479
21
-402.94716254305001
31
0
0
LINE
5
775
100
AcDbEntity
8
0
100
AcDbLine
10
457.00696436594183
20
-396.60430560480881
30
0
11
460.50696435104072
21
-396.60430540019291
31
0
0
LINE
5
776
100
AcDbEntity
8
0
100
AcDbLine
10
456.00696443609593
20
-397.80430566327055
30
0
11
457.00696443609587
21
-397.8043056048088
31
0
0
LINE
5
777
100
AcDbEntity
8
0
100
AcDbLine
10
457.00696458642597
20
-400.3757341762373
30
0
11
460.50696457152475
21
-400.3757339716214
31
0
0
LINE
5
778
100
AcDbEntity
8
0
100
AcDbLine
10
460.50696450137076
20
-399.17573397162141
30
0
11
460.50696442119477
21
-397.8043054001929
31
0
0
LINE
5
779
100
AcDbEntity
8
0
100
AcDbLine
10
457.00696443609587
20
-397.8043056048088
30
0
11
460.50696442119477
21
-397.8043054001929
31
0
0
LINE
5
780
100
AcDbEntity
8
0
100
AcDbLine
10
457.00696406528175
20
-391.4614484619517
30
0
11
460.50696405038053
21
-391.4614482573358
31
0
0
LINE
5
781
100
AcDbEntity
8
0
100
AcDbLine
10
457.00696428576583
20
-395.23287703338019
30
0
11
460.50696427086461
21
-395.23287682876429
31
0
0
LINE
5
782
100
AcDbEntity
8
0
100
AcDbLine
10
456.00696466660196
20
-401.74716280612768
30
0
11
457.00696466660202
21
-401.74716274766593
31
0
0
LINE
5
783
100
AcDbEntity
8
0
100
AcDbLine
10
456.00696458642597
20
-400.37573423469905
30
0
11
457.00696458642597
21
-400.3757341762373
31
0
0
LINE
5
784
100
AcDbEntity
8
0
100
AcDbLine
10
456.0069639851057
20
-390.09001994898483
30
0
11
457.0069639851057
21
-390.09001989052308
31
0
0
LINE
5
785
100
AcDbEntity
8
0
100
AcDbLine
10
457.00696361429152
20
-383.74716274766604
30
0
11
460.50696359939036
21
-383.74716254305014
31
0
0
LINE
5
786
100
AcDbEntity
8
0
100
AcDbLine
10
457.00696368444562
20
-384.94716274766597
30
0
11
460.5069636695444
21
-384.94716254305001
31
0
0
LINE
5
787
100
AcDbEntity
8
0
100
AcDbLine
10
490.95511583493817
20
-372.3381708083935
30
0
11
492.32654440636679
21
-372.33817072821745
31
0
0
LINE
5
788
100
AcDbEntity
8
0
100
AcDbLine
10
483.24082985757485
20
-367.83817127428478
30
0
11
483.24082991603643
21
-368.83817127428478
31
0
0
LINE
5
789
100
AcDbEntity
8
0
100
AcDbLine
10
488.38368726350956
20
-372.33817095872354
30
0
11
489.75511583493812
21
-372.33817087854754
31
0
0
LINE
5
790
100
AcDbEntity
8
0
100
AcDbLine
10
488.38368705889366
20
-368.83817097362464
30
0
11
488.38368726350956
21
-372.33817095872354
31
0
0
LINE
5
791
100
AcDbEntity
8
0
100
AcDbLine
10
490.95511563032221
20
-368.83817082329466
30
0
11
490.95511583493817
21
-372.3381708083935
31
0
0
LINE
5
792
100
AcDbEntity
8
0
100
AcDbLine
10
478.09797277317944
20
-368.83817157494491
30
0
11
478.09797297779534
21
-372.33817156004375
31
0
0
LINE
5
793
100
AcDbEntity
8
0
100
AcDbLine
10
488.38368700043196
20
-367.83817097362464
30
0
11
488.38368705889366
21
-368.83817097362464
31
0
0
LINE
5
794
100
AcDbEntity
8
0
100
AcDbLine
10
490.95511557186057
20
-367.8381708232946
30
0
11
490.95511563032221
21
-368.83817082329466
31
0
0
LINE
5
795
100
AcDbEntity
8
0
100
AcDbLine
10
492.32654420175083
20
-368.83817074311855
30
0
11
492.32654440636679
21
-372.33817072821745
31
0
0
LINE
5
796
100
AcDbEntity
8
0
100
AcDbLine
10
480.66940128614635
20
-367.83817142461487
30
0
11
480.66940134460799
21
-368.83817142461487
31
0
0
LINE
5
797
100
AcDbEntity
8
0
100
AcDbLine
10
485.8122584874651
20
-368.83817112395479
30
0
11
485.81225869208095
21
-372.33817110905363
31
0
0
LINE
5
798
100
AcDbEntity
8
0
100
AcDbLine
10
489.75511563032228
20
-368.83817089344865
30
0
11
489.75511583493812
21
-372.33817087854754
31
0
0
LINE
5
799
100
AcDbEntity
8
0
100
AcDbLine
10
484.61225848746506
20
-368.83817119410878
30
0
11
484.61225869208107
21
-372.33817117920762
31
0
0
ARC
5
800
100
AcDbEntity
8
0
100
AcDbCircle
10
477.49797271471778
20
-367.8381716100219
30
0
40
0.59999999999995268
100
AcDbArc
50
3.3066511133632061e-06
51
180.00000330665111
0
LINE
5
801
100
AcDbEntity
8
0
100
AcDbLine
10
478.09797297779534
20
-372.33817156004375
30
0
11
479.46940154922396
21
-372.33817147986775
31
0
0
ARC
5
802
100
AcDbEntity
8
0
100
AcDbCircle
10
490.35511557186055
20
-367.83817085837165
30
0
40
0.60000000000002374
100
AcDbArc
50
3.3066511133632061e-06
51
180.00000330665111
0
LINE
5
803
100
AcDbEntity
8
0
100
AcDbLine
10
479.46940134460806
20
-368.83817149476891
30
0
11
479.46940154922396
21
-372.33817147986775
31
0
0
LINE
5
804
100
AcDbEntity
8
0
100
AcDbLine
10
485.81225842900335
20
-367.83817112395474
30
0
11
485.8122584874651
21
-368.83817112395479
31
0
0
LINE
5
805
100
AcDbEntity
8
0
100
AcDbLine
10
492.3265441432892
20
-367.83817074311855
30
0
11
492.32654420175083
21
-368.83817074311855
31
0
0
LINE
5
806
100
AcDbEntity
8
0
100
AcDbLine
10
456.0069639149516
20
-388.89001994898484
30
0
11
457.00696391495171
21
-388.89001989052309
31
0
0
ARC
5
807
100
AcDbEntity
8
0
100
AcDbCircle
10
480.06940128614633
20
-367.83817145969186
30
0
40
0.60000000000002374
100
AcDbArc
50
3.3066511133632061e-06
51
180.00000330665111
0
LINE
5
808
100
AcDbEntity
8
0
100
AcDbLine
10
480.66940154922395
20
-372.33817140971377
30
0
11
482.0408301206524
21
-372.33817132953766
31
0
0
LINE
5
809
100
AcDbEntity
8
0
100
AcDbLine
10
478.09797271471774
20
-367.83817157494491
30
0
11
478.09797277317944
21
-368.83817157494491
31
0
0
LINE
5
810
100
AcDbEntity
8
0
100
AcDbLine
10
480.66940134460799
20
-368.83817142461487
30
0
11
480.66940154922395
21
-372.33817140971377
31
0
0
ARC
5
811
100
AcDbEntity
8
0
100
AcDbCircle
10
485.21225842900344
20
-367.83817115903173
30
0
40
0.59999999999995268
100
AcDbArc
50
3.3066511133632061e-06
51
180.00000330665111
0
ARC
5
812
100
AcDbEntity
8
0
100
AcDbCircle
10
487.783687000432
20
-367.83817100870169
30
0
40
0.59999999999995268
100
AcDbArc
50
3.3066511133632061e-06
51
180.00000330665111
0
LINE
5
813
100
AcDbEntity
8
0
100
AcDbLine
10
482.04082991603656
20
-368.83817134443882
30
0
11
482.0408301206524
21
-372.33817132953766
31
0
0
LINE
5
814
100
AcDbEntity
8
0
100
AcDbLine
10
485.81225869208095
20
-372.33817110905363
30
0
11
487.18368726350957
21
-372.33817102887758
31
0
0
LINE
5
815
100
AcDbEntity
8
0
100
AcDbLine
10
487.18368700043197
20
-367.83817104377869
30
0
11
487.18368705889367
21
-368.83817104377869
31
0
0
LINE
5
816
100
AcDbEntity
8
0
100
AcDbLine
10
475.50696293240151
20
-372.33817171151861
30
0
11
476.89797297779535
21
-372.33817163019779
31
0
0
ARC
5
817
100
AcDbEntity
8
0
100
AcDbCircle
10
482.64082985757483
20
-367.83817130936177
30
0
40
0.60000000000002374
100
AcDbArc
50
3.3066511133632061e-06
51
180.00000330665111
0
LINE
5
818
100
AcDbEntity
8
0
100
AcDbLine
10
483.24083012065245
20
-372.33817125938367
30
0
11
484.61225869208107
21
-372.33817117920762
31
0
0
LINE
5
819
100
AcDbEntity
8
0
100
AcDbLine
10
476.89797271471775
20
-367.8381716450989
30
0
11
476.89797297779535
21
-372.33817163019779
31
0
0
LINE
5
820
100
AcDbEntity
8
0
100
AcDbLine
10
483.24082991603643
20
-368.83817127428478
30
0
11
483.24083012065245
21
-372.33817125938367
31
0
0
LINE
5
821
100
AcDbEntity
8
0
100
AcDbLine
10
484.61225842900348
20
-367.83817119410878
30
0
11
484.61225848746506
21
-368.83817119410878
31
0
0
LINE
5
822
100
AcDbEntity
8
0
100
AcDbLine
10
479.46940128614636
20
-367.83817149476886
30
0
11
479.46940134460806
21
-368.83817149476891
31
0
0
LINE
5
823
100
AcDbEntity
8
0
100
AcDbLine
10
456.00696361429158
20
-383.74716280612779
30
0
11
457.00696361429152
21
-383.74716274766604
31
0
0
LINE
5
824
100
AcDbEntity
8
0
100
AcDbLine
10
482.04082985757481
20
-367.83817134443882
30
0
11
482.04082991603656
21
-368.83817134443882
31
0
0
LINE
5
825
100
AcDbEntity
8
0
100
AcDbLine
10
487.18368705889367
20
-368.83817104377869
30
0
11
487.18368726350957
21
-372.33817102887758
31
0
0
LINE
5
826
100
AcDbEntity
8
0
100
AcDbLine
10
489.75511557186053
20
-367.83817089344865
30
0
11
489.75511563032228
21
-368.83817089344865
31
0
0
LINE
5
827
100
AcDbEntity
8
0
100
AcDbLine
10
456.00696376462162
20
-386.31859137755634
30
0
11
457.00696376462162
21
-386.31859131909459
31
0
0
LINE
5
828
100
AcDbEntity
8
0
100
AcDbLine
10
448.60696352976208
20
-378.63817388401515
30
0
11
470.86670603738497
21
-363.33817079070292
31
0
0
LINE
5
829
100
AcDbEntity
8
0
100
AcDbLine
10
512.50696397750505
20
-390.21489387954404
30
0
11
512.50696405768099
21
-391.5863224509726
31
0
0
LINE
5
830
100
AcDbEntity
8
0
100
AcDbLine
10
517.00696419310987
20
-394.15775075932368
30
0
11
516.00696419310998
21
-394.15775081778531
31
0
0
LINE
5
831
100
AcDbEntity
8
0
100
AcDbLine
10
517.00696411293393
20
-392.78632218789505
30
0
11
516.00696411293382
21
-392.78632224635669
31
0
0
LINE
5
832
100
AcDbEntity
8
0
100
AcDbLine
10
516.0069647069538
20
-397.92918512150186
30
0
11
512.50696472185496
21
-397.92918512150186
31
0
0
LINE
5
833
100
AcDbEntity
8
0
100
AcDbLine
10
516.0069647069538
20
-395.3577565500733
30
0
11
512.50696472185496
21
-395.3577565500733
31
0
0
LINE
5
834
100
AcDbEntity
8
0
100
AcDbLine
10
512.50696412783509
20
-392.78632245097265
30
0
11
512.50696420801103
21
-394.15775102240127
31
0
0
ARC
5
835
100
AcDbEntity
8
0
100
AcDbCircle
10
517.00696422818692
20
-394.75775075932353
30
0
40
0.60000000000002374
100
AcDbArc
50
-89.999996650399297
51
90.000003349611603
0
LINE
5
836
100
AcDbEntity
8
0
100
AcDbLine
10
516.00696441359401
20
-397.92917938921386
30
0
11
512.50696442849517
21
-397.92917959382976
31
0
0
LINE
5
837
100
AcDbEntity
8
0
100
AcDbLine
10
516.00696396260378
20
-390.21489367492813
30
0
11
512.50696397750505
21
-390.21489387954404
31
0
0
LINE
5
838
100
AcDbEntity
8
0
100
AcDbLine
10
470.86670603738497
20
-363.33817079070292
30
0
11
512.98706367256386
21
-363.33816832827557
31
0
0
LINE
5
839
100
AcDbEntity
8
0
100
AcDbLine
10
512.50696472185496
20
-395.3577565500733
30
0
11
512.50696472185496
21
-396.72918512150193
31
0
0
LINE
5
840
100
AcDbEntity
8
0
100
AcDbLine
10
516.0069647069538
20
-396.72918512150193
30
0
11
512.50696472185496
21
-396.72918512150193
31
0
0
LINE
5
841
100
AcDbEntity
8
0
100
AcDbLine
10
525.22775902433727
20
-407.33816866094463
30
0
11
512.5069649785612
21
-407.33817894649121
31
0
0
LINE
5
842
100
AcDbEntity
8
0
100
AcDbLine
10
516.00696426326397
20
-395.35775081778525
30
0
11
512.50696427816501
21
-395.35775102240115
31
0
0
ARC
5
843
100
AcDbEntity
8
0
100
AcDbCircle
10
517.0069647069538
20
-394.75775655007328
30
0
40
0.60000000000002274
100
AcDbArc
50
-90
51
90
0
LINE
5
844
100
AcDbEntity
8
0
100
AcDbLine
10
512.50696427816501
20
-395.35775102240115
30
0
11
512.50696435834118
21
-396.72917959382977
31
0
0
LINE
5
845
100
AcDbEntity
8
0
100
AcDbLine
10
517.00696389244979
20
-389.01489361646645
30
0
11
516.00696389244968
21
-389.01489367492815
31
0
0
LINE
5
846
100
AcDbEntity
8
0
100
AcDbLine
10
517.00696441359401
20
-397.92917933075216
30
0
11
516.00696441359401
21
-397.92917938921386
31
0
0
LINE
5
847
100
AcDbEntity
8
0
100
AcDbLine
10
512.50696442849517
20
-397.92917959382976
30
0
11
512.50696451086708
21
-399.33816954843599
31
0
0
LINE
5
848
100
AcDbEntity
8
0
100
AcDbLine
10
516.00696434344002
20
-396.72917938921387
30
0
11
512.50696435834118
21
-396.72917959382977
31
0
0
LINE
5
849
100
AcDbEntity
8
0
100
AcDbLine
10
517.0069647069538
20
-395.3577565500733
30
0
11
516.0069647069538
21
-395.3577565500733
31
0
0
LINE
5
850
100
AcDbEntity
8
0
100
AcDbLine
10
517.0069647069538
20
-397.92918512150186
30
0
11
516.0069647069538
21
-397.92918512150186
31
0
0
LINE
5
851
100
AcDbEntity
8
0
100
AcDbLine
10
429.64782866434717
20
-407.33817396043014
30
0
11
460.50696480317561
21
-407.33817192250615
31
0
0
LINE
5
852
100
AcDbEntity
8
0
100
AcDbLine
10
512.5069638271749
20
-387.64346530811554
30
0
11
512.50696390735095
21
-389.01489387954405
31
0
0
LINE
5
853
100
AcDbEntity
8
0
100
AcDbLine
10
517.00696404277994
20
-391.58632218789501
30
0
11
516.00696404277983
21
-391.58632224635664
31
0
0
LINE
5
854
100
AcDbEntity
8
0
100
AcDbLine
10
512.50696451086708
20
-399.33816954843599
30
0
11
512.5069649785612
21
-407.33817894649121
31
0
0
LINE
5
855
100
AcDbEntity
8
0
100
AcDbLine
10
517.00696426326385
20
-395.35775075932355
30
0
11
516.00696426326397
21
-395.35775081778525
31
0
0
ARC
5
856
100
AcDbEntity
8
0
100
AcDbCircle
10
517.00696437851707
20
-397.3291793307522
30
0
40
0.59999999999995268
100
AcDbArc
50
-89.999996650399297
51
90.00000334962246
0
LINE
5
857
100
AcDbEntity
8
0
100
AcDbLine
10
512.50696472185496
20
-397.92918512150186
30
0
11
512.50696472185496
21
-399.33817507610809
31
0
0
ARC
5
858
100
AcDbEntity
8
0
100
AcDbCircle
10
517.0069647069538
20
-397.32918512150195
30
0
40
0.59999999999995168
100
AcDbArc
50
-90
51
90
0
LINE
5
859
100
AcDbEntity
8
0
100
AcDbLine
10
517.0069647069538
20
-396.72918512150193
30
0
11
516.0069647069538
21
-396.72918512150193
31
0
0
LINE
5
860
100
AcDbEntity
8
0
100
AcDbLine
10
517.00696396260378
20
-390.21489361646644
30
0
11
516.00696396260378
21
-390.21489367492813
31
0
0
LINE
5
861
100
AcDbEntity
8
0
100
AcDbLine
10
516.00696389244968
20
-389.01489367492815
30
0
11
512.50696390735095
21
-389.01489387954405
31
0
0
LINE
5
862
100
AcDbEntity
8
0
100
AcDbLine
10
516.00696411293382
20
-392.78632224635669
30
0
11
512.50696412783509
21
-392.78632245097265
31
0
0
LINE
5
863
100
AcDbEntity
8
0
100
AcDbLine
10
516.00696404277983
20
-391.58632224635664
30
0
11
512.50696405768099
21
-391.5863224509726
31
0
0
LINE
5
864
100
AcDbEntity
8
0
100
AcDbLine
10
517.0069643434399
20
-396.72917933075217
30
0
11
516.00696434344002
21
-396.72917938921387
31
0
0
LINE
5
865
100
AcDbEntity
8
0
100
AcDbLine
10
516.0069647069538
20
-394.15775655007337
30
0
11
512.50696472185496
21
-394.15775655007337
31
0
0
LINE
5
866
100
AcDbEntity
8
0
100
AcDbLine
10
516.00696419310998
20
-394.15775081778531
30
0
11
512.50696420801103
21
-394.15775102240127
31
0
0
LINE
5
867
100
AcDbEntity
8
0
100
AcDbLine
10
516.0069647069538
20
-392.78632797864475
30
0
11
512.50696472185496
21
-392.78632797864475
31
0
0
LINE
5
868
100
AcDbEntity
8
0
100
AcDbLine
10
516.0069647069538
20
-389.01489940721615
30
0
11
512.50696472185496
21
-389.01489940721615
31
0
0
LINE
5
869
100
AcDbEntity
8
0
100
AcDbLine
10
512.50696472185496
20
-390.21489940721614
30
0
11
512.50696472185496
21
-391.5863279786447
31
0
0
LINE
5
870
100
AcDbEntity
8
0
100
AcDbLine
10
517.0069647069538
20
-389.01489940721615
30
0
11
516.0069647069538
21
-389.01489940721615
31
0
0
LINE
5
871
100
AcDbEntity
8
0
100
AcDbLine
10
517.0069647069538
20
-392.78632797864475
30
0
11
516.0069647069538
21
-392.78632797864475
31
0
0
LINE
5
872
100
AcDbEntity
8
0
100
AcDbLine
10
517.0069647069538
20
-390.21489940721614
30
0
11
516.0069647069538
21
-390.21489940721614
31
0
0
ARC
5
873
100
AcDbEntity
8
0
100
AcDbCircle
10
517.0069647069538
20
-392.18632797864473
30
0
40
0.60000000000002274
100
AcDbArc
50
-90
51
90
0
LINE
5
874
100
AcDbEntity
8
0
100
AcDbLine
10
517.0069647069538
20
-391.5863279786447
30
0
11
516.0069647069538
21
-391.5863279786447
31
0
0
ARC
5
875
100
AcDbEntity
8
0
100
AcDbCircle
10
517.0069647069538
20
-389.61489940721617
30
0
40
0.59999999999995168
100
AcDbArc
50
-90
51
90
0
LINE
5
876
100
AcDbEntity
8
0
100
AcDbLine
10
516.0069647069538
20
-391.5863279786447
30
0
11
512.50696472185496
21
-391.5863279786447
31
0
0
ARC
5
877
100
AcDbEntity
8
0
100
AcDbCircle
10
517.00696407785688
20
-392.18632218789503
30
0
40
0.60000000000002374
100
AcDbArc
50
-89.999996650388411
51
90.000003349600746
0
LINE
5
878
100
AcDbEntity
8
0
100
AcDbLine
10
512.50696472185496
20
-387.64347083578753
30
0
11
512.50696472185496
21
-389.01489940721615
31
0
0
LINE
5
879
100
AcDbEntity
8
0
100
AcDbLine
10
517.0069647069538
20
-394.15775655007337
30
0
11
516.0069647069538
21
-394.15775655007337
31
0
0
LINE
5
880
100
AcDbEntity
8
0
100
AcDbLine
10
516.0069647069538
20
-390.21489940721614
30
0
11
512.50696472185496
21
-390.21489940721614
31
0
0
LINE
5
881
100
AcDbEntity
8
0
100
AcDbLine
10
512.50696472185496
20
-392.78632797864475
30
0
11
512.50696472185496
21
-394.15775655007337
31
0
0
LINE
5
882
100
AcDbEntity
8
0
100
AcDbLine
10
531.80696352976202
20
-378.63817388401515
30
0
11
564.50696352976206
21
-378.63817388401515
31
0
0
LINE
5
883
100
AcDbEntity
8
0
100
AcDbLine
10
529.22775902433727
20
-407.33816831151864
30
0
11
529.22775902433125
21
-383.73816866094467
31
0
0
LINE
5
884
100
AcDbEntity
8
0
100
AcDbLine
10
496.09797277317938
20
-368.83817052263447
30
0
11
496.09797297779528
21
-372.33817050773331
31
0
0
LINE
5
885
100
AcDbEntity
8
0
100
AcDbLine
10
516.00696344145956
20
-381.30060796064248
30
0
11
512.50696345636072
21
-381.30060816525838
31
0
0
LINE
5
886
100
AcDbEntity
8
0
100
AcDbLine
10
512.50696367684486
20
-385.07203673668698
30
0
11
512.50696375702091
21
-386.44346530811561
31
0
0
LINE
5
887
100
AcDbEntity
8
0
100
AcDbLine
10
516.0069636619437
20
-385.07203653207108
30
0
11
512.50696367684486
21
-385.07203673668698
31
0
0
LINE
5
888
100
AcDbEntity
8
0
100
AcDbLine
10
517.00696329112952
20
-378.72917933075229
30
0
11
512.50696330603068
21
-378.72917959382988
31
0
0
LINE
5
889
100
AcDbEntity
8
0
100
AcDbLine
10
493.52654414328913
20
-367.83817067296457
30
0
11
493.52654420175088
21
-368.83817067296457
31
0
0
LINE
5
890
100
AcDbEntity
8
0
100
AcDbLine
10
512.50696472185496
20
-379.92918512150192
30
0
11
512.50696472185496
21
-381.30061369293048
31
0
0
LINE
5
891
100
AcDbEntity
8
0
100
AcDbLine
10
517.00696336128362
20
-379.92917933075228
30
0
11
516.00696336128351
21
-379.92917938921391
31
0
0
LINE
5
892
100
AcDbEntity
8
0
100
AcDbLine
10
517.0069635917896
20
-383.87203647360934
30
0
11
516.00696359178971
21
-383.87203653207104
31
0
0
ARC
5
893
100
AcDbEntity
8
0
100
AcDbCircle
10
495.49797271471778
20
-367.83817055771152
30
0
40
0.59999999999995268
100
AcDbArc
50
3.3066511133632061e-06
51
180.00000330665111
0
LINE
5
894
100
AcDbEntity
8
0
100
AcDbLine
10
516.00696374211975
20
-386.4434651034997
30
0
11
512.50696375702091
21
-386.44346530811561
31
0
0
LINE
5
895
100
AcDbEntity
8
0
100
AcDbLine
10
493.52654440636672
20
-372.3381706580634
30
0
11
494.89797297779535
21
-372.33817057788741
31
0
0
LINE
5
896
100
AcDbEntity
8
0
100
AcDbLine
10
517.0069636619437
20
-385.07203647360939
30
0
11
516.0069636619437
21
-385.07203653207108
31
0
0
LINE
5
897
100
AcDbEntity
8
0
100
AcDbLine
10
512.50696472185496
20
-382.50061369293053
30
0
11
512.50696472185496
21
-383.87204226435898
31
0
0
LINE
5
898
100
AcDbEntity
8
0
100
AcDbLine
10
494.89797271471775
20
-367.83817059278852
30
0
11
494.89797277317939
21
-368.83817059278852
31
0
0
LINE
5
899
100
AcDbEntity
8
0
100
AcDbLine
10
512.50696472185496
20
-385.07204226435903
30
0
11
512.50696472185496
21
-386.44347083578765
31
0
0
LINE
5
900
100
AcDbEntity
8
0
100
AcDbLine
10
512.50696330603068
20
-378.72917959382988
30
0
11
496.09797297779528
21
-372.33817050773331
31
0
0
LINE
5
901
100
AcDbEntity
8
0
100
AcDbLine
10
496.09797297779528
20
-372.33817050773331
30
0
11
497.50696293240151
21
-372.33817042536145
31
0
0
LINE
5
902
100
AcDbEntity
8
0
100
AcDbLine
10
512.50696337618467
20
-379.92917959382987
30
0
11
512.50696345636072
21
-381.30060816525838
31
0
0
LINE
5
903
100
AcDbEntity
8
0
100
AcDbLine
10
516.00696336128351
20
-379.92917938921391
30
0
11
512.50696337618467
21
-379.92917959382987
31
0
0
LINE
5
904
100
AcDbEntity
8
0
100
AcDbLine
10
516.00696351161355
20
-382.50060796064253
30
0
11
512.50696352651471
21
-382.50060816525843
31
0
0
LINE
5
905
100
AcDbEntity
8
0
100
AcDbLine
10
494.89797277317939
20
-368.83817059278852
30
0
11
494.89797297779535
21
-372.33817057788741
31
0
0
LINE
5
906
100
AcDbEntity
8
0
100
AcDbLine
10
517.00696351161366
20
-382.50060790218083
30
0
11
516.00696351161355
21
-382.50060796064253
31
0
0
LINE
5
907
100
AcDbEntity
8
0
100
AcDbLine
10
517.00696344145956
20
-381.30060790218079
30
0
11
516.00696344145956
21
-381.30060796064248
31
0
0
LINE
5
908
100
AcDbEntity
8
0
100
AcDbLine
10
516.00696381227385
20
-387.64346510349958
30
0
11
512.5069638271749
21
-387.64346530811554
31
0
0
LINE
5
909
100
AcDbEntity
8
0
100
AcDbLine
10
512.50696352651471
20
-382.50060816525843
30
0
11
512.50696360669076
21
-383.87203673668694
31
0
0
ARC
5
910
100
AcDbEntity
8
0
100
AcDbCircle
10
492.92654414328911
20
-367.83817070804156
30
0
40
0.60000000000002374
100
AcDbArc
50
3.3066511133632061e-06
51
180.00000330665111
0
LINE
5
911
100
AcDbEntity
8
0
100
AcDbLine
10
517.00696381227374
20
-387.64346504503794
30
0
11
516.00696381227385
21
-387.64346510349958
31
0
0
ARC
5
912
100
AcDbEntity
8
0
100
AcDbCircle
10
517.00696392752673
20
-389.61489361646647
30
0
40
0.59999999999995268
100
AcDbArc
50
-89.999996650388411
51
90.000003349600746
0
LINE
5
913
100
AcDbEntity
8
0
100
AcDbLine
10
496.09797271471768
20
-367.83817052263441
30
0
11
496.09797277317938
21
-368.83817052263447
31
0
0
LINE
5
914
100
AcDbEntity
8
0
100
AcDbLine
10
516.00696359178971
20
-383.87203653207104
30
0
11
512.50696360669076
21
-383.87203673668694
31
0
0
LINE
5
915
100
AcDbEntity
8
0
100
AcDbLine
10
517.00696374211975
20
-386.44346504503801
30
0
11
516.00696374211975
21
-386.4434651034997
31
0
0
LINE
5
916
100
AcDbEntity
8
0
100
AcDbLine
10
516.0069647069538
20
-383.87204226435898
30
0
11
512.50696472185496
21
-383.87204226435898
31
0
0
LINE
5
917
100
AcDbEntity
8
0
100
AcDbLine
10
517.0069647069538
20
-379.92918512150192
30
0
11
516.0069647069538
21
-379.92918512150192
31
0
0
LINE
5
918
100
AcDbEntity
8
0
100
AcDbLine
10
493.52654420175088
20
-368.83817067296457
30
0
11
493.52654440636672
21
-372.3381706580634
31
0
0
ARC
5
919
100
AcDbEntity
8
0
100
AcDbCircle
10
517.00696332620646
20
-379.32917933075231
30
0
40
0.59999999999995268
100
AcDbArc
50
-89.999996650377568
51
90.000003349600746
0
LINE
5
920
100
AcDbEntity
8
0
100
AcDbLine
10
561.50696378646762
20
-407.33816549172019
30
0
11
549.36741149874706
21
-407.33816655218902
31
0
0
LINE
5
921
100
AcDbEntity
8
0
100
AcDbLine
10
517.0069647069538
20
-383.87204226435898
30
0
11
516.0069647069538
21
-383.87204226435898
31
0
0
LINE
5
922
100
AcDbEntity
8
0
100
AcDbLine
10
545.36741149874706
20
-407.33816690161507
30
0
11
529.22775902433727
21
-407.33816831151864
31
0
0
ARC
5
923
100
AcDbEntity
8
0
100
AcDbCircle
10
517.0069647069538
20
-381.90061369293051
30
0
40
0.60000000000002274
100
AcDbArc
50
-90
51
90
0
LINE
5
924
100
AcDbEntity
8
0
100
AcDbLine
10
516.0069647069538
20
-386.44347083578765
30
0
11
512.50696472185496
21
-386.44347083578765
31
0
0
ARC
5
925
100
AcDbEntity
8
0
100
AcDbCircle
10
517.00696347653661
20
-381.90060790218081
30
0
40
0.60000000000002374
100
AcDbArc
50
-89.999996650388411
51
90.000003349611603
0
LINE
5
926
100
AcDbEntity
8
0
100
AcDbLine
10
567.50696472185473
20
-423.33816514095008
30
0
11
561.50696472185462
21
-423.33816549172025
31
0
0
ARC
5
927
100
AcDbEntity
8
0
100
AcDbCircle
10
517.00696362686676
20
-384.47203647360936
30
0
40
0.60000000000002374
100
AcDbArc
50
-89.999996650399297
51
90.00000334962246
0
LINE
5
928
100
AcDbEntity
8
0
100
AcDbLine
10
576.50696359833898
20
-363.33816461479478
30
0
11
576.50696710604052
21
-423.33816461479472
31
0
0
LINE
5
929
100
AcDbEntity
8
0
100
AcDbLine
10
570.50696378646762
20
-407.338164965565
30
0
11
570.50696472185462
21
-423.338164965565
31
0
0
LINE
5
930
100
AcDbEntity
8
0
100
AcDbLine
10
516.0069647069538
20
-387.64347083578753
30
0
11
512.50696472185496
21
-387.64347083578753
31
0
0
LINE
5
931
100
AcDbEntity
8
0
100
AcDbLine
10
517.0069647069538
20
-382.50061369293053
30
0
11
516.0069647069538
21
-382.50061369293053
31
0
0
LINE
5
932
100
AcDbEntity
8
0
100
AcDbLine
10
517.0069647069538
20
-387.64347083578753
30
0
11
516.0069647069538
21
-387.64347083578753
31
0
0
LINE
5
933
100
AcDbEntity
8
0
100
AcDbLine
10
516.0069647069538
20
-381.30061369293048
30
0
11
512.50696472185496
21
-381.30061369293048
31
0
0
LINE
5
934
100
AcDbEntity
8
0
100
AcDbLine
10
517.0069647069538
20
-386.44347083578765
30
0
11
516.0069647069538
21
-386.44347083578765
31
0
0
ARC
5
935
100
AcDbEntity
8
0
100
AcDbCircle
10
517.0069647069538
20
-387.04347083578762
30
0
40
0.59999999999995168
100
AcDbArc
50
-90
51
90
0
LINE
5
936
100
AcDbEntity
8
0
100
AcDbLine
10
516.0069647069538
20
-382.50061369293053
30
0
11
512.50696472185496
21
-382.50061369293053
31
0
0
LINE
5
937
100
AcDbEntity
8
0
100
AcDbLine
10
516.0069647069538
20
-385.07204226435903
30
0
11
512.50696472185496
21
-385.07204226435903
31
0
0
ARC
5
938
100
AcDbEntity
8
0
100
AcDbCircle
10
517.0069647069538
20
-384.472042264359
30
0
40
0.60000000000002274
100
AcDbArc
50
-90
51
90
0
ARC
5
939
100
AcDbEntity
8
0
100
AcDbCircle
10
517.0069647069538
20
-379.32918512150195
30
0
40
0.59999999999995168
100
AcDbArc
50
-90
51
90
0
ARC
5
940
100
AcDbEntity
8
0
100
AcDbCircle
10
517.0069637771968
20
-387.04346504503798
30
0
40
0.59999999999995268
100
AcDbArc
50
-89.999996650399297
51
90.000003349611603
0
LINE
5
941
100
AcDbEntity
8
0
100
AcDbLine
10
567.50696472185473
20
-423.33816514095008
30
0
11
567.50696378646762
21
-407.33816514095003
31
0
0
LINE
5
942
100
AcDbEntity
8
0
100
AcDbLine
10
567.50696472185473
20
-423.33816514095008
30
0
11
561.50696472185462
21
-423.33816549172025
31
0
0
LINE
5
943
100
AcDbEntity
8
0
100
AcDbLine
10
576.50696710604052
20
-423.33816461479472
30
0
11
570.50696472185462
21
-423.338164965565
31
0
0
LINE
5
944
100
AcDbEntity
8
0
100
AcDbLine
10
516.0069647069538
20
-379.92918512150192
30
0
11
512.50696472185496
21
-379.92918512150192
31
0
0
LINE
5
945
100
AcDbEntity
8
0
100
AcDbLine
10
517.0069647069538
20
-378.72918512150193
30
0
11
512.50696472185496
21
-378.72918512150193
31
0
0
LINE
5
946
100
AcDbEntity
8
0
100
AcDbLine
10
561.50696472185462
20
-423.33816549172025
30
0
11
561.50696378646762
21
-407.33816549172019
31
0
0
LINE
5
947
100
AcDbEntity
8
0
100
AcDbLine
10
517.0069647069538
20
-385.07204226435903
30
0
11
516.0069647069538
21
-385.07204226435903
31
0
0
LINE
5
948
100
AcDbEntity
8
0
100
AcDbLine
10
517.0069647069538
20
-381.30061369293048
30
0
11
516.0069647069538
21
-381.30061369293048
31
0
0
LINE
5
949
100
AcDbEntity
8
0
100
AcDbLine
10
567.50696378646762
20
-407.33816514095003
30
0
11
570.50696378646762
21
-407.338164965565
31
0
0
LINE
5
950
100
AcDbEntity
8
0
100
AcDbLine
10
567.50696121415319
20
-363.33816514095014
30
0
11
567.5069621495403
21
-379.33816514095008
31
0
0
LINE
5
951
100
AcDbEntity
8
0
100
AcDbLine
10
567.5069621495403
20
-379.33816514095008
30
0
11
570.5069621495403
21
-379.33816496556506
31
0
0
LINE
5
952
100
AcDbEntity
8
0
100
AcDbLine
10
564.50696352976206
20
-378.63817388401515
30
0
11
564.50696263529755
21
-363.33816531633511
31
0
0
LINE
5
953
100
AcDbEntity
8
0
100
AcDbLine
10
570.50696121415308
20
-363.33816496556506
30
0
11
576.50696359833898
21
-363.33816461479478
31
0
0
LINE
5
954
100
AcDbEntity
8
0
100
AcDbLine
10
564.50696263529755
20
-363.33816531633511
30
0
11
567.50696121415319
21
-363.33816514095014
31
0
0
LINE
5
955
100
AcDbEntity
8
0
100
AcDbLine
10
564.50696352976206
20
-378.63817388401515
30
0
11
564.50696352976206
21
-376.9381738840151
31
0
0
LINE
5
956
100
AcDbEntity
8
0
100
AcDbLine
10
549.36741149874706
20
-392.33816655218902
30
0
11
545.36741149874706
21
-392.33816655218902
31
0
0
LINE
5
957
100
AcDbEntity
8
0
100
AcDbLine
10
531.80696352976202
20
-378.63817388401515
30
0
11
512.98706367256386
21
-363.33816832827557
31
0
0
LINE
5
958
100
AcDbEntity
8
0
100
AcDbLine
10
570.5069621495403
20
-379.33816496556506
30
0
11
570.50696121415308
21
-363.33816496556506
31
0
0
LINE
5
959
100
AcDbEntity
8
0
100
AcDbLine
10
545.36741149874706
20
-392.33816655218902
30
0
11
545.36741149874706
21
-407.33816690161507
31
0
0
LINE
5
960
100
AcDbEntity
8
0
100
AcDbLine
10
525.22775902433727
20
-383.73816866094467
30
0
11
525.22775902433727
21
-407.33816866094463
31
0
0
LINE
5
961
100
AcDbEntity
8
0
100
AcDbLine
10
549.36741149874706
20
-407.33816655218902
30
0
11
549.36741149874706
21
-392.33816655218902
31
0
0
LINE
5
962
100
AcDbEntity
8
0
100
AcDbLine
10
529.22775902433125
20
-383.73816866094467
30
0
11
525.22775902433727
21
-383.73816866094467
31
0
0
LINE
5
963
100
AcDbEntity
8
0
100
AcDbLine
10
408.50696121415342
20
-378.63817388401515
30
0
11
405.50696210861724
21
-378.63817405940017
31
0
0
LINE
5
964
100
AcDbEntity
8
0
100
AcDbLine
10
405.50696210861724
20
-378.63817405940017
30
0
11
405.50696214954041
21
-379.33817461174408
31
0
0
ENDSEC
0
SECTION
2
OBJECTS
0
DICTIONARY
5
C
100
AcDbDictionary
3
ACAD_GROUP
350
D
3
ACAD_MLINESTYLE
350
17
0
DICTIONARY
5
D
100
AcDbDictionary
0
DICTIONARY
5
1A
330
C
100
AcDbDictionary
0
DICTIONARY
5
17
100
AcDbDictionary
0
ENDSEC
0
EOF
