0
SECTION
2
HEADER
9
$ACADVER
1
AC1009
0
ENDSEC
0
SECTION
2
TABLES
0
TABLE
2
VPORT
70
1
0
VPORT
2
ACTIVE
70
0
10
0.0
20
0.0
11
0.0
21
0.0
12
0.0
22
0.0
13
0.0
23
0.0
14
0.0
24
0.0
15
0.0
25
0.0
16
0.0
26
0.0
36
0.0
17
0.0
27
0.0
37
0.0
40
0.0
41
0.0
42
0.0
43
0.0
44
0.0
50
0.0
51
0.0
71
0
72
1000
73
1
74
3
75
0
76
0
77
0
78
0
0
ENDTAB
0
ENDSEC
0
SECTION
2
ENTITIES
0
LINE
8
hole
62
5
39
2
10
456.785941
20
216.546897
11
457.357441
21
216.546897
0
LINE
8
hole
62
5
39
2
10
457.357441
20
216.546897
11
457.357441
21
217.118397
0
LINE
8
hole
62
5
39
2
10
457.357441
20
217.118397
11
456.785941
21
217.118397
0
LINE
8
hole
62
5
39
2
10
456.785941
20
217.118397
11
456.785941
21
216.546897
0
LINE
8
hole
62
5
39
2
10
466.113307
20
144.032620
11
466.684807
21
144.032620
0
LINE
8
hole
62
5
39
2
10
466.684807
20
144.032620
11
466.684807
21
144.604120
0
LINE
8
hole
62
5
39
2
10
466.684807
20
144.604120
11
466.113307
21
144.604120
0
LINE
8
hole
62
5
39
2
10
466.113307
20
144.604120
11
466.113307
21
144.032620
0
LINE
8
hole
62
5
39
2
10
427.303838
20
144.032620
11
427.875338
21
144.032620
0
LINE
8
hole
62
5
39
2
10
427.875338
20
144.032620
11
427.875338
21
144.604120
0
LINE
8
hole
62
5
39
2
10
427.875338
20
144.604120
11
427.303838
21
144.604120
0
LINE
8
hole
62
5
39
2
10
427.303838
20
144.604120
11
427.303838
21
144.032620
0
LINE
8
hole
62
5
39
2
10
455.595316
20
39.232222
11
456.166816
21
39.232222
0
LINE
8
hole
62
5
39
2
10
456.166816
20
39.232222
11
456.166816
21
39.803722
0
LINE
8
hole
62
5
39
2
10
456.166816
20
39.803722
11
455.595316
21
39.803722
0
LINE
8
hole
62
5
39
2
10
455.595316
20
39.803722
11
455.595316
21
39.232222
0
LINE
8
boundary
62
5
39
2
10
470.829915
20
16.443220
11
471.023445
21
16.838083
0
LINE
8
boundary
62
5
39
2
10
471.023445
20
16.838083
11
471.040090
21
16.875940
0
LINE
8
boundary
62
5
39
2
10
471.040090
20
16.875940
11
471.053446
21
16.916168
0
LINE
8
boundary
62
5
39
2
10
471.053446
20
16.916168
11
471.199129
21
17.445351
0
LINE
8
boundary
62
5
39
2
10
471.199129
20
17.445351
11
471.200328
21
17.450598
0
LINE
8
boundary
62
5
39
2
10
471.200328
20
17.450598
11
471.200964
21
17.455367
0
LINE
8
boundary
62
5
39
2
10
471.200964
20
17.455367
11
471.206841
21
17.524136
0
LINE
8
boundary
62
5
39
2
10
471.206841
20
17.524136
11
471.250240
21
18.073324
0
LINE
8
boundary
62
5
39
2
10
471.250240
20
18.073324
11
471.250240
21
19.213328
0
LINE
8
boundary
62
5
39
2
10
471.250240
20
19.213328
11
471.250240
21
22.277874
0
LINE
8
boundary
62
5
39
2
10
471.250240
20
22.277874
11
471.250240
21
22.523657
0
LINE
8
boundary
62
5
39
2
10
471.250240
20
22.523657
11
471.250240
21
28.090436
0
LINE
8
boundary
62
5
39
2
10
471.250240
20
28.090436
11
471.250240
21
28.337281
0
LINE
8
boundary
62
5
39
2
10
471.250240
20
28.337281
11
471.250240
21
39.470860
0
LINE
8
boundary
62
5
39
2
10
471.250240
20
39.470860
11
471.250240
21
39.964550
0
LINE
8
boundary
62
5
39
2
10
471.250240
20
39.964550
11
471.250240
21
40.458241
0
LINE
8
boundary
62
5
39
2
10
471.250240
20
40.458241
11
471.250240
21
63.219078
0
LINE
8
boundary
62
5
39
2
10
471.250240
20
63.219078
11
471.250240
21
74.599497
0
LINE
8
boundary
62
5
39
2
10
471.250240
20
74.599497
11
471.250240
21
86.473606
0
LINE
8
boundary
62
5
39
2
10
471.250240
20
86.473606
11
471.250240
21
97.854021
0
LINE
8
boundary
62
5
39
2
10
471.250240
20
97.854021
11
471.250240
21
109.728128
0
LINE
8
boundary
62
5
39
2
10
471.250240
20
109.728128
11
471.250240
21
121.108549
0
LINE
8
boundary
62
5
39
2
10
471.250240
20
121.108549
11
471.250240
21
132.982662
0
LINE
8
boundary
62
5
39
2
10
471.250240
20
132.982662
11
471.250240
21
144.363074
0
LINE
8
boundary
62
5
39
2
10
471.250240
20
144.363074
11
471.250240
21
156.237177
0
LINE
8
boundary
62
5
39
2
10
471.250240
20
156.237177
11
471.250240
21
167.617596
0
LINE
8
boundary
62
5
39
2
10
471.250240
20
167.617596
11
471.250240
21
179.491705
0
LINE
8
boundary
62
5
39
2
10
471.250240
20
179.491705
11
471.250240
21
190.872124
0
LINE
8
boundary
62
5
39
2
10
471.250240
20
190.872124
11
471.250240
21
202.746234
0
LINE
8
boundary
62
5
39
2
10
471.250240
20
202.746234
11
471.250240
21
214.126660
0
LINE
8
boundary
62
5
39
2
10
471.250240
20
214.126660
11
471.250240
21
226.000777
0
LINE
8
boundary
62
5
39
2
10
471.250240
20
226.000777
11
471.250240
21
237.874872
0
LINE
8
boundary
62
5
39
2
10
471.250240
20
237.874872
11
471.250240
21
249.139156
0
LINE
8
boundary
62
5
39
2
10
471.250240
20
249.139156
11
471.250240
21
263.774629
0
LINE
8
boundary
62
5
39
2
10
471.250240
20
263.774629
11
471.250240
21
265.540967
0
LINE
8
boundary
62
5
39
2
10
471.250240
20
265.540967
11
471.250240
21
266.179996
0
LINE
8
boundary
62
5
39
2
10
471.250240
20
266.179996
11
471.209661
21
266.969984
0
LINE
8
boundary
62
5
39
2
10
471.209661
20
266.969984
11
471.040091
21
269.891851
0
LINE
8
boundary
62
5
39
2
10
471.040091
20
269.891851
11
470.534054
21
272.509987
0
LINE
8
boundary
62
5
39
2
10
470.534054
20
272.509987
11
470.468929
21
272.846935
0
LINE
8
boundary
62
5
39
2
10
470.468929
20
272.846935
11
470.305373
21
273.224267
0
LINE
8
boundary
62
5
39
2
10
470.305373
20
273.224267
11
469.598124
21
274.757652
0
LINE
8
boundary
62
5
39
2
10
469.598124
20
274.757652
11
468.975106
21
275.196918
0
LINE
8
boundary
62
5
39
2
10
468.975106
20
275.196918
11
468.615226
21
275.437084
0
LINE
8
boundary
62
5
39
2
10
468.615226
20
275.437084
11
467.074994
21
274.606188
0
LINE
8
boundary
62
5
39
2
10
467.074994
20
274.606188
11
465.644811
21
273.808821
0
LINE
8
boundary
62
5
39
2
10
465.644811
20
273.808821
11
464.871617
21
273.361988
0
LINE
8
boundary
62
5
39
2
10
464.871617
20
273.361988
11
462.215929
21
271.754771
0
LINE
8
boundary
62
5
39
2
10
462.215929
20
271.754771
11
460.407760
21
270.640770
0
LINE
8
boundary
62
5
39
2
10
460.407760
20
270.640770
11
458.870956
21
269.617039
0
LINE
8
boundary
62
5
39
2
10
458.870956
20
269.617039
11
457.526087
21
268.735637
0
LINE
8
boundary
62
5
39
2
10
457.526087
20
268.735637
11
456.020845
21
267.679016
0
LINE
8
boundary
62
5
39
2
10
456.020845
20
267.679016
11
454.757335
21
266.756356
0
LINE
8
boundary
62
5
39
2
10
454.757335
20
266.756356
11
453.107228
21
265.509044
0
LINE
8
boundary
62
5
39
2
10
453.107228
20
265.509044
11
451.866951
21
264.442636
0
LINE
8
boundary
62
5
39
2
10
451.866951
20
264.442636
11
450.520255
21
263.355638
0
LINE
8
boundary
62
5
39
2
10
450.520255
20
263.355638
11
449.690202
21
262.665318
0
LINE
8
boundary
62
5
39
2
10
449.690202
20
262.665318
11
447.443486
21
260.508081
0
LINE
8
boundary
62
5
39
2
10
447.443486
20
260.508081
11
447.032717
21
260.143985
0
LINE
8
boundary
62
5
39
2
10
447.032717
20
260.143985
11
446.762140
21
259.897417
0
LINE
8
boundary
62
5
39
2
10
446.762140
20
259.897417
11
445.080012
21
258.110383
0
LINE
8
boundary
62
5
39
2
10
445.080012
20
258.110383
11
444.134106
21
257.057918
0
LINE
8
boundary
62
5
39
2
10
444.134106
20
257.057918
11
443.840741
21
256.655059
0
LINE
8
boundary
62
5
39
2
10
443.840741
20
256.655059
11
441.471429
21
253.744812
0
LINE
8
boundary
62
5
39
2
10
441.471429
20
253.744812
11
440.473133
21
252.227477
0
LINE
8
boundary
62
5
39
2
10
440.473133
20
252.227477
11
439.163942
21
250.459885
0
LINE
8
boundary
62
5
39
2
10
439.163942
20
250.459885
11
437.673578
21
247.980779
0
LINE
8
boundary
62
5
39
2
10
437.673578
20
247.980779
11
437.127530
21
247.175389
0
LINE
8
boundary
62
5
39
2
10
437.127530
20
247.175389
11
435.395437
21
244.030260
0
LINE
8
boundary
62
5
39
2
10
435.395437
20
244.030260
11
435.040422
21
243.339098
0
LINE
8
boundary
62
5
39
2
10
435.040422
20
243.339098
11
434.940900
21
243.098718
0
LINE
8
boundary
62
5
39
2
10
434.940900
20
243.098718
11
433.125836
21
239.212641
0
LINE
8
boundary
62
5
39
2
10
433.125836
20
239.212641
11
432.486076
21
237.503377
0
LINE
8
boundary
62
5
39
2
10
432.486076
20
237.503377
11
431.301121
21
234.695993
0
LINE
8
boundary
62
5
39
2
10
431.301121
20
234.695993
11
430.380616
21
231.962999
0
LINE
8
boundary
62
5
39
2
10
430.380616
20
231.962999
11
429.850101
21
230.577547
0
LINE
8
boundary
62
5
39
2
10
429.850101
20
230.577547
11
428.571069
21
226.359298
0
LINE
8
boundary
62
5
39
2
10
428.571069
20
226.359298
11
428.449303
21
226.007514
0
LINE
8
boundary
62
5
39
2
10
428.449303
20
226.007514
11
428.060017
21
224.562319
0
LINE
8
boundary
62
5
39
2
10
428.060017
20
224.562319
11
427.234758
21
221.254411
0
LINE
8
boundary
62
5
39
2
10
427.234758
20
221.254411
11
427.107333
21
220.536858
0
LINE
8
boundary
62
5
39
2
10
427.107333
20
220.536858
11
426.258858
21
216.680802
0
LINE
8
boundary
62
5
39
2
10
426.258858
20
216.680802
11
426.001710
21
214.989032
0
LINE
8
boundary
62
5
39
2
10
426.001710
20
214.989032
11
425.411758
21
211.938448
0
LINE
8
boundary
62
5
39
2
10
425.411758
20
211.938448
11
425.085043
21
209.405475
0
LINE
8
boundary
62
5
39
2
10
425.085043
20
209.405475
11
424.722149
21
207.264439
0
LINE
8
boundary
62
5
39
2
10
424.722149
20
207.264439
11
424.331430
21
203.660553
0
LINE
8
boundary
62
5
39
2
10
424.331430
20
203.660553
11
424.121183
21
202.232515
0
LINE
8
boundary
62
5
39
2
10
424.121183
20
202.232515
11
423.749397
21
198.092048
0
LINE
8
boundary
62
5
39
2
10
423.749397
20
198.092048
11
423.671140
21
197.478929
0
LINE
8
boundary
62
5
39
2
10
423.671140
20
197.478929
11
423.340609
21
192.991823
0
LINE
8
boundary
62
5
39
2
10
423.340609
20
192.991823
11
423.292454
21
192.226661
0
LINE
8
boundary
62
5
39
2
10
423.292454
20
192.226661
11
423.290301
21
192.113160
0
LINE
8
boundary
62
5
39
2
10
423.290301
20
192.113160
11
423.050918
21
187.307771
0
LINE
8
boundary
62
5
39
2
10
423.050918
20
187.307771
11
423.043227
21
186.438747
0
LINE
8
boundary
62
5
39
2
10
423.043227
20
186.438747
11
422.870774
21
181.870800
0
LINE
8
boundary
62
5
39
2
10
422.870774
20
181.870800
11
422.871853
21
180.334684
0
LINE
8
boundary
62
5
39
2
10
422.871853
20
180.334684
11
422.772255
21
176.624716
0
LINE
8
boundary
62
5
39
2
10
422.772255
20
176.624716
11
422.791103
21
174.526408
0
LINE
8
boundary
62
5
39
2
10
422.791103
20
174.526408
11
422.738404
21
171.463974
0
LINE
8
boundary
62
5
39
2
10
422.738404
20
171.463974
11
422.787808
21
168.497987
0
LINE
8
boundary
62
5
39
2
10
422.787808
20
168.497987
11
422.765636
21
165.671717
0
LINE
8
boundary
62
5
39
2
10
422.765636
20
165.671717
11
422.842125
21
162.471429
0
LINE
8
boundary
62
5
39
2
10
422.842125
20
162.471429
11
422.843176
21
160.396944
0
LINE
8
boundary
62
5
39
2
10
422.843176
20
160.396944
11
422.956946
21
156.624510
0
LINE
8
boundary
62
5
39
2
10
422.956946
20
156.624510
11
422.970817
21
154.912310
0
LINE
8
boundary
62
5
39
2
10
422.970817
20
154.912310
11
423.142029
21
150.171123
0
LINE
8
boundary
62
5
39
2
10
423.142029
20
150.171123
11
423.164670
21
148.721900
0
LINE
8
boundary
62
5
39
2
10
423.164670
20
148.721900
11
423.363054
21
143.907546
0
LINE
8
boundary
62
5
39
2
10
423.363054
20
143.907546
11
423.384948
21
142.924840
0
LINE
8
boundary
62
5
39
2
10
423.384948
20
142.924840
11
423.605996
21
137.995977
0
LINE
8
boundary
62
5
39
2
10
423.605996
20
137.995977
11
423.624590
21
137.324646
0
LINE
8
boundary
62
5
39
2
10
423.624590
20
137.324646
11
423.890176
21
131.711988
0
LINE
8
boundary
62
5
39
2
10
423.890176
20
131.711988
11
423.905943
21
131.225068
0
LINE
8
boundary
62
5
39
2
10
423.905943
20
131.225068
11
424.167967
21
125.848437
0
LINE
8
boundary
62
5
39
2
10
424.167967
20
125.848437
11
424.179173
21
125.538619
0
LINE
8
boundary
62
5
39
2
10
424.179173
20
125.538619
11
424.457477
21
119.864083
0
LINE
8
boundary
62
5
39
2
10
424.457477
20
119.864083
11
424.467023
21
119.620003
0
LINE
8
boundary
62
5
39
2
10
424.467023
20
119.620003
11
424.739144
21
114.018700
0
LINE
8
boundary
62
5
39
2
10
424.739144
20
114.018700
11
424.748990
21
113.781317
0
LINE
8
boundary
62
5
39
2
10
424.748990
20
113.781317
11
425.027637
21
108.013865
0
LINE
8
boundary
62
5
39
2
10
425.027637
20
108.013865
11
425.041565
21
107.696198
0
LINE
8
boundary
62
5
39
2
10
425.041565
20
107.696198
11
425.299476
21
102.393797
0
LINE
8
boundary
62
5
39
2
10
425.299476
20
102.393797
11
425.318984
21
101.973763
0
LINE
8
boundary
62
5
39
2
10
425.318984
20
101.973763
11
425.580689
21
96.697727
0
LINE
8
boundary
62
5
39
2
10
425.580689
20
96.697727
11
425.611162
21
96.080345
0
LINE
8
boundary
62
5
39
2
10
425.611162
20
96.080345
11
425.868913
21
91.054983
0
LINE
8
boundary
62
5
39
2
10
425.868913
20
91.054983
11
425.913928
21
90.201207
0
LINE
8
boundary
62
5
39
2
10
425.913928
20
90.201207
11
426.164071
21
85.547061
0
LINE
8
boundary
62
5
39
2
10
426.164071
20
85.547061
11
426.227273
21
84.430010
0
LINE
8
boundary
62
5
39
2
10
426.227273
20
84.430010
11
426.496947
21
79.725521
0
LINE
8
boundary
62
5
39
2
10
426.496947
20
79.725521
11
426.595371
21
78.120989
0
LINE
8
boundary
62
5
39
2
10
426.595371
20
78.120989
11
426.847719
21
74.260017
0
LINE
8
boundary
62
5
39
2
10
426.847719
20
74.260017
11
426.978132
21
72.420195
0
LINE
8
boundary
62
5
39
2
10
426.978132
20
72.420195
11
427.260181
21
68.940330
0
LINE
8
boundary
62
5
39
2
10
427.260181
20
68.940330
11
427.472824
21
66.559665
0
LINE
8
boundary
62
5
39
2
10
427.472824
20
66.559665
11
427.773206
21
63.686986
0
LINE
8
boundary
62
5
39
2
10
427.773206
20
63.686986
11
428.123232
21
60.689524
0
LINE
8
boundary
62
5
39
2
10
428.123232
20
60.689524
11
428.411267
21
58.552808
0
LINE
8
boundary
62
5
39
2
10
428.411267
20
58.552808
11
428.986678
21
54.772993
0
LINE
8
boundary
62
5
39
2
10
428.986678
20
54.772993
11
429.201475
21
53.518700
0
LINE
8
boundary
62
5
39
2
10
429.201475
20
53.518700
11
430.145443
21
48.684653
0
LINE
8
boundary
62
5
39
2
10
430.145443
20
48.684653
11
430.170113
21
48.567761
0
LINE
8
boundary
62
5
39
2
10
430.170113
20
48.567761
11
430.285316
21
48.091142
0
LINE
8
boundary
62
5
39
2
10
430.285316
20
48.091142
11
431.248026
21
44.131082
0
LINE
8
boundary
62
5
39
2
10
431.248026
20
44.131082
11
431.491138
21
43.254246
0
LINE
8
boundary
62
5
39
2
10
431.491138
20
43.254246
11
432.520158
21
39.732473
0
LINE
8
boundary
62
5
39
2
10
432.520158
20
39.732473
11
433.210206
21
37.674410
0
LINE
8
boundary
62
5
39
2
10
433.210206
20
37.674410
11
433.964264
21
35.551260
0
LINE
8
boundary
62
5
39
2
10
433.964264
20
35.551260
11
435.236241
21
32.427119
0
LINE
8
boundary
62
5
39
2
10
435.236241
20
32.427119
11
435.595224
21
31.613910
0
LINE
8
boundary
62
5
39
2
10
435.595224
20
31.613910
11
436.667961
21
29.489175
0
LINE
8
boundary
62
5
39
2
10
436.667961
20
29.489175
11
437.471836
21
27.882885
0
LINE
8
boundary
62
5
39
2
10
437.471836
20
27.882885
11
437.816253
21
27.274793
0
LINE
8
boundary
62
5
39
2
10
437.816253
20
27.274793
11
439.625749
21
24.460968
0
LINE
8
boundary
62
5
39
2
10
439.625749
20
24.460968
11
441.123407
21
22.402189
0
LINE
8
boundary
62
5
39
2
10
441.123407
20
22.402189
11
442.532326
21
20.868976
0
LINE
8
boundary
62
5
39
2
10
442.532326
20
20.868976
11
443.803615
21
19.615685
0
LINE
8
boundary
62
5
39
2
10
443.803615
20
19.615685
11
445.514008
21
17.950885
0
LINE
8
boundary
62
5
39
2
10
445.514008
20
17.950885
11
446.558972
21
17.212366
0
LINE
8
boundary
62
5
39
2
10
446.558972
20
17.212366
11
447.879485
21
16.349992
0
LINE
8
boundary
62
5
39
2
10
447.879485
20
16.349992
11
448.427152
21
15.984252
0
LINE
8
boundary
62
5
39
2
10
448.427152
20
15.984252
11
448.884212
21
15.702748
0
LINE
8
boundary
62
5
39
2
10
448.884212
20
15.702748
11
450.944860
21
14.799421
0
LINE
8
boundary
62
5
39
2
10
450.944860
20
14.799421
11
452.147737
21
14.310867
0
LINE
8
boundary
62
5
39
2
10
452.147737
20
14.310867
11
452.619624
21
14.120619
0
LINE
8
boundary
62
5
39
2
10
452.619624
20
14.120619
11
453.524312
21
13.899448
0
LINE
8
boundary
62
5
39
2
10
453.524312
20
13.899448
11
454.145526
21
13.759445
0
LINE
8
boundary
62
5
39
2
10
454.145526
20
13.759445
11
454.719287
21
13.624794
0
LINE
8
boundary
62
5
39
2
10
454.719287
20
13.624794
11
455.569286
21
13.441420
0
LINE
8
boundary
62
5
39
2
10
455.569286
20
13.441420
11
455.928552
21
13.408095
0
LINE
8
boundary
62
5
39
2
10
455.928552
20
13.408095
11
456.163903
21
13.390059
0
LINE
8
boundary
62
5
39
2
10
456.163903
20
13.390059
11
457.160795
21
13.305313
0
LINE
8
boundary
62
5
39
2
10
457.160795
20
13.305313
11
458.200479
21
13.233635
0
LINE
8
boundary
62
5
39
2
10
458.200479
20
13.233635
11
458.397422
21
13.218404
0
LINE
8
boundary
62
5
39
2
10
458.397422
20
13.218404
11
458.703000
21
13.199657
0
LINE
8
boundary
62
5
39
2
10
458.703000
20
13.199657
11
459.656428
21
13.254240
0
LINE
8
boundary
62
5
39
2
10
459.656428
20
13.254240
11
460.250640
21
13.296553
0
LINE
8
boundary
62
5
39
2
10
460.250640
20
13.296553
11
460.930259
21
13.339606
0
LINE
8
boundary
62
5
39
2
10
460.930259
20
13.339606
11
462.009329
21
13.423090
0
LINE
8
boundary
62
5
39
2
10
462.009329
20
13.423090
11
462.215465
21
13.460768
0
LINE
8
boundary
62
5
39
2
10
462.215465
20
13.460768
11
462.340965
21
13.485305
0
LINE
8
boundary
62
5
39
2
10
462.340965
20
13.485305
11
463.519595
21
13.706672
0
LINE
8
boundary
62
5
39
2
10
463.519595
20
13.706672
11
464.435624
21
13.890389
0
LINE
8
boundary
62
5
39
2
10
464.435624
20
13.890389
11
464.822753
21
13.965038
0
LINE
8
boundary
62
5
39
2
10
464.822753
20
13.965038
11
465.462472
21
14.096530
0
LINE
8
boundary
62
5
39
2
10
465.462472
20
14.096530
11
466.135098
21
14.295515
0
LINE
8
boundary
62
5
39
2
10
466.135098
20
14.295515
11
466.528001
21
14.416479
0
LINE
8
boundary
62
5
39
2
10
466.528001
20
14.416479
11
467.454433
21
14.694442
0
LINE
8
boundary
62
5
39
2
10
467.454433
20
14.694442
11
468.615226
21
15.056691
0
LINE
8
boundary
62
5
39
2
10
468.615226
20
15.056691
11
468.729074
21
15.115838
0
LINE
8
boundary
62
5
39
2
10
468.729074
20
15.115838
11
468.985782
21
15.142206
0
LINE
8
boundary
62
5
39
2
10
468.985782
20
15.142206
11
469.101231
21
15.159834
0
LINE
8
boundary
62
5
39
2
10
469.101231
20
15.159834
11
469.216548
21
15.190003
0
LINE
8
boundary
62
5
39
2
10
469.216548
20
15.190003
11
469.487502
21
15.277364
0
LINE
8
boundary
62
5
39
2
10
469.487502
20
15.277364
11
469.598124
21
15.319267
0
LINE
8
boundary
62
5
39
2
10
469.598124
20
15.319267
11
469.699736
21
15.370556
0
LINE
8
boundary
62
5
39
2
10
469.699736
20
15.370556
11
469.966595
21
15.524426
0
LINE
8
boundary
62
5
39
2
10
469.966595
20
15.524426
11
470.057580
21
15.582875
0
LINE
8
boundary
62
5
39
2
10
470.057580
20
15.582875
11
470.140322
21
15.648983
0
LINE
8
boundary
62
5
39
2
10
470.140322
20
15.648983
11
470.401810
21
15.882856
0
LINE
8
boundary
62
5
39
2
10
470.401810
20
15.882856
11
470.468929
21
15.948768
0
LINE
8
boundary
62
5
39
2
10
470.468929
20
15.948768
11
470.525153
21
16.016168
0
LINE
8
boundary
62
5
39
2
10
470.525153
20
16.016168
11
470.758720
21
16.328104
0
LINE
8
boundary
62
5
39
2
10
470.758720
20
16.328104
11
470.798160
21
16.385846
0
LINE
8
boundary
62
5
39
2
10
470.798160
20
16.385846
11
470.829915
21
16.443220
0
LINE
8
annotation
62
1
39
211
10
438.505510
20
111.897803
11
451.085087
21
111.897803
0
LINE
8
annotation
62
1
39
211
10
451.085087
20
111.897803
11
451.085087
21
111.897803
0
LINE
8
annotation
62
1
39
211
10
451.085087
20
111.897803
11
453.347554
21
112.100761
0
LINE
8
annotation
62
1
39
211
10
453.347554
20
112.100761
11
455.476456
21
112.685699
0
LINE
8
annotation
62
1
39
211
10
455.476456
20
112.685699
11
457.436387
21
113.616710
0
LINE
8
annotation
62
1
39
211
10
457.436387
20
113.616710
11
459.191936
21
114.857890
0
LINE
8
annotation
62
1
39
211
10
459.191936
20
114.857890
11
460.707695
21
116.373332
0
LINE
8
annotation
62
1
39
211
10
460.707695
20
116.373332
11
461.948256
21
118.127132
0
LINE
8
annotation
62
1
39
211
10
461.948256
20
118.127132
11
462.878210
21
120.083383
0
LINE
8
annotation
62
1
39
211
10
462.878210
20
120.083383
11
463.462148
21
122.206179
0
LINE
8
annotation
62
1
39
211
10
463.462148
20
122.206179
11
463.664663
21
124.459616
0
LINE
8
annotation
62
1
39
211
10
463.664663
20
124.459616
11
463.664663
21
130.758286
0
LINE
8
annotation
62
1
39
211
10
463.664663
20
130.758286
11
463.664663
21
130.758286
0
LINE
8
annotation
62
1
39
211
10
463.664663
20
130.758286
11
463.462148
21
133.010787
0
LINE
8
annotation
62
1
39
211
10
463.462148
20
133.010787
11
462.878210
21
135.133087
0
LINE
8
annotation
62
1
39
211
10
462.878210
20
135.133087
11
461.948256
21
137.089192
0
LINE
8
annotation
62
1
39
211
10
461.948256
20
137.089192
11
460.707695
21
138.843108
0
LINE
8
annotation
62
1
39
211
10
460.707695
20
138.843108
11
459.191936
21
140.358843
0
LINE
8
annotation
62
1
39
211
10
459.191936
20
140.358843
11
457.436387
21
141.600403
0
LINE
8
annotation
62
1
39
211
10
457.436387
20
141.600403
11
455.476456
21
142.531794
0
LINE
8
annotation
62
1
39
211
10
455.476456
20
142.531794
11
453.347554
21
143.117025
0
LINE
8
annotation
62
1
39
211
10
453.347554
20
143.117025
11
451.085087
21
143.320100
0
LINE
8
annotation
62
1
39
211
10
451.085087
20
143.320100
11
444.786417
21
143.320100
0
LINE
8
annotation
62
1
39
211
10
444.786417
20
143.320100
11
451.085087
21
143.320100
0
LINE
8
annotation
62
1
39
211
10
451.085087
20
143.320100
11
451.085087
21
143.320100
0
LINE
8
annotation
62
1
39
211
10
451.085087
20
143.320100
11
453.347554
21
143.523224
0
LINE
8
annotation
62
1
39
211
10
453.347554
20
143.523224
11
455.476456
21
144.108795
0
LINE
8
annotation
62
1
39
211
10
455.476456
20
144.108795
11
457.436387
21
145.041112
0
LINE
8
annotation
62
1
39
211
10
457.436387
20
145.041112
11
459.191936
21
146.284475
0
LINE
8
annotation
62
1
39
211
10
459.191936
20
146.284475
11
460.707695
21
147.803183
0
LINE
8
annotation
62
1
39
211
10
460.707695
20
147.803183
11
461.948256
21
149.561534
0
LINE
8
annotation
62
1
39
211
10
461.948256
20
149.561534
11
462.878210
21
151.523828
0
LINE
8
annotation
62
1
39
211
10
462.878210
20
151.523828
11
463.462148
21
153.654363
0
LINE
8
annotation
62
1
39
211
10
463.462148
20
153.654363
11
463.664663
21
155.917439
0
LINE
8
annotation
62
1
39
211
10
463.664663
20
155.917439
11
463.664663
21
155.917439
0
LINE
8
annotation
62
1
39
211
10
463.664663
20
155.917439
11
463.462148
21
158.169940
0
LINE
8
annotation
62
1
39
211
10
463.462148
20
158.169940
11
462.878210
21
160.292240
0
LINE
8
annotation
62
1
39
211
10
462.878210
20
160.292240
11
461.948256
21
162.248345
0
LINE
8
annotation
62
1
39
211
10
461.948256
20
162.248345
11
460.707695
21
164.002261
0
LINE
8
annotation
62
1
39
211
10
460.707695
20
164.002261
11
459.191936
21
165.517996
0
LINE
8
annotation
62
1
39
211
10
459.191936
20
165.517996
11
457.436387
21
166.759556
0
LINE
8
annotation
62
1
39
211
10
457.436387
20
166.759556
11
455.476456
21
167.690947
0
LINE
8
annotation
62
1
39
211
10
455.476456
20
167.690947
11
453.347554
21
168.276178
0
LINE
8
annotation
62
1
39
211
10
453.347554
20
168.276178
11
451.085087
21
168.479253
0
LINE
8
annotation
62
1
39
211
10
451.085087
20
168.479253
11
438.505510
21
168.479253
0
LINE
8
hole
62
5
39
2
10
352.603895
20
272.124899
11
353.175395
21
272.124899
0
LINE
8
hole
62
5
39
2
10
353.175395
20
272.124899
11
353.175395
21
272.696399
0
LINE
8
hole
62
5
39
2
10
353.175395
20
272.696399
11
352.603895
21
272.696399
0
LINE
8
hole
62
5
39
2
10
352.603895
20
272.696399
11
352.603895
21
272.124899
0
LINE
8
hole
62
5
39
2
10
381.588213
20
145.717364
11
382.159713
21
145.717364
0
LINE
8
hole
62
5
39
2
10
382.159713
20
145.717364
11
382.159713
21
146.288864
0
LINE
8
hole
62
5
39
2
10
382.159713
20
146.288864
11
381.588213
21
146.288864
0
LINE
8
hole
62
5
39
2
10
381.588213
20
146.288864
11
381.588213
21
145.717364
0
LINE
8
hole
62
5
39
2
10
352.603895
20
41.553140
11
353.175395
21
41.553140
0
LINE
8
hole
62
5
39
2
10
353.175395
20
41.553140
11
353.175395
21
42.124640
0
LINE
8
hole
62
5
39
2
10
353.175395
20
42.124640
11
352.603895
21
42.124640
0
LINE
8
hole
62
5
39
2
10
352.603895
20
42.124640
11
352.603895
21
41.553140
0
LINE
8
hole
62
5
39
2
10
342.778744
20
145.717364
11
343.350244
21
145.717364
0
LINE
8
hole
62
5
39
2
10
343.350244
20
145.717364
11
343.350244
21
146.288864
0
LINE
8
hole
62
5
39
2
10
343.350244
20
146.288864
11
342.778744
21
146.288864
0
LINE
8
hole
62
5
39
2
10
342.778744
20
146.288864
11
342.778744
21
145.717364
0
LINE
8
boundary
62
5
39
2
10
379.766093
20
22.864313
11
380.150127
21
23.146856
0
LINE
8
boundary
62
5
39
2
10
380.150127
20
23.146856
11
382.020245
21
24.495139
0
LINE
8
boundary
62
5
39
2
10
382.020245
20
24.495139
11
384.090132
21
26.015911
0
LINE
8
boundary
62
5
39
2
10
384.090132
20
26.015911
11
384.565264
21
26.092884
0
LINE
8
boundary
62
5
39
2
10
384.565264
20
26.092884
11
384.587770
21
26.100554
0
LINE
8
boundary
62
5
39
2
10
384.587770
20
26.100554
11
385.073030
21
26.347213
0
LINE
8
boundary
62
5
39
2
10
385.073030
20
26.347213
11
385.484995
21
26.721537
0
LINE
8
boundary
62
5
39
2
10
385.484995
20
26.721537
11
385.581248
21
26.833268
0
LINE
8
boundary
62
5
39
2
10
385.581248
20
26.833268
11
385.943835
21
27.343742
0
LINE
8
boundary
62
5
39
2
10
385.943835
20
27.343742
11
386.190182
21
27.861038
0
LINE
8
boundary
62
5
39
2
10
386.190182
20
27.861038
11
386.347648
21
28.273578
0
LINE
8
boundary
62
5
39
2
10
386.347648
20
28.273578
11
386.514997
21
28.809304
0
LINE
8
boundary
62
5
39
2
10
386.514997
20
28.809304
11
386.604027
21
29.313264
0
LINE
8
boundary
62
5
39
2
10
386.604027
20
29.313264
11
386.703706
21
30.222769
0
LINE
8
boundary
62
5
39
2
10
386.703706
20
30.222769
11
386.725146
21
30.605856
0
LINE
8
boundary
62
5
39
2
10
386.725146
20
30.605856
11
386.725146
21
32.994090
0
LINE
8
boundary
62
5
39
2
10
386.725146
20
32.994090
11
386.725146
21
36.681288
0
LINE
8
boundary
62
5
39
2
10
386.725146
20
36.681288
11
386.725146
21
40.842361
0
LINE
8
boundary
62
5
39
2
10
386.725146
20
40.842361
11
386.725146
21
48.436415
0
LINE
8
boundary
62
5
39
2
10
386.725146
20
48.436415
11
386.725146
21
55.223529
0
LINE
8
boundary
62
5
39
2
10
386.725146
20
55.223529
11
386.725146
21
64.903822
0
LINE
8
boundary
62
5
39
2
10
386.725146
20
64.903822
11
386.725146
21
74.584115
0
LINE
8
boundary
62
5
39
2
10
386.725146
20
74.584115
11
386.725146
21
88.158349
0
LINE
8
boundary
62
5
39
2
10
386.725146
20
88.158349
11
386.725146
21
97.838640
0
LINE
8
boundary
62
5
39
2
10
386.725146
20
97.838640
11
386.725146
21
111.412871
0
LINE
8
boundary
62
5
39
2
10
386.725146
20
111.412871
11
386.725146
21
121.093167
0
LINE
8
boundary
62
5
39
2
10
386.725146
20
121.093167
11
386.725146
21
134.667405
0
LINE
8
boundary
62
5
39
2
10
386.725146
20
134.667405
11
386.725146
21
144.347693
0
LINE
8
boundary
62
5
39
2
10
386.725146
20
144.347693
11
386.725146
21
157.921921
0
LINE
8
boundary
62
5
39
2
10
386.725146
20
157.921921
11
386.725146
21
167.602214
0
LINE
8
boundary
62
5
39
2
10
386.725146
20
167.602214
11
386.725146
21
181.176449
0
LINE
8
boundary
62
5
39
2
10
386.725146
20
181.176449
11
386.725146
21
190.856742
0
LINE
8
boundary
62
5
39
2
10
386.725146
20
190.856742
11
386.725146
21
204.430978
0
LINE
8
boundary
62
5
39
2
10
386.725146
20
204.430978
11
386.725146
21
214.111277
0
LINE
8
boundary
62
5
39
2
10
386.725146
20
214.111277
11
386.725146
21
227.685521
0
LINE
8
boundary
62
5
39
2
10
386.725146
20
227.685521
11
386.725146
21
237.365802
0
LINE
8
boundary
62
5
39
2
10
386.725146
20
237.365802
11
386.725146
21
250.940019
0
LINE
8
boundary
62
5
39
2
10
386.725146
20
250.940019
11
386.725146
21
260.620321
0
LINE
8
boundary
62
5
39
2
10
386.725146
20
260.620321
11
386.725146
21
274.194566
0
LINE
8
boundary
62
5
39
2
10
386.725146
20
274.194566
11
386.725146
21
277.274835
0
LINE
8
boundary
62
5
39
2
10
386.725146
20
277.274835
11
386.725146
21
285.252075
0
LINE
8
boundary
62
5
39
2
10
386.725146
20
285.252075
11
386.725146
21
295.471786
0
LINE
8
boundary
62
5
39
2
10
386.725146
20
295.471786
11
386.608367
21
296.814830
0
LINE
8
boundary
62
5
39
2
10
386.608367
20
296.814830
11
386.514997
21
297.798590
0
LINE
8
boundary
62
5
39
2
10
386.514997
20
297.798590
11
386.278744
21
298.546047
0
LINE
8
boundary
62
5
39
2
10
386.278744
20
298.546047
11
385.943835
21
299.605624
0
LINE
8
boundary
62
5
39
2
10
385.943835
20
299.605624
11
385.127770
21
300.756861
0
LINE
8
boundary
62
5
39
2
10
385.127770
20
300.756861
11
385.073030
21
300.834081
0
LINE
8
boundary
62
5
39
2
10
385.073030
20
300.834081
11
385.011687
21
300.861543
0
LINE
8
boundary
62
5
39
2
10
385.011687
20
300.861543
11
384.614620
21
301.024549
0
LINE
8
boundary
62
5
39
2
10
384.614620
20
301.024549
11
384.090132
21
301.232118
0
LINE
8
boundary
62
5
39
2
10
384.090132
20
301.232118
11
383.922082
21
301.205627
0
LINE
8
boundary
62
5
39
2
10
383.922082
20
301.205627
11
383.692066
21
301.171512
0
LINE
8
boundary
62
5
39
2
10
383.692066
20
301.171512
11
381.186327
21
300.741255
0
LINE
8
boundary
62
5
39
2
10
381.186327
20
300.741255
11
377.995476
21
300.145027
0
LINE
8
boundary
62
5
39
2
10
377.995476
20
300.145027
11
376.716694
21
299.911269
0
LINE
8
boundary
62
5
39
2
10
376.716694
20
299.911269
11
371.786395
21
298.800551
0
LINE
8
boundary
62
5
39
2
10
371.786395
20
298.800551
11
371.269220
21
298.679817
0
LINE
8
boundary
62
5
39
2
10
371.269220
20
298.679817
11
367.420398
21
297.636263
0
LINE
8
boundary
62
5
39
2
10
367.420398
20
297.636263
11
365.898528
21
297.214452
0
LINE
8
boundary
62
5
39
2
10
365.898528
20
297.214452
11
365.570774
21
297.099235
0
LINE
8
boundary
62
5
39
2
10
365.570774
20
297.099235
11
360.261653
21
295.235338
0
LINE
8
boundary
62
5
39
2
10
360.261653
20
295.235338
11
359.273192
21
294.887915
0
LINE
8
boundary
62
5
39
2
10
359.273192
20
294.887915
11
359.212168
21
294.866472
0
LINE
8
boundary
62
5
39
2
10
359.212168
20
294.866472
11
358.888096
21
294.718422
0
LINE
8
boundary
62
5
39
2
10
358.888096
20
294.718422
11
353.408637
21
292.211606
0
LINE
8
boundary
62
5
39
2
10
353.408637
20
292.211606
11
352.409264
21
291.639422
0
LINE
8
boundary
62
5
39
2
10
352.409264
20
291.639422
11
348.015951
21
289.073266
0
LINE
8
boundary
62
5
39
2
10
348.015951
20
289.073266
11
345.826504
21
287.519536
0
LINE
8
boundary
62
5
39
2
10
345.826504
20
287.519536
11
343.223060
21
285.612785
0
LINE
8
boundary
62
5
39
2
10
343.223060
20
285.612785
11
341.735797
21
284.351685
0
LINE
8
boundary
62
5
39
2
10
341.735797
20
284.351685
11
338.540052
21
281.394422
0
LINE
8
boundary
62
5
39
2
10
338.540052
20
281.394422
11
335.266237
21
277.762777
0
LINE
8
boundary
62
5
39
2
10
335.266237
20
277.762777
11
335.189086
21
277.682988
0
LINE
8
boundary
62
5
39
2
10
335.189086
20
277.682988
11
335.058921
21
277.514761
0
LINE
8
boundary
62
5
39
2
10
335.058921
20
277.514761
11
332.634972
21
274.134194
0
LINE
8
boundary
62
5
39
2
10
332.634972
20
274.134194
11
331.986390
21
272.952880
0
LINE
8
boundary
62
5
39
2
10
331.986390
20
272.952880
11
330.595962
21
270.735607
0
LINE
8
boundary
62
5
39
2
10
330.595962
20
270.735607
11
329.444627
21
268.333034
0
LINE
8
boundary
62
5
39
2
10
329.444627
20
268.333034
11
328.770125
21
267.117656
0
LINE
8
boundary
62
5
39
2
10
328.770125
20
267.117656
11
327.326877
21
263.728331
0
LINE
8
boundary
62
5
39
2
10
327.326877
20
263.728331
11
327.236901
21
263.548011
0
LINE
8
boundary
62
5
39
2
10
327.236901
20
263.548011
11
326.964641
21
262.848802
0
LINE
8
boundary
62
5
39
2
10
326.964641
20
262.848802
11
325.945118
21
259.985257
0
LINE
8
boundary
62
5
39
2
10
325.945118
20
259.985257
11
325.695548
21
259.077548
0
LINE
8
boundary
62
5
39
2
10
325.695548
20
259.077548
11
324.636985
21
255.854352
0
LINE
8
boundary
62
5
39
2
10
324.636985
20
255.854352
11
324.072573
21
253.614193
0
LINE
8
boundary
62
5
39
2
10
324.072573
20
253.614193
11
323.424862
21
251.458803
0
LINE
8
boundary
62
5
39
2
10
323.424862
20
251.458803
11
322.559492
21
247.655327
0
LINE
8
boundary
62
5
39
2
10
322.559492
20
247.655327
11
322.292007
21
246.670312
0
LINE
8
boundary
62
5
39
2
10
322.292007
20
246.670312
11
321.534286
21
242.920422
0
LINE
8
boundary
62
5
39
2
10
321.534286
20
242.920422
11
321.424275
21
242.315841
0
LINE
8
boundary
62
5
39
2
10
321.424275
20
242.315841
11
321.407045
21
242.170241
0
LINE
8
boundary
62
5
39
2
10
321.407045
20
242.170241
11
320.664372
21
237.478575
0
LINE
8
boundary
62
5
39
2
10
320.664372
20
237.478575
11
320.545436
21
236.212539
0
LINE
8
boundary
62
5
39
2
10
320.545436
20
236.212539
11
320.049286
21
232.466700
0
LINE
8
boundary
62
5
39
2
10
320.049286
20
232.466700
11
319.897213
21
230.268680
0
LINE
8
boundary
62
5
39
2
10
319.897213
20
230.268680
11
319.616115
21
227.650538
0
LINE
8
boundary
62
5
39
2
10
319.616115
20
227.650538
11
319.463322
21
224.458558
0
LINE
8
boundary
62
5
39
2
10
319.463322
20
224.458558
11
319.310238
21
222.658085
0
LINE
8
boundary
62
5
39
2
10
319.310238
20
222.658085
11
319.193819
21
218.690471
0
LINE
8
boundary
62
5
39
2
10
319.193819
20
218.690471
11
319.131372
21
217.739791
0
LINE
8
boundary
62
5
39
2
10
319.131372
20
217.739791
11
319.062306
21
212.616894
0
LINE
8
boundary
62
5
39
2
10
319.062306
20
212.616894
11
319.054144
21
212.447922
0
LINE
8
boundary
62
5
39
2
10
319.054144
20
212.447922
11
319.054341
21
211.320229
0
LINE
8
boundary
62
5
39
2
10
319.054341
20
211.320229
11
319.095242
21
207.443781
0
LINE
8
boundary
62
5
39
2
10
319.095242
20
207.443781
11
319.125022
21
206.892988
0
LINE
8
boundary
62
5
39
2
10
319.125022
20
206.892988
11
319.229030
21
201.919409
0
LINE
8
boundary
62
5
39
2
10
319.229030
20
201.919409
11
319.299954
21
200.750406
0
LINE
8
boundary
62
5
39
2
10
319.299954
20
200.750406
11
319.415086
21
196.759164
0
LINE
8
boundary
62
5
39
2
10
319.415086
20
196.759164
11
319.541026
21
194.840079
0
LINE
8
boundary
62
5
39
2
10
319.541026
20
194.840079
11
319.676196
21
191.060598
0
LINE
8
boundary
62
5
39
2
10
319.676196
20
191.060598
11
319.846629
21
188.634052
0
LINE
8
boundary
62
5
39
2
10
319.846629
20
188.634052
11
319.974935
21
185.567271
0
LINE
8
boundary
62
5
39
2
10
319.974935
20
185.567271
11
320.187761
21
182.693888
0
LINE
8
boundary
62
5
39
2
10
320.187761
20
182.693888
11
320.306638
21
180.168311
0
LINE
8
boundary
62
5
39
2
10
320.306638
20
180.168311
11
320.595987
21
176.430143
0
LINE
8
boundary
62
5
39
2
10
320.595987
20
176.430143
11
320.716637
21
174.114650
0
LINE
8
boundary
62
5
39
2
10
320.716637
20
174.114650
11
321.023704
21
170.300408
0
LINE
8
boundary
62
5
39
2
10
321.023704
20
170.300408
11
321.119214
21
168.607353
0
LINE
8
boundary
62
5
39
2
10
321.119214
20
168.607353
11
321.479128
21
164.271377
0
LINE
8
boundary
62
5
39
2
10
321.479128
20
164.271377
11
321.562577
21
162.886650
0
LINE
8
boundary
62
5
39
2
10
321.562577
20
162.886650
11
322.012604
21
157.589215
0
LINE
8
boundary
62
5
39
2
10
322.012604
20
157.589215
11
322.086180
21
156.435888
0
LINE
8
boundary
62
5
39
2
10
322.086180
20
156.435888
11
322.536121
21
151.164785
0
LINE
8
boundary
62
5
39
2
10
322.536121
20
151.164785
11
322.586605
21
150.398021
0
LINE
8
boundary
62
5
39
2
10
322.586605
20
150.398021
11
323.033868
21
145.072591
0
LINE
8
boundary
62
5
39
2
10
323.033868
20
145.072591
11
323.067541
21
144.565076
0
LINE
8
boundary
62
5
39
2
10
323.067541
20
144.565076
11
323.553292
21
138.555934
0
LINE
8
boundary
62
5
39
2
10
323.553292
20
138.555934
11
323.576036
21
138.208682
0
LINE
8
boundary
62
5
39
2
10
323.576036
20
138.208682
11
324.012070
21
132.480641
0
LINE
8
boundary
62
5
39
2
10
324.012070
20
132.480641
11
324.024957
21
132.276952
0
LINE
8
boundary
62
5
39
2
10
324.024957
20
132.276952
11
324.447564
21
126.241939
0
LINE
8
boundary
62
5
39
2
10
324.447564
20
126.241939
11
324.456409
21
126.094245
0
LINE
8
boundary
62
5
39
2
10
324.456409
20
126.094245
11
324.831535
21
120.130230
0
LINE
8
boundary
62
5
39
2
10
324.831535
20
120.130230
11
324.839659
21
119.984235
0
LINE
8
boundary
62
5
39
2
10
324.839659
20
119.984235
11
325.188078
21
113.823949
0
LINE
8
boundary
62
5
39
2
10
325.188078
20
113.823949
11
325.199382
21
113.606422
0
LINE
8
boundary
62
5
39
2
10
325.199382
20
113.606422
11
325.493318
21
107.917518
0
LINE
8
boundary
62
5
39
2
10
325.493318
20
107.917518
11
325.508901
21
107.601969
0
LINE
8
boundary
62
5
39
2
10
325.508901
20
107.601969
11
325.783375
21
101.908301
0
LINE
8
boundary
62
5
39
2
10
325.783375
20
101.908301
11
325.807065
21
101.413689
0
LINE
8
boundary
62
5
39
2
10
325.807065
20
101.413689
11
326.058628
21
95.951480
0
LINE
8
boundary
62
5
39
2
10
326.058628
20
95.951480
11
326.092450
21
95.238430
0
LINE
8
boundary
62
5
39
2
10
326.092450
20
95.238430
11
326.323442
21
90.136371
0
LINE
8
boundary
62
5
39
2
10
326.323442
20
90.136371
11
326.369548
21
89.177305
0
LINE
8
boundary
62
5
39
2
10
326.369548
20
89.177305
11
326.609517
21
83.963950
0
LINE
8
boundary
62
5
39
2
10
326.609517
20
83.963950
11
326.680053
21
82.555444
0
LINE
8
boundary
62
5
39
2
10
326.680053
20
82.555444
11
326.898604
21
78.214761
0
LINE
8
boundary
62
5
39
2
10
326.898604
20
78.214761
11
326.990302
21
76.576686
0
LINE
8
boundary
62
5
39
2
10
326.990302
20
76.576686
11
327.230464
21
72.578738
0
LINE
8
boundary
62
5
39
2
10
327.230464
20
72.578738
11
327.377224
21
70.432960
0
LINE
8
boundary
62
5
39
2
10
327.377224
20
70.432960
11
327.635286
21
67.005139
0
LINE
8
boundary
62
5
39
2
10
327.635286
20
67.005139
11
327.873845
21
64.278467
0
LINE
8
boundary
62
5
39
2
10
327.873845
20
64.278467
11
328.135671
21
61.533910
0
LINE
8
boundary
62
5
39
2
10
328.135671
20
61.533910
11
328.525712
21
58.070444
0
LINE
8
boundary
62
5
39
2
10
328.525712
20
58.070444
11
328.758612
21
56.131175
0
LINE
8
boundary
62
5
39
2
10
328.758612
20
56.131175
11
329.398552
21
51.672170
0
LINE
8
boundary
62
5
39
2
10
329.398552
20
51.672170
11
329.517451
21
50.866401
0
LINE
8
boundary
62
5
39
2
10
329.517451
20
50.866401
11
330.201554
21
47.004732
0
LINE
8
boundary
62
5
39
2
10
330.201554
20
47.004732
11
330.357445
21
46.136697
0
LINE
8
boundary
62
5
39
2
10
330.357445
20
46.136697
11
330.396417
21
45.950543
0
LINE
8
boundary
62
5
39
2
10
330.396417
20
45.950543
11
331.368070
21
41.451930
0
LINE
8
boundary
62
5
39
2
10
331.368070
20
41.451930
11
331.721849
21
40.054638
0
LINE
8
boundary
62
5
39
2
10
331.721849
20
40.054638
11
332.525417
21
37.030958
0
LINE
8
boundary
62
5
39
2
10
332.525417
20
37.030958
11
333.314828
21
34.485832
0
LINE
8
boundary
62
5
39
2
10
333.314828
20
34.485832
11
333.875385
21
32.821791
0
LINE
8
boundary
62
5
39
2
10
333.875385
20
32.821791
11
335.375286
21
28.978980
0
LINE
8
boundary
62
5
39
2
10
335.375286
20
28.978980
11
335.457251
21
28.795014
0
LINE
8
boundary
62
5
39
2
10
335.457251
20
28.795014
11
335.676185
21
28.367151
0
LINE
8
boundary
62
5
39
2
10
335.676185
20
28.367151
11
337.343043
21
25.080488
0
LINE
8
boundary
62
5
39
2
10
337.343043
20
25.080488
11
338.129029
21
23.719348
0
LINE
8
boundary
62
5
39
2
10
338.129029
20
23.719348
11
340.300017
21
20.765690
0
LINE
8
boundary
62
5
39
2
10
340.300017
20
20.765690
11
341.878720
21
18.822104
0
LINE
8
boundary
62
5
39
2
10
341.878720
20
18.822104
11
342.122599
21
18.595156
0
LINE
8
boundary
62
5
39
2
10
342.122599
20
18.595156
11
342.445337
21
18.315604
0
LINE
8
boundary
62
5
39
2
10
342.445337
20
18.315604
11
343.796182
21
17.125215
0
LINE
8
boundary
62
5
39
2
10
343.796182
20
17.125215
11
344.837183
21
16.273733
0
LINE
8
boundary
62
5
39
2
10
344.837183
20
16.273733
11
345.836383
21
15.679616
0
LINE
8
boundary
62
5
39
2
10
345.836383
20
15.679616
11
346.472015
21
15.325658
0
LINE
8
boundary
62
5
39
2
10
346.472015
20
15.325658
11
348.169722
21
14.387664
0
LINE
8
boundary
62
5
39
2
10
348.169722
20
14.387664
11
348.392065
21
14.307624
0
LINE
8
boundary
62
5
39
2
10
348.392065
20
14.307624
11
348.574339
21
14.246009
0
LINE
8
boundary
62
5
39
2
10
348.574339
20
14.246009
11
349.584607
21
13.895435
0
LINE
8
boundary
62
5
39
2
10
349.584607
20
13.895435
11
350.740349
21
13.519495
0
LINE
8
boundary
62
5
39
2
10
350.740349
20
13.519495
11
350.783295
21
13.505133
0
LINE
8
boundary
62
5
39
2
10
350.783295
20
13.505133
11
350.841280
21
13.486952
0
LINE
8
boundary
62
5
39
2
10
350.841280
20
13.486952
11
351.977531
21
13.291861
0
LINE
8
boundary
62
5
39
2
10
351.977531
20
13.291861
11
352.795825
21
13.165457
0
LINE
8
boundary
62
5
39
2
10
352.795825
20
13.165457
11
353.178248
21
13.103270
0
LINE
8
boundary
62
5
39
2
10
353.178248
20
13.103270
11
353.715914
21
13.025066
0
LINE
8
boundary
62
5
39
2
10
353.715914
20
13.025066
11
354.405983
21
13.017947
0
LINE
8
boundary
62
5
39
2
10
354.405983
20
13.017947
11
354.881383
21
13.019949
0
LINE
8
boundary
62
5
39
2
10
354.881383
20
13.019949
11
355.653863
21
13.017421
0
LINE
8
boundary
62
5
39
2
10
355.653863
20
13.017421
11
356.782376
21
13.030091
0
LINE
8
boundary
62
5
39
2
10
356.782376
20
13.030091
11
356.906845
21
13.046114
0
LINE
8
boundary
62
5
39
2
10
356.906845
20
13.046114
11
356.989297
21
13.057788
0
LINE
8
boundary
62
5
39
2
10
356.989297
20
13.057788
11
358.193626
21
13.219578
0
LINE
8
boundary
62
5
39
2
10
358.193626
20
13.219578
11
359.124269
21
13.356560
0
LINE
8
boundary
62
5
39
2
10
359.124269
20
13.356560
11
359.487628
21
13.407396
0
LINE
8
boundary
62
5
39
2
10
359.487628
20
13.407396
11
360.018123
21
13.488555
0
LINE
8
boundary
62
5
39
2
10
360.018123
20
13.488555
11
360.823287
21
13.691098
0
LINE
8
boundary
62
5
39
2
10
360.823287
20
13.691098
11
361.355963
21
13.831557
0
LINE
8
boundary
62
5
39
2
10
361.355963
20
13.831557
11
362.169329
21
14.040047
0
LINE
8
boundary
62
5
39
2
10
362.169329
20
14.040047
11
363.394560
21
14.369014
0
LINE
8
boundary
62
5
39
2
10
363.394560
20
14.369014
11
363.513921
21
14.411235
0
LINE
8
boundary
62
5
39
2
10
363.513921
20
14.411235
11
363.590723
21
14.439296
0
LINE
8
boundary
62
5
39
2
10
363.590723
20
14.439296
11
364.880118
21
14.900605
0
LINE
8
boundary
62
5
39
2
10
364.880118
20
14.900605
11
365.831313
21
15.252048
0
LINE
8
boundary
62
5
39
2
10
365.831313
20
15.252048
11
366.239991
21
15.399916
0
LINE
8
boundary
62
5
39
2
10
366.239991
20
15.399916
11
366.873837
21
15.636687
0
LINE
8
boundary
62
5
39
2
10
366.873837
20
15.636687
11
368.068684
21
16.219392
0
LINE
8
boundary
62
5
39
2
10
368.068684
20
16.219392
11
369.394767
21
16.864712
0
LINE
8
boundary
62
5
39
2
10
369.394767
20
16.864712
11
371.379194
21
17.865183
0
LINE
8
boundary
62
5
39
2
10
371.379194
20
17.865183
11
372.126823
21
18.234223
0
LINE
8
boundary
62
5
39
2
10
372.126823
20
18.234223
11
372.544003
21
18.439726
0
LINE
8
boundary
62
5
39
2
10
372.544003
20
18.439726
11
374.003698
21
19.184595
0
LINE
8
boundary
62
5
39
2
10
374.003698
20
19.184595
11
375.224010
21
19.939415
0
LINE
8
boundary
62
5
39
2
10
375.224010
20
19.939415
11
376.135206
21
20.520019
0
LINE
8
boundary
62
5
39
2
10
376.135206
20
20.520019
11
377.504359
21
21.373567
0
LINE
8
boundary
62
5
39
2
10
377.504359
20
21.373567
11
379.257435
21
22.499729
0
LINE
8
boundary
62
5
39
2
10
379.257435
20
22.499729
11
379.766093
21
22.864313
0
LINE
8
annotation
62
1
39
211
10
371.376966
20
29.455034
11
374.040024
21
31.983588
0
LINE
8
annotation
62
1
39
211
10
374.040024
20
31.983588
11
376.725146
21
34.607146
0
LINE
8
annotation
62
1
39
211
10
370.833887
20
28.999181
11
371.376966
21
29.455034
0
LINE
8
annotation
62
1
39
211
10
377.550251
20
141.458108
11
337.218428
21
141.458108
0
LINE
8
annotation
62
1
39
211
10
337.218428
20
141.458108
11
353.325648
21
197.947258
0
LINE
8
annotation
62
1
39
211
10
365.460726
20
125.309891
11
365.460726
21
157.569883
0
LINE
8
hole
62
5
39
2
10
251.798598
20
274.124410
11
252.370098
21
274.124410
0
LINE
8
hole
62
5
39
2
10
252.370098
20
274.124410
11
252.370098
21
274.695910
0
LINE
8
hole
62
5
39
2
10
252.370098
20
274.695910
11
251.798598
21
274.695910
0
LINE
8
hole
62
5
39
2
10
251.798598
20
274.695910
11
251.798598
21
274.124410
0
LINE
8
hole
62
5
39
2
10
251.798598
20
43.552652
11
252.370098
21
43.552652
0
LINE
8
hole
62
5
39
2
10
252.370098
20
43.552652
11
252.370098
21
44.124152
0
LINE
8
hole
62
5
39
2
10
252.370098
20
44.124152
11
251.798598
21
44.124152
0
LINE
8
hole
62
5
39
2
10
251.798598
20
44.124152
11
251.798598
21
43.552652
0
LINE
8
hole
62
5
39
2
10
276.814117
20
165.310263
11
277.385617
21
165.310263
0
LINE
8
hole
62
5
39
2
10
277.385617
20
165.310263
11
277.385617
21
165.881763
0
LINE
8
hole
62
5
39
2
10
277.385617
20
165.881763
11
276.814117
21
165.881763
0
LINE
8
hole
62
5
39
2
10
276.814117
20
165.881763
11
276.814117
21
165.310263
0
LINE
8
hole
62
5
39
2
10
206.968633
20
165.548388
11
207.540133
21
165.548388
0
LINE
8
hole
62
5
39
2
10
207.540133
20
165.548388
11
207.540133
21
166.119888
0
LINE
8
hole
62
5
39
2
10
207.540133
20
166.119888
11
206.968633
21
166.119888
0
LINE
8
hole
62
5
39
2
10
206.968633
20
166.119888
11
206.968633
21
165.548388
0
LINE
8
boundary
62
5
39
2
10
273.234948
20
33.983244
11
276.022154
21
36.706753
0
LINE
8
boundary
62
5
39
2
10
276.022154
20
36.706753
11
276.750423
21
37.399996
0
LINE
8
boundary
62
5
39
2
10
276.750423
20
37.399996
11
277.385645
21
38.022801
0
LINE
8
boundary
62
5
39
2
10
277.385645
20
38.022801
11
280.100811
21
40.960092
0
LINE
8
boundary
62
5
39
2
10
280.100811
20
40.960092
11
283.253876
21
44.433953
0
LINE
8
boundary
62
5
39
2
10
283.253876
20
44.433953
11
283.266370
21
44.449221
0
LINE
8
boundary
62
5
39
2
10
283.266370
20
44.449221
11
283.284835
21
44.524504
0
LINE
8
boundary
62
5
39
2
10
283.284835
20
44.524504
11
283.488780
21
44.617416
0
LINE
8
boundary
62
5
39
2
10
283.488780
20
44.617416
11
284.267733
21
44.972368
0
LINE
8
boundary
62
5
39
2
10
284.267733
20
44.972368
11
284.552205
21
45.412384
0
LINE
8
boundary
62
5
39
2
10
284.552205
20
45.412384
11
285.138537
21
46.319557
0
LINE
8
boundary
62
5
39
2
10
285.138537
20
46.319557
11
285.516066
21
47.629112
0
LINE
8
boundary
62
5
39
2
10
285.516066
20
47.629112
11
285.709700
21
48.300906
0
LINE
8
boundary
62
5
39
2
10
285.709700
20
48.300906
11
285.844216
21
49.854711
0
LINE
8
boundary
62
5
39
2
10
285.844216
20
49.854711
11
285.919849
21
50.900479
0
LINE
8
boundary
62
5
39
2
10
285.919849
20
50.900479
11
285.919849
21
54.441163
0
LINE
8
boundary
62
5
39
2
10
285.919849
20
54.441163
11
285.919849
21
56.492899
0
LINE
8
boundary
62
5
39
2
10
285.919849
20
56.492899
11
285.919849
21
64.517014
0
LINE
8
boundary
62
5
39
2
10
285.919849
20
64.517014
11
285.919849
21
66.903333
0
LINE
8
boundary
62
5
39
2
10
285.919849
20
66.903333
11
285.919849
21
74.197646
0
LINE
8
boundary
62
5
39
2
10
285.919849
20
74.197646
11
285.919849
21
90.157861
0
LINE
8
boundary
62
5
39
2
10
285.919849
20
90.157861
11
285.919849
21
98.137987
0
LINE
8
boundary
62
5
39
2
10
285.919849
20
98.137987
11
285.919849
21
113.412382
0
LINE
8
boundary
62
5
39
2
10
285.919849
20
113.412382
11
285.919849
21
121.392513
0
LINE
8
boundary
62
5
39
2
10
285.919849
20
121.392513
11
285.919849
21
136.666916
0
LINE
8
boundary
62
5
39
2
10
285.919849
20
136.666916
11
285.919849
21
144.647041
0
LINE
8
boundary
62
5
39
2
10
285.919849
20
144.647041
11
285.919849
21
159.921432
0
LINE
8
boundary
62
5
39
2
10
285.919849
20
159.921432
11
285.919849
21
167.901560
0
LINE
8
boundary
62
5
39
2
10
285.919849
20
167.901560
11
285.919849
21
183.175959
0
LINE
8
boundary
62
5
39
2
10
285.919849
20
183.175959
11
285.919849
21
191.156088
0
LINE
8
boundary
62
5
39
2
10
285.919849
20
191.156088
11
285.919849
21
206.430489
0
LINE
8
boundary
62
5
39
2
10
285.919849
20
206.430489
11
285.919849
21
214.410622
0
LINE
8
boundary
62
5
39
2
10
285.919849
20
214.410622
11
285.919849
21
229.685032
0
LINE
8
boundary
62
5
39
2
10
285.919849
20
229.685032
11
285.919849
21
237.665150
0
LINE
8
boundary
62
5
39
2
10
285.919849
20
237.665150
11
285.919849
21
252.939531
0
LINE
8
boundary
62
5
39
2
10
285.919849
20
252.939531
11
285.919849
21
260.919666
0
LINE
8
boundary
62
5
39
2
10
285.919849
20
260.919666
11
285.919849
21
276.194077
0
LINE
8
boundary
62
5
39
2
10
285.919849
20
276.194077
11
285.919849
21
291.468484
0
LINE
8
boundary
62
5
39
2
10
285.919849
20
291.468484
11
285.919849
21
299.448617
0
LINE
8
boundary
62
5
39
2
10
285.919849
20
299.448617
11
285.919849
21
307.428712
0
LINE
8
boundary
62
5
39
2
10
285.919849
20
307.428712
11
285.919849
21
311.075862
0
LINE
8
boundary
62
5
39
2
10
285.919849
20
311.075862
11
285.919849
21
313.469903
0
LINE
8
boundary
62
5
39
2
10
285.919849
20
313.469903
11
285.919849
21
313.865642
0
LINE
8
boundary
62
5
39
2
10
285.919849
20
313.865642
11
285.803184
21
314.786236
0
LINE
8
boundary
62
5
39
2
10
285.803184
20
314.786236
11
285.709699
21
315.523917
0
LINE
8
boundary
62
5
39
2
10
285.709699
20
315.523917
11
285.488730
21
316.047472
0
LINE
8
boundary
62
5
39
2
10
285.488730
20
316.047472
11
285.138537
21
316.847852
0
LINE
8
boundary
62
5
39
2
10
285.138537
20
316.847852
11
284.513651
21
317.484731
0
LINE
8
boundary
62
5
39
2
10
284.513651
20
317.484731
11
284.267733
21
317.729109
0
LINE
8
boundary
62
5
39
2
10
284.267733
20
317.729109
11
284.060242
21
317.789837
0
LINE
8
boundary
62
5
39
2
10
284.060242
20
317.789837
11
283.284835
21
318.005121
0
LINE
8
boundary
62
5
39
2
10
283.284835
20
318.005121
11
281.297881
21
317.999549
0
LINE
8
boundary
62
5
39
2
10
281.297881
20
317.999549
11
278.192109
21
317.973148
0
LINE
8
boundary
62
5
39
2
10
278.192109
20
317.973148
11
277.871515
21
317.964968
0
LINE
8
boundary
62
5
39
2
10
277.871515
20
317.964968
11
277.619771
21
317.954955
0
LINE
8
boundary
62
5
39
2
10
277.619771
20
317.954955
11
271.932472
21
317.760016
0
LINE
8
boundary
62
5
39
2
10
271.932472
20
317.760016
11
271.866138
21
317.757712
0
LINE
8
boundary
62
5
39
2
10
271.866138
20
317.757712
11
271.863373
21
317.757601
0
LINE
8
boundary
62
5
39
2
10
271.863373
20
317.757601
11
271.857335
21
317.757326
0
LINE
8
boundary
62
5
39
2
10
271.857335
20
317.757326
11
265.982536
21
317.396115
0
LINE
8
boundary
62
5
39
2
10
265.982536
20
317.396115
11
264.107199
21
317.214765
0
LINE
8
boundary
62
5
39
2
10
264.107199
20
317.214765
11
260.271856
21
316.833609
0
LINE
8
boundary
62
5
39
2
10
260.271856
20
316.833609
11
254.668569
21
316.312723
0
LINE
8
boundary
62
5
39
2
10
254.668569
20
316.312723
11
247.086864
21
315.157315
0
LINE
8
boundary
62
5
39
2
10
247.086864
20
315.157315
11
243.261784
21
314.590167
0
LINE
8
boundary
62
5
39
2
10
243.261784
20
314.590167
11
237.535084
21
313.196057
0
LINE
8
boundary
62
5
39
2
10
237.535084
20
313.196057
11
233.862117
21
312.358952
0
LINE
8
boundary
62
5
39
2
10
233.862117
20
312.358952
11
232.644686
21
312.074351
0
LINE
8
boundary
62
5
39
2
10
232.644686
20
312.074351
11
226.567139
21
309.940936
0
LINE
8
boundary
62
5
39
2
10
226.567139
20
309.940936
11
226.120274
21
309.783679
0
LINE
8
boundary
62
5
39
2
10
226.120274
20
309.783679
11
224.591820
21
309.053207
0
LINE
8
boundary
62
5
39
2
10
224.591820
20
309.053207
11
220.549174
21
307.117389
0
LINE
8
boundary
62
5
39
2
10
220.549174
20
307.117389
11
219.462157
21
306.426531
0
LINE
8
boundary
62
5
39
2
10
219.462157
20
306.426531
11
215.542932
21
303.884239
0
LINE
8
boundary
62
5
39
2
10
215.542932
20
303.884239
11
213.252061
21
301.924512
0
LINE
8
boundary
62
5
39
2
10
213.252061
20
301.924512
11
211.341595
21
300.236364
0
LINE
8
boundary
62
5
39
2
10
211.341595
20
300.236364
11
208.123199
21
296.431259
0
LINE
8
boundary
62
5
39
2
10
208.123199
20
296.431259
11
207.785996
21
296.024890
0
LINE
8
boundary
62
5
39
2
10
207.785996
20
296.024890
11
207.554424
21
295.714794
0
LINE
8
boundary
62
5
39
2
10
207.554424
20
295.714794
11
207.372475
21
295.378774
0
LINE
8
boundary
62
5
39
2
10
207.372475
20
295.378774
11
205.143551
21
291.670654
0
LINE
8
boundary
62
5
39
2
10
205.143551
20
291.670654
11
204.383272
21
289.830085
0
LINE
8
boundary
62
5
39
2
10
204.383272
20
289.830085
11
203.424918
21
287.826153
0
LINE
8
boundary
62
5
39
2
10
203.424918
20
287.826153
11
202.475399
21
284.915841
0
LINE
8
boundary
62
5
39
2
10
202.475399
20
284.915841
11
202.172377
21
284.146089
0
LINE
8
boundary
62
5
39
2
10
202.172377
20
284.146089
11
201.411258
21
281.286618
0
LINE
8
boundary
62
5
39
2
10
201.411258
20
281.286618
11
201.168322
21
280.230185
0
LINE
8
boundary
62
5
39
2
10
201.168322
20
280.230185
11
201.134501
21
279.967045
0
LINE
8
boundary
62
5
39
2
10
201.134501
20
279.967045
11
200.436701
21
276.365290
0
LINE
8
boundary
62
5
39
2
10
200.436701
20
276.365290
11
200.306963
21
275.236617
0
LINE
8
boundary
62
5
39
2
10
200.306963
20
275.236617
11
199.832525
21
272.549054
0
LINE
8
boundary
62
5
39
2
10
199.832525
20
272.549054
11
199.585073
21
270.292808
0
LINE
8
boundary
62
5
39
2
10
199.585073
20
270.292808
11
199.232115
21
268.154510
0
LINE
8
boundary
62
5
39
2
10
199.232115
20
268.154510
11
198.883122
21
264.718891
0
LINE
8
boundary
62
5
39
2
10
198.883122
20
264.718891
11
198.697889
21
263.501876
0
LINE
8
boundary
62
5
39
2
10
198.697889
20
263.501876
11
198.259449
21
258.649396
0
LINE
8
boundary
62
5
39
2
10
198.259449
20
258.649396
11
198.232746
21
258.453901
0
LINE
8
boundary
62
5
39
2
10
198.232746
20
258.453901
11
198.161670
21
257.512326
0
LINE
8
boundary
62
5
39
2
10
198.161670
20
257.512326
11
197.950898
21
253.864895
0
LINE
8
boundary
62
5
39
2
10
197.950898
20
253.864895
11
197.944204
21
253.006820
0
LINE
8
boundary
62
5
39
2
10
197.944204
20
253.006820
11
197.767852
21
248.789668
0
LINE
8
boundary
62
5
39
2
10
197.767852
20
248.789668
11
197.790258
21
246.768675
0
LINE
8
boundary
62
5
39
2
10
197.790258
20
246.768675
11
197.720026
21
243.535625
0
LINE
8
boundary
62
5
39
2
10
197.720026
20
243.535625
11
197.812959
21
240.604918
0
LINE
8
boundary
62
5
39
2
10
197.812959
20
240.604918
11
197.811344
21
238.487994
0
LINE
8
boundary
62
5
39
2
10
197.811344
20
238.487994
11
198.005886
21
234.520738
0
LINE
8
boundary
62
5
39
2
10
198.005886
20
234.520738
11
198.027914
21
233.257223
0
LINE
8
boundary
62
5
39
2
10
198.027914
20
233.257223
11
198.328327
21
228.517654
0
LINE
8
boundary
62
5
39
2
10
198.328327
20
228.517654
11
198.341690
21
228.106422
0
LINE
8
boundary
62
5
39
2
10
198.341690
20
228.106422
11
198.550939
21
225.311442
0
LINE
8
boundary
62
5
39
2
10
198.550939
20
225.311442
11
198.784639
21
222.561509
0
LINE
8
boundary
62
5
39
2
10
198.784639
20
222.561509
11
198.829139
21
222.201948
0
LINE
8
boundary
62
5
39
2
10
198.829139
20
222.201948
11
199.281953
21
217.325870
0
LINE
8
boundary
62
5
39
2
10
199.281953
20
217.325870
11
199.422489
21
216.226795
0
LINE
8
boundary
62
5
39
2
10
199.422489
20
216.226795
11
199.883376
21
211.552985
0
LINE
8
boundary
62
5
39
2
10
199.883376
20
211.552985
11
200.099240
21
209.890774
0
LINE
8
boundary
62
5
39
2
10
200.099240
20
209.890774
11
200.478553
21
206.164821
0
LINE
8
boundary
62
5
39
2
10
200.478553
20
206.164821
11
200.798351
21
203.712569
0
LINE
8
boundary
62
5
39
2
10
200.798351
20
203.712569
11
201.161766
21
200.219462
0
LINE
8
boundary
62
5
39
2
10
201.161766
20
200.219462
11
201.544011
21
197.296383
0
LINE
8
boundary
62
5
39
2
10
201.544011
20
197.296383
11
201.840239
21
194.493094
0
LINE
8
boundary
62
5
39
2
10
201.840239
20
194.493094
11
202.277847
21
191.146593
0
LINE
8
boundary
62
5
39
2
10
202.277847
20
191.146593
11
202.521259
21
188.869746
0
LINE
8
boundary
62
5
39
2
10
202.521259
20
188.869746
11
203.076132
21
184.614074
0
LINE
8
boundary
62
5
39
2
10
203.076132
20
184.614074
11
203.296879
21
182.569986
0
LINE
8
boundary
62
5
39
2
10
203.296879
20
182.569986
11
203.851550
21
178.301643
0
LINE
8
boundary
62
5
39
2
10
203.851550
20
178.301643
11
204.009874
21
176.843912
0
LINE
8
boundary
62
5
39
2
10
204.009874
20
176.843912
11
204.629554
21
172.049448
0
LINE
8
boundary
62
5
39
2
10
204.629554
20
172.049448
11
204.754802
21
170.901134
0
LINE
8
boundary
62
5
39
2
10
204.754802
20
170.901134
11
205.495685
21
165.100597
0
LINE
8
boundary
62
5
39
2
10
205.495685
20
165.100597
11
205.593174
21
164.205588
0
LINE
8
boundary
62
5
39
2
10
205.593174
20
164.205588
11
206.303860
21
158.476771
0
LINE
8
boundary
62
5
39
2
10
206.303860
20
158.476771
11
206.360986
21
157.941396
0
LINE
8
boundary
62
5
39
2
10
206.360986
20
157.941396
11
207.042268
21
152.181853
0
LINE
8
boundary
62
5
39
2
10
207.042268
20
152.181853
11
207.072251
21
151.889674
0
LINE
8
boundary
62
5
39
2
10
207.072251
20
151.889674
11
207.786011
21
145.411875
0
LINE
8
boundary
62
5
39
2
10
207.786011
20
145.411875
11
207.797597
21
145.291889
0
LINE
8
boundary
62
5
39
2
10
207.797597
20
145.291889
11
208.404973
21
139.222616
0
LINE
8
boundary
62
5
39
2
10
208.404973
20
139.222616
11
208.414361
21
139.129598
0
LINE
8
boundary
62
5
39
2
10
208.414361
20
139.129598
11
208.414538
21
139.127773
0
LINE
8
boundary
62
5
39
2
10
208.414538
20
139.127773
11
208.985107
21
132.698095
0
LINE
8
boundary
62
5
39
2
10
208.985107
20
132.698095
11
208.990166
21
132.635926
0
LINE
8
boundary
62
5
39
2
10
208.990166
20
132.635926
11
209.465173
21
126.332967
0
LINE
8
boundary
62
5
39
2
10
209.465173
20
126.332967
11
209.469156
21
126.273660
0
LINE
8
boundary
62
5
39
2
10
209.469156
20
126.273660
11
209.802943
21
121.002005
0
LINE
8
boundary
62
5
39
2
10
209.802943
20
121.002005
11
209.886265
21
119.694314
0
LINE
8
boundary
62
5
39
2
10
209.886265
20
119.694314
11
209.887102
21
119.680278
0
LINE
8
boundary
62
5
39
2
10
209.887102
20
119.680278
11
210.220261
21
113.541232
0
LINE
8
boundary
62
5
39
2
10
210.220261
20
113.541232
11
210.227080
21
113.410626
0
LINE
8
boundary
62
5
39
2
10
210.227080
20
113.410626
11
210.515731
21
107.258793
0
LINE
8
boundary
62
5
39
2
10
210.515731
20
107.258793
11
210.530337
21
106.945126
0
LINE
8
boundary
62
5
39
2
10
210.530337
20
106.945126
11
210.774481
21
101.036626
0
LINE
8
boundary
62
5
39
2
10
210.774481
20
101.036626
11
210.797635
21
100.491601
0
LINE
8
boundary
62
5
39
2
10
210.797635
20
100.491601
11
211.005331
21
94.967713
0
LINE
8
boundary
62
5
39
2
10
211.005331
20
94.967713
11
211.037749
21
94.158087
0
LINE
8
boundary
62
5
39
2
10
211.037749
20
94.158087
11
211.239440
21
88.511758
0
LINE
8
boundary
62
5
39
2
10
211.239440
20
88.511758
11
211.289329
21
87.242449
0
LINE
8
boundary
62
5
39
2
10
211.289329
20
87.242449
11
211.461621
21
82.537918
0
LINE
8
boundary
62
5
39
2
10
211.461621
20
82.537918
11
211.525550
21
81.002793
0
LINE
8
boundary
62
5
39
2
10
211.525550
20
81.002793
11
211.703516
21
76.661987
0
LINE
8
boundary
62
5
39
2
10
211.703516
20
76.661987
11
211.803640
21
74.593397
0
LINE
8
boundary
62
5
39
2
10
211.803640
20
74.593397
11
211.986739
21
70.853051
0
LINE
8
boundary
62
5
39
2
10
211.986739
20
70.853051
11
212.146912
21
68.172251
0
LINE
8
boundary
62
5
39
2
10
212.146912
20
68.172251
11
212.329498
21
65.142853
0
LINE
8
boundary
62
5
39
2
10
212.329498
20
65.142853
11
212.589655
21
61.691041
0
LINE
8
boundary
62
5
39
2
10
212.589655
20
61.691041
11
212.754522
21
59.489690
0
LINE
8
boundary
62
5
39
2
10
212.754522
20
59.489690
11
213.182060
21
55.002324
0
LINE
8
boundary
62
5
39
2
10
213.182060
20
55.002324
11
213.275338
21
53.987114
0
LINE
8
boundary
62
5
39
2
10
213.275338
20
53.987114
11
213.859971
21
49.008923
0
LINE
8
boundary
62
5
39
2
10
213.859971
20
49.008923
11
213.860221
21
49.006682
0
LINE
8
boundary
62
5
39
2
10
213.860221
20
49.006682
11
213.861532
21
48.997528
0
LINE
8
boundary
62
5
39
2
10
213.861532
20
48.997528
11
214.573573
21
44.090471
0
LINE
8
boundary
62
5
39
2
10
214.573573
20
44.090471
11
214.797778
21
42.816975
0
LINE
8
boundary
62
5
39
2
10
214.797778
20
42.816975
11
215.415377
21
39.447209
0
LINE
8
boundary
62
5
39
2
10
215.415377
20
39.447209
11
215.965290
21
36.946562
0
LINE
8
boundary
62
5
39
2
10
215.965290
20
36.946562
11
216.435034
21
35.000312
0
LINE
8
boundary
62
5
39
2
10
216.435034
20
35.000312
11
217.543454
21
31.109777
0
LINE
8
boundary
62
5
39
2
10
217.543454
20
31.109777
11
217.670252
21
30.728255
0
LINE
8
boundary
62
5
39
2
10
217.670252
20
30.728255
11
218.017427
21
29.827214
0
LINE
8
boundary
62
5
39
2
10
218.017427
20
29.827214
11
219.256076
21
26.602459
0
LINE
8
boundary
62
5
39
2
10
219.256076
20
26.602459
11
219.755772
21
25.486195
0
LINE
8
boundary
62
5
39
2
10
219.755772
20
25.486195
11
222.097420
21
21.413101
0
LINE
8
boundary
62
5
39
2
10
222.097420
20
21.413101
11
222.895766
21
20.171326
0
LINE
8
boundary
62
5
39
2
10
222.895766
20
20.171326
11
223.715657
21
19.212136
0
LINE
8
boundary
62
5
39
2
10
223.715657
20
19.212136
11
225.025602
21
17.789093
0
LINE
8
boundary
62
5
39
2
10
225.025602
20
17.789093
11
225.269300
21
17.520975
0
LINE
8
boundary
62
5
39
2
10
225.269300
20
17.520975
11
225.447392
21
17.338487
0
LINE
8
boundary
62
5
39
2
10
225.447392
20
17.338487
11
227.522097
21
15.785602
0
LINE
8
boundary
62
5
39
2
10
227.522097
20
15.785602
11
228.398952
21
15.167230
0
LINE
8
boundary
62
5
39
2
10
228.398952
20
15.167230
11
228.690864
21
15.025539
0
LINE
8
boundary
62
5
39
2
10
228.690864
20
15.025539
11
228.946149
21
14.907791
0
LINE
8
boundary
62
5
39
2
10
228.946149
20
14.907791
11
229.804174
21
14.504462
0
LINE
8
boundary
62
5
39
2
10
229.804174
20
14.504462
11
230.805237
21
14.057836
0
LINE
8
boundary
62
5
39
2
10
230.805237
20
14.057836
11
230.931790
21
14.022892
0
LINE
8
boundary
62
5
39
2
10
230.931790
20
14.022892
11
231.037526
21
13.995707
0
LINE
8
boundary
62
5
39
2
10
231.037526
20
13.995707
11
232.118170
21
13.709657
0
LINE
8
boundary
62
5
39
2
10
232.118170
20
13.709657
11
233.210000
21
13.441282
0
LINE
8
boundary
62
5
39
2
10
233.210000
20
13.441282
11
233.306203
21
13.416894
0
LINE
8
boundary
62
5
39
2
10
233.306203
20
13.416894
11
233.430268
21
13.387716
0
LINE
8
boundary
62
5
39
2
10
233.430268
20
13.387716
11
234.516494
21
13.300267
0
LINE
8
boundary
62
5
39
2
10
234.516494
20
13.300267
11
235.333546
21
13.246775
0
LINE
8
boundary
62
5
39
2
10
235.333546
20
13.246775
11
235.734195
21
13.217726
0
LINE
8
boundary
62
5
39
2
10
235.734195
20
13.217726
11
236.270371
21
13.186905
0
LINE
8
boundary
62
5
39
2
10
236.270371
20
13.186905
11
236.982857
21
13.239440
0
LINE
8
boundary
62
5
39
2
10
236.982857
20
13.239440
11
237.498602
21
13.284163
0
LINE
8
boundary
62
5
39
2
10
237.498602
20
13.284163
11
238.253591
21
13.344538
0
LINE
8
boundary
62
5
39
2
10
238.253591
20
13.344538
11
239.297674
21
13.441612
0
LINE
8
boundary
62
5
39
2
10
239.297674
20
13.441612
11
239.531115
21
13.488828
0
LINE
8
boundary
62
5
39
2
10
239.531115
20
13.488828
11
239.694295
21
13.523762
0
LINE
8
boundary
62
5
39
2
10
239.694295
20
13.523762
11
240.845003
21
13.762326
0
LINE
8
boundary
62
5
39
2
10
240.845003
20
13.762326
11
241.921784
21
13.998316
0
LINE
8
boundary
62
5
39
2
10
241.921784
20
13.998316
11
242.159782
21
14.048848
0
LINE
8
boundary
62
5
39
2
10
242.159782
20
14.048848
11
242.487941
21
14.122498
0
LINE
8
boundary
62
5
39
2
10
242.487941
20
14.122498
11
243.526320
21
14.451074
0
LINE
8
boundary
62
5
39
2
10
243.526320
20
14.451074
11
244.256581
21
14.690488
0
LINE
8
boundary
62
5
39
2
10
244.256581
20
14.690488
11
244.896185
21
14.895668
0
LINE
8
boundary
62
5
39
2
10
244.896185
20
14.895668
11
245.798609
21
15.195535
0
LINE
8
boundary
62
5
39
2
10
245.798609
20
15.195535
11
246.271391
21
15.390380
0
LINE
8
boundary
62
5
39
2
10
246.271391
20
15.390380
11
246.596780
21
15.528098
0
LINE
8
boundary
62
5
39
2
10
246.596780
20
15.528098
11
247.662453
21
15.971292
0
LINE
8
boundary
62
5
39
2
10
247.662453
20
15.971292
11
248.940095
21
16.516906
0
LINE
8
boundary
62
5
39
2
10
248.940095
20
16.516906
11
249.044174
21
16.560580
0
LINE
8
boundary
62
5
39
2
10
249.044174
20
16.560580
11
249.194604
21
16.625398
0
LINE
8
boundary
62
5
39
2
10
249.194604
20
16.625398
11
250.444602
21
17.251482
0
LINE
8
boundary
62
5
39
2
10
250.444602
20
17.251482
11
251.285988
21
17.682229
0
LINE
8
boundary
62
5
39
2
10
251.285988
20
17.682229
11
251.812001
21
17.947449
0
LINE
8
boundary
62
5
39
2
10
251.812001
20
17.947449
11
252.644356
21
18.376158
0
LINE
8
boundary
62
5
39
2
10
252.644356
20
18.376158
11
253.210499
21
18.711856
0
LINE
8
boundary
62
5
39
2
10
253.210499
20
18.711856
11
254.031306
21
19.209062
0
LINE
8
boundary
62
5
39
2
10
254.031306
20
19.209062
11
255.601787
21
20.150815
0
LINE
8
boundary
62
5
39
2
10
255.601787
20
20.150815
11
256.239749
21
20.532453
0
LINE
8
boundary
62
5
39
2
10
256.239749
20
20.532453
11
257.740440
21
21.449672
0
LINE
8
boundary
62
5
39
2
10
257.740440
20
21.449672
11
258.902655
21
22.257066
0
LINE
8
boundary
62
5
39
2
10
258.902655
20
22.257066
11
259.862677
21
22.941428
0
LINE
8
boundary
62
5
39
2
10
259.862677
20
22.941428
11
261.232612
21
23.899106
0
LINE
8
boundary
62
5
39
2
10
261.232612
20
23.899106
11
262.773324
21
25.005023
0
LINE
8
boundary
62
5
39
2
10
262.773324
20
25.005023
11
263.718657
21
25.772588
0
LINE
8
boundary
62
5
39
2
10
263.718657
20
25.772588
11
265.960650
21
27.638035
0
LINE
8
boundary
62
5
39
2
10
265.960650
20
27.638035
11
268.496101
21
29.726715
0
LINE
8
boundary
62
5
39
2
10
268.496101
20
29.726715
11
269.195315
21
30.299346
0
LINE
8
boundary
62
5
39
2
10
269.195315
20
30.299346
11
270.571794
21
31.454729
0
LINE
8
boundary
62
5
39
2
10
270.571794
20
31.454729
11
273.234948
21
33.983244
0
LINE
8
annotation
62
1
39
211
10
252.529808
20
30.006086
11
254.130689
21
31.554686
0
LINE
8
annotation
62
1
39
211
10
254.130689
20
31.554686
11
255.974464
21
33.294817
0
LINE
8
annotation
62
1
39
211
10
255.974464
20
33.294817
11
257.428028
21
34.705401
0
LINE
8
annotation
62
1
39
211
10
257.428028
20
34.705401
11
259.491805
21
36.958223
0
LINE
8
annotation
62
1
39
211
10
259.491805
20
36.958223
11
262.169118
21
39.933358
0
LINE
8
annotation
62
1
39
211
10
262.169118
20
39.933358
11
262.824054
21
40.645598
0
LINE
8
annotation
62
1
39
211
10
262.824054
20
40.645598
11
263.273236
21
41.144054
0
LINE
8
annotation
62
1
39
211
10
263.273236
20
41.144054
11
265.826010
21
44.317886
0
LINE
8
annotation
62
1
39
211
10
265.826010
20
44.317886
11
267.829948
21
46.829986
0
LINE
8
annotation
62
1
39
211
10
267.829948
20
46.829986
11
268.591959
21
47.900335
0
LINE
8
annotation
62
1
39
211
10
268.591959
20
47.900335
11
270.060045
21
49.965856
0
LINE
8
annotation
62
1
39
211
10
270.060045
20
49.965856
11
271.104598
21
51.413654
0
LINE
8
annotation
62
1
39
211
10
271.104598
20
51.413654
11
271.656025
21
52.179383
0
LINE
8
annotation
62
1
39
211
10
271.656025
20
52.179383
11
273.436913
21
54.931283
0
LINE
8
annotation
62
1
39
211
10
273.436913
20
54.931283
11
275.050526
21
57.419750
0
LINE
8
annotation
62
1
39
211
10
275.050526
20
57.419750
11
275.626448
21
58.396534
0
LINE
8
annotation
62
1
39
211
10
275.626448
20
58.396534
11
275.919849
21
58.892794
0
LINE
8
annotation
62
1
39
211
10
222.199126
20
115.486509
11
246.569434
21
115.486509
0
LINE
8
annotation
62
1
39
211
10
246.569434
20
115.486509
11
246.569434
21
115.486509
0
LINE
8
annotation
62
1
39
211
10
246.569434
20
115.486509
11
250.943429
21
115.879783
0
LINE
8
annotation
62
1
39
211
10
250.943429
20
115.879783
11
255.062919
21
117.013572
0
LINE
8
annotation
62
1
39
211
10
255.062919
20
117.013572
11
258.858460
21
118.818828
0
LINE
8
annotation
62
1
39
211
10
258.858460
20
118.818828
11
262.260603
21
121.226499
0
LINE
8
annotation
62
1
39
211
10
262.260603
20
121.226499
11
265.199902
21
124.167535
0
LINE
8
annotation
62
1
39
211
10
265.199902
20
124.167535
11
267.606912
21
127.572888
0
LINE
8
annotation
62
1
39
211
10
267.606912
20
127.572888
11
269.412186
21
131.373507
0
LINE
8
annotation
62
1
39
211
10
269.412186
20
131.373507
11
270.546278
21
135.500343
0
LINE
8
annotation
62
1
39
211
10
270.546278
20
135.500343
11
270.939741
21
139.884345
0
LINE
8
annotation
62
1
39
211
10
270.939741
20
139.884345
11
270.939741
21
152.024764
0
LINE
8
annotation
62
1
39
211
10
270.939741
20
152.024764
11
270.939741
21
152.024764
0
LINE
8
annotation
62
1
39
211
10
270.939741
20
152.024764
11
270.546505
21
156.406642
0
LINE
8
annotation
62
1
39
211
10
270.546505
20
156.406642
11
269.412979
21
160.527785
0
LINE
8
annotation
62
1
39
211
10
269.412979
20
160.527785
11
267.608442
21
164.320163
0
LINE
8
annotation
62
1
39
211
10
267.608442
20
164.320163
11
265.202168
21
167.715744
0
LINE
8
annotation
62
1
39
211
10
265.202168
20
167.715744
11
262.263435
21
170.646500
0
LINE
8
annotation
62
1
39
211
10
262.263435
20
170.646500
11
258.861518
21
173.044400
0
LINE
8
annotation
62
1
39
211
10
258.861518
20
173.044400
11
255.065695
21
174.841413
0
LINE
8
annotation
62
1
39
211
10
255.065695
20
174.841413
11
250.945241
21
175.969510
0
LINE
8
annotation
62
1
39
211
10
250.945241
20
175.969510
11
246.569434
21
176.360660
0
LINE
8
annotation
62
1
39
211
10
246.569434
20
176.360660
11
222.199126
21
176.360660
0
LINE
8
annotation
62
1
39
211
10
222.199126
20
176.360660
11
222.199126
21
225.232040
0
LINE
8
annotation
62
1
39
211
10
222.199126
20
225.232040
11
270.939741
21
225.232040
0
LINE
8
hole
62
5
39
2
10
92.426449
20
319.992439
11
92.997949
21
319.992439
0
LINE
8
hole
62
5
39
2
10
92.997949
20
319.992439
11
92.997949
21
320.563939
0
LINE
8
hole
62
5
39
2
10
92.997949
20
320.563939
11
92.426449
21
320.563939
0
LINE
8
hole
62
5
39
2
10
92.426449
20
320.563939
11
92.426449
21
319.992439
0
LINE
8
hole
62
5
39
2
10
64.298359
20
183.042907
11
64.869859
21
183.042907
0
LINE
8
hole
62
5
39
2
10
64.869859
20
183.042907
11
64.869859
21
183.614407
0
LINE
8
hole
62
5
39
2
10
64.869859
20
183.614407
11
64.298359
21
183.614407
0
LINE
8
hole
62
5
39
2
10
64.298359
20
183.614407
11
64.298359
21
183.042907
0
LINE
8
hole
62
5
39
2
10
158.644869
20
179.113719
11
159.216369
21
179.113719
0
LINE
8
hole
62
5
39
2
10
159.216369
20
179.113719
11
159.216369
21
179.685219
0
LINE
8
hole
62
5
39
2
10
159.216369
20
179.685219
11
158.644869
21
179.685219
0
LINE
8
hole
62
5
39
2
10
158.644869
20
179.685219
11
158.644869
21
179.113719
0
LINE
8
hole
62
5
39
2
10
92.426449
20
47.053677
11
92.997949
21
47.053677
0
LINE
8
hole
62
5
39
2
10
92.997949
20
47.053677
11
92.997949
21
47.625177
0
LINE
8
hole
62
5
39
2
10
92.997949
20
47.625177
11
92.426449
21
47.625177
0
LINE
8
hole
62
5
39
2
10
92.426449
20
47.625177
11
92.426449
21
47.053677
0
LINE
8
boundary
62
5
39
2
10
123.920863
20
55.722944
11
124.733669
21
57.078495
0
LINE
8
boundary
62
5
39
2
10
124.733669
20
57.078495
11
125.034181
21
57.579912
0
LINE
8
boundary
62
5
39
2
10
125.034181
20
57.579912
11
127.090897
21
61.380423
0
LINE
8
boundary
62
5
39
2
10
127.090897
20
61.380423
11
128.160438
21
63.354574
0
LINE
8
boundary
62
5
39
2
10
128.160438
20
63.354574
11
129.285642
21
65.589641
0
LINE
8
boundary
62
5
39
2
10
129.285642
20
65.589641
11
130.924426
21
68.839876
0
LINE
8
boundary
62
5
39
2
10
130.924426
20
68.839876
11
131.353823
21
69.725513
0
LINE
8
boundary
62
5
39
2
10
131.353823
20
69.725513
11
132.639394
21
72.374381
0
LINE
8
boundary
62
5
39
2
10
132.639394
20
72.374381
11
133.383102
21
73.883461
0
LINE
8
boundary
62
5
39
2
10
133.383102
20
73.883461
11
133.627928
21
74.379513
0
LINE
8
boundary
62
5
39
2
10
133.627928
20
74.379513
11
135.407760
21
78.059178
0
LINE
8
boundary
62
5
39
2
10
135.407760
20
78.059178
11
136.335990
21
79.976176
0
LINE
8
boundary
62
5
39
2
10
136.335990
20
79.976176
11
137.419387
21
82.287581
0
LINE
8
boundary
62
5
39
2
10
137.419387
20
82.287581
11
139.108179
21
85.880783
0
LINE
8
boundary
62
5
39
2
10
139.108179
20
85.880783
11
139.382827
21
86.495006
0
LINE
8
boundary
62
5
39
2
10
139.382827
20
86.495006
11
140.170219
21
88.244068
0
LINE
8
boundary
62
5
39
2
10
140.170219
20
88.244068
11
141.191929
21
90.479300
0
LINE
8
boundary
62
5
39
2
10
141.191929
20
90.479300
11
141.516358
21
91.183512
0
LINE
8
boundary
62
5
39
2
10
141.516358
20
91.183512
11
143.048467
21
94.742714
0
LINE
8
boundary
62
5
39
2
10
143.048467
20
94.742714
11
144.037464
21
97.003700
0
LINE
8
boundary
62
5
39
2
10
144.037464
20
97.003700
11
144.815723
21
98.966709
0
LINE
8
boundary
62
5
39
2
10
144.815723
20
98.966709
11
146.297635
21
102.599235
0
LINE
8
boundary
62
5
39
2
10
146.297635
20
102.599235
11
146.480951
21
103.115710
0
LINE
8
boundary
62
5
39
2
10
146.480951
20
103.115710
11
147.012889
21
104.543575
0
LINE
8
boundary
62
5
39
2
10
147.012889
20
104.543575
11
148.071885
21
107.365998
0
LINE
8
boundary
62
5
39
2
10
148.071885
20
107.365998
11
148.473915
21
108.387910
0
LINE
8
boundary
62
5
39
2
10
148.473915
20
108.387910
11
149.523298
21
111.543087
0
LINE
8
boundary
62
5
39
2
10
149.523298
20
111.543087
11
150.398741
21
113.990417
0
LINE
8
boundary
62
5
39
2
10
150.398741
20
113.990417
11
150.886315
21
115.639122
0
LINE
8
boundary
62
5
39
2
10
150.886315
20
115.639122
11
152.111262
21
119.392673
0
LINE
8
boundary
62
5
39
2
10
152.111262
20
119.392673
11
152.176220
21
119.633793
0
LINE
8
boundary
62
5
39
2
10
152.176220
20
119.633793
11
152.428304
21
120.467095
0
LINE
8
boundary
62
5
39
2
10
152.428304
20
120.467095
11
153.296032
21
123.341733
0
LINE
8
boundary
62
5
39
2
10
153.296032
20
123.341733
11
153.546020
21
124.078690
0
LINE
8
boundary
62
5
39
2
10
153.546020
20
124.078690
11
154.472787
21
127.346142
0
LINE
8
boundary
62
5
39
2
10
154.472787
20
127.346142
11
155.106213
21
129.300794
0
LINE
8
boundary
62
5
39
2
10
155.106213
20
129.300794
11
155.628403
21
131.219718
0
LINE
8
boundary
62
5
39
2
10
155.628403
20
131.219718
11
156.479268
21
133.947968
0
LINE
8
boundary
62
5
39
2
10
156.479268
20
133.947968
11
156.738111
21
134.919567
0
LINE
8
boundary
62
5
39
2
10
156.738111
20
134.919567
11
157.853685
21
138.580227
0
LINE
8
boundary
62
5
39
2
10
157.853685
20
138.580227
11
157.861615
21
138.610056
0
LINE
8
boundary
62
5
39
2
10
157.861615
20
138.610056
11
157.896299
21
138.725144
0
LINE
8
boundary
62
5
39
2
10
157.896299
20
138.725144
11
159.007659
21
142.424727
0
LINE
8
boundary
62
5
39
2
10
159.007659
20
142.424727
11
159.332317
21
143.389109
0
LINE
8
boundary
62
5
39
2
10
159.332317
20
143.389109
11
160.182039
21
146.230108
0
LINE
8
boundary
62
5
39
2
10
160.182039
20
146.230108
11
160.832251
21
148.193675
0
LINE
8
boundary
62
5
39
2
10
160.832251
20
148.193675
11
161.357396
21
149.967341
0
LINE
8
boundary
62
5
39
2
10
161.357396
20
149.967341
11
162.274196
21
152.798522
0
LINE
8
boundary
62
5
39
2
10
162.274196
20
152.798522
11
162.535861
21
153.699198
0
LINE
8
boundary
62
5
39
2
10
162.535861
20
153.699198
11
163.563599
21
156.964984
0
LINE
8
boundary
62
5
39
2
10
163.563599
20
156.964984
11
163.778300
21
157.645652
0
LINE
8
boundary
62
5
39
2
10
163.778300
20
157.645652
11
163.836343
21
157.815229
0
LINE
8
boundary
62
5
39
2
10
163.836343
20
157.815229
11
164.924608
21
161.381476
0
LINE
8
boundary
62
5
39
2
10
164.924608
20
161.381476
11
165.242527
21
162.353029
0
LINE
8
boundary
62
5
39
2
10
165.242527
20
162.353029
11
166.073749
21
165.190113
0
LINE
8
boundary
62
5
39
2
10
166.073749
20
165.190113
11
166.652207
21
167.048693
0
LINE
8
boundary
62
5
39
2
10
166.652207
20
167.048693
11
167.217587
21
169.077716
0
LINE
8
boundary
62
5
39
2
10
167.217587
20
169.077716
11
168.033647
21
171.863081
0
LINE
8
boundary
62
5
39
2
10
168.033647
20
171.863081
11
168.330068
21
172.990793
0
LINE
8
boundary
62
5
39
2
10
168.330068
20
172.990793
11
169.300193
21
176.542074
0
LINE
8
boundary
62
5
39
2
10
169.300193
20
176.542074
11
169.378363
21
176.857940
0
LINE
8
boundary
62
5
39
2
10
169.378363
20
176.857940
11
169.783991
21
178.547850
0
LINE
8
boundary
62
5
39
2
10
169.783991
20
178.547850
11
169.988560
21
178.925848
0
LINE
8
boundary
62
5
39
2
10
169.988560
20
178.925848
11
170.766890
21
180.363885
0
LINE
8
boundary
62
5
39
2
10
170.766890
20
180.363885
11
171.312984
21
183.790139
0
LINE
8
boundary
62
5
39
2
10
171.312984
20
183.790139
11
171.637694
21
186.017274
0
LINE
8
boundary
62
5
39
2
10
171.637694
20
186.017274
11
171.890416
21
189.904981
0
LINE
8
boundary
62
5
39
2
10
171.890416
20
189.904981
11
172.208855
21
195.320657
0
LINE
8
boundary
62
5
39
2
10
172.208855
20
195.320657
11
172.225259
21
196.249774
0
LINE
8
boundary
62
5
39
2
10
172.225259
20
196.249774
11
172.238083
21
197.060766
0
LINE
8
boundary
62
5
39
2
10
172.238083
20
197.060766
11
172.317541
21
202.085660
0
LINE
8
boundary
62
5
39
2
10
172.317541
20
202.085660
11
172.391288
21
207.385888
0
LINE
8
boundary
62
5
39
2
10
172.391288
20
207.385888
11
172.402503
21
208.191984
0
LINE
8
boundary
62
5
39
2
10
172.402503
20
208.191984
11
172.419005
21
209.500142
0
LINE
8
boundary
62
5
39
2
10
172.419005
20
209.500142
11
172.419005
21
209.539451
0
LINE
8
boundary
62
5
39
2
10
172.419005
20
209.539451
11
172.419005
21
220.851071
0
LINE
8
boundary
62
5
39
2
10
172.419005
20
220.851071
11
172.419005
21
222.471115
0
LINE
8
boundary
62
5
39
2
10
172.419005
20
222.471115
11
172.419005
21
233.714907
0
LINE
8
boundary
62
5
39
2
10
172.419005
20
233.714907
11
172.419005
21
244.513814
0
LINE
8
boundary
62
5
39
2
10
172.419005
20
244.513814
11
172.419005
21
246.971770
0
LINE
8
boundary
62
5
39
2
10
172.419005
20
246.971770
11
172.419005
21
257.080841
0
LINE
8
boundary
62
5
39
2
10
172.419005
20
257.080841
11
172.419005
21
268.084811
0
LINE
8
boundary
62
5
39
2
10
172.419005
20
268.084811
11
172.419005
21
268.673279
0
LINE
8
boundary
62
5
39
2
10
172.419005
20
268.673279
11
172.419005
21
272.176039
0
LINE
8
boundary
62
5
39
2
10
172.419005
20
272.176039
11
172.395522
21
274.223123
0
LINE
8
boundary
62
5
39
2
10
172.395522
20
274.223123
11
172.387752
21
274.899679
0
LINE
8
boundary
62
5
39
2
10
172.387752
20
274.899679
11
172.333112
21
278.451896
0
LINE
8
boundary
62
5
39
2
10
172.333112
20
278.451896
11
172.295097
21
280.920419
0
LINE
8
boundary
62
5
39
2
10
172.295097
20
280.920419
11
172.262719
21
282.421934
0
LINE
8
boundary
62
5
39
2
10
172.262719
20
282.421934
11
172.208856
21
284.922018
0
LINE
8
boundary
62
5
39
2
10
172.208856
20
284.922018
11
172.130630
21
286.011934
0
LINE
8
boundary
62
5
39
2
10
172.130630
20
286.011934
11
172.072096
21
286.827985
0
LINE
8
boundary
62
5
39
2
10
172.072096
20
286.827985
11
171.848764
21
289.063129
0
LINE
8
boundary
62
5
39
2
10
171.848764
20
289.063129
11
171.637694
21
291.176766
0
LINE
8
boundary
62
5
39
2
10
171.637694
20
291.176766
11
171.485749
21
291.855058
0
LINE
8
boundary
62
5
39
2
10
171.485749
20
291.855058
11
171.244998
21
292.930287
0
LINE
8
boundary
62
5
39
2
10
171.244998
20
292.930287
11
170.916078
21
294.020490
0
LINE
8
boundary
62
5
39
2
10
170.916078
20
294.020490
11
170.766889
21
294.514515
0
LINE
8
boundary
62
5
39
2
10
170.766889
20
294.514515
11
170.124037
21
295.141875
0
LINE
8
boundary
62
5
39
2
10
170.124037
20
295.141875
11
169.783991
21
295.589948
0
LINE
8
boundary
62
5
39
2
10
169.783991
20
295.589948
11
166.617983
21
302.019573
0
LINE
8
boundary
62
5
39
2
10
166.617983
20
302.019573
11
163.303497
21
307.347767
0
LINE
8
boundary
62
5
39
2
10
163.303497
20
307.347767
11
162.350668
21
308.927851
0
LINE
8
boundary
62
5
39
2
10
162.350668
20
308.927851
11
161.340246
21
310.301091
0
LINE
8
boundary
62
5
39
2
10
161.340246
20
310.301091
11
156.422740
21
316.851605
0
LINE
8
boundary
62
5
39
2
10
156.422740
20
316.851605
11
152.373396
21
321.311476
0
LINE
8
boundary
62
5
39
2
10
152.373396
20
321.311476
11
149.152973
21
324.796091
0
LINE
8
boundary
62
5
39
2
10
149.152973
20
324.796091
11
141.992144
21
331.204922
0
LINE
8
boundary
62
5
39
2
10
141.992144
20
331.204922
11
141.661248
21
331.497531
0
LINE
8
boundary
62
5
39
2
10
141.661248
20
331.497531
11
135.584400
21
335.971443
0
LINE
8
boundary
62
5
39
2
10
135.584400
20
335.971443
11
133.574657
21
337.414055
0
LINE
8
boundary
62
5
39
2
10
133.574657
20
337.414055
11
131.570186
21
338.650804
0
LINE
8
boundary
62
5
39
2
10
131.570186
20
338.650804
11
128.855957
21
340.319438
0
LINE
8
boundary
62
5
39
2
10
128.855957
20
340.319438
11
125.768499
21
341.978800
0
LINE
8
boundary
62
5
39
2
10
125.768499
20
341.978800
11
123.941474
21
342.958704
0
LINE
8
boundary
62
5
39
2
10
123.941474
20
342.958704
11
119.852578
21
344.852769
0
LINE
8
boundary
62
5
39
2
10
119.852578
20
344.852769
11
119.172323
21
345.167791
0
LINE
8
boundary
62
5
39
2
10
119.172323
20
345.167791
11
115.389413
21
346.656807
0
LINE
8
boundary
62
5
39
2
10
115.389413
20
346.656807
11
114.264253
21
347.099623
0
LINE
8
boundary
62
5
39
2
10
114.264253
20
347.099623
11
114.059401
21
347.166460
0
LINE
8
boundary
62
5
39
2
10
114.059401
20
347.166460
11
109.314356
21
348.720971
0
LINE
8
boundary
62
5
39
2
10
109.314356
20
348.720971
11
108.167674
21
349.029845
0
LINE
8
boundary
62
5
39
2
10
108.167674
20
349.029845
11
104.276459
21
350.085263
0
LINE
8
boundary
62
5
39
2
10
104.276459
20
350.085263
11
101.825103
21
350.629437
0
LINE
8
boundary
62
5
39
2
10
101.825103
20
350.629437
11
99.278324
21
351.200208
0
LINE
8
boundary
62
5
39
2
10
99.278324
20
351.200208
11
95.361674
21
351.912807
0
LINE
8
boundary
62
5
39
2
10
95.361674
20
351.912807
11
94.253889
21
352.116850
0
LINE
8
boundary
62
5
39
2
10
94.253889
20
352.116850
11
90.733260
21
352.630984
0
LINE
8
boundary
62
5
39
2
10
90.733260
20
352.630984
11
88.783788
21
352.912580
0
LINE
8
boundary
62
5
39
2
10
88.783788
20
352.912580
11
88.159917
21
352.980544
0
LINE
8
boundary
62
5
39
2
10
88.159917
20
352.980544
11
83.360171
21
353.516241
0
LINE
8
boundary
62
5
39
2
10
83.360171
20
353.516241
11
80.797909
21
353.679711
0
LINE
8
boundary
62
5
39
2
10
80.797909
20
353.679711
11
77.822955
21
353.860412
0
LINE
8
boundary
62
5
39
2
10
77.822955
20
353.860412
11
73.254355
21
354.208794
0
LINE
8
boundary
62
5
39
2
10
73.254355
20
354.208794
11
67.233301
21
354.300208
0
LINE
8
boundary
62
5
39
2
10
67.233301
20
354.300208
11
62.467225
21
354.395534
0
LINE
8
boundary
62
5
39
2
10
62.467225
20
354.395534
11
53.912897
21
354.113201
0
LINE
8
boundary
62
5
39
2
10
53.912897
20
354.113201
11
52.174834
21
354.044473
0
LINE
8
boundary
62
5
39
2
10
52.174834
20
354.044473
11
51.603457
21
353.982093
0
LINE
8
boundary
62
5
39
2
10
51.603457
20
353.982093
11
51.141013
21
353.938832
0
LINE
8
boundary
62
5
39
2
10
51.141013
20
353.938832
11
46.957194
21
353.526682
0
LINE
8
boundary
62
5
39
2
10
46.957194
20
353.526682
11
42.205548
21
353.045940
0
LINE
8
boundary
62
5
39
2
10
42.205548
20
353.045940
11
41.612487
21
352.994901
0
LINE
8
boundary
62
5
39
2
10
41.612487
20
352.994901
11
40.002688
21
352.721241
0
LINE
8
boundary
62
5
39
2
10
40.002688
20
352.721241
11
36.376547
21
352.092318
0
LINE
8
boundary
62
5
39
2
10
36.376547
20
352.092318
11
33.919739
21
351.502179
0
LINE
8
boundary
62
5
39
2
10
33.919739
20
351.502179
11
31.659448
21
350.954809
0
LINE
8
boundary
62
5
39
2
10
31.659448
20
350.954809
11
27.872229
21
349.608019
0
LINE
8
boundary
62
5
39
2
10
27.872229
20
349.608019
11
25.625852
21
348.821346
0
LINE
8
boundary
62
5
39
2
10
25.625852
20
348.821346
11
25.115640
21
348.570371
0
LINE
8
boundary
62
5
39
2
10
25.115640
20
348.570371
11
23.040692
21
347.543168
0
LINE
8
boundary
62
5
39
2
10
23.040692
20
347.543168
11
21.052768
21
346.318697
0
LINE
8
boundary
62
5
39
2
10
21.052768
20
346.318697
11
20.739212
21
346.123998
0
LINE
8
boundary
62
5
39
2
10
20.739212
20
346.123998
11
20.333458
21
345.805271
0
LINE
8
boundary
62
5
39
2
10
20.333458
20
345.805271
11
18.621468
21
344.461115
0
LINE
8
boundary
62
5
39
2
10
18.621468
20
344.461115
11
17.554332
21
343.377348
0
LINE
8
boundary
62
5
39
2
10
17.554332
20
343.377348
11
16.833288
21
342.635125
0
LINE
8
boundary
62
5
39
2
10
16.833288
20
342.635125
11
16.225031
21
341.795879
0
LINE
8
boundary
62
5
39
2
10
16.225031
20
341.795879
11
15.384197
21
340.642970
0
LINE
8
boundary
62
5
39
2
10
15.384197
20
340.642970
11
14.734319
21
339.385969
0
LINE
8
boundary
62
5
39
2
10
14.734319
20
339.385969
11
14.279737
21
338.483926
0
LINE
8
boundary
62
5
39
2
10
14.279737
20
338.483926
11
13.916190
21
337.338685
0
LINE
8
boundary
62
5
39
2
10
13.916190
20
337.338685
11
13.453449
21
335.897103
0
LINE
8
boundary
62
5
39
2
10
13.453449
20
335.897103
11
13.223954
21
334.558649
0
LINE
8
boundary
62
5
39
2
10
13.223954
20
334.558649
11
13.005393
21
333.130707
0
LINE
8
boundary
62
5
39
2
10
13.005393
20
333.130707
11
13.018929
21
331.994761
0
LINE
8
boundary
62
5
39
2
10
13.018929
20
331.994761
11
13.021110
21
328.256313
0
LINE
8
boundary
62
5
39
2
10
13.021110
20
328.256313
11
13.588932
21
323.843411
0
LINE
8
boundary
62
5
39
2
10
13.588932
20
323.843411
11
13.606882
21
323.612093
0
LINE
8
boundary
62
5
39
2
10
13.606882
20
323.612093
11
13.834415
21
322.472146
0
LINE
8
boundary
62
5
39
2
10
13.834415
20
322.472146
11
14.572720
21
319.149678
0
LINE
8
boundary
62
5
39
2
10
14.572720
20
319.149678
11
14.780396
21
318.470507
0
LINE
8
boundary
62
5
39
2
10
14.780396
20
318.470507
11
15.829229
21
314.429479
0
LINE
8
boundary
62
5
39
2
10
15.829229
20
314.429479
11
16.306836
21
312.917427
0
LINE
8
boundary
62
5
39
2
10
16.306836
20
312.917427
11
17.141854
21
309.833910
0
LINE
8
boundary
62
5
39
2
10
17.141854
20
309.833910
11
17.809964
21
307.619684
0
LINE
8
boundary
62
5
39
2
10
17.809964
20
307.619684
11
18.397458
21
305.347682
0
LINE
8
boundary
62
5
39
2
10
18.397458
20
305.347682
11
19.326297
21
301.996570
0
LINE
8
boundary
62
5
39
2
10
19.326297
20
301.996570
11
19.742083
21
300.244973
0
LINE
8
boundary
62
5
39
2
10
19.742083
20
300.244973
11
20.866352
21
295.843921
0
LINE
8
boundary
62
5
39
2
10
20.866352
20
295.843921
11
21.071947
21
294.902539
0
LINE
8
boundary
62
5
39
2
10
21.071947
20
294.902539
11
22.432812
21
289.213269
0
LINE
8
boundary
62
5
39
2
10
22.432812
20
289.213269
11
22.443905
21
289.159114
0
LINE
8
boundary
62
5
39
2
10
22.443905
20
289.159114
11
22.523709
21
288.813888
0
LINE
8
boundary
62
5
39
2
10
22.523709
20
288.813888
11
23.701108
21
283.971262
0
LINE
8
boundary
62
5
39
2
10
23.701108
20
283.971262
11
23.896720
21
283.252525
0
LINE
8
boundary
62
5
39
2
10
23.896720
20
283.252525
11
25.103828
21
278.260040
0
LINE
8
boundary
62
5
39
2
10
25.103828
20
278.260040
11
25.534692
21
276.707119
0
LINE
8
boundary
62
5
39
2
10
25.534692
20
276.707119
11
26.613744
21
272.359698
0
LINE
8
boundary
62
5
39
2
10
26.613744
20
272.359698
11
27.250149
21
270.146690
0
LINE
8
boundary
62
5
39
2
10
27.250149
20
270.146690
11
28.143722
21
266.694943
0
LINE
8
boundary
62
5
39
2
10
28.143722
20
266.694943
11
29.018216
21
263.727604
0
LINE
8
boundary
62
5
39
2
10
29.018216
20
263.727604
11
29.791572
21
260.829665
0
LINE
8
boundary
62
5
39
2
10
29.791572
20
260.829665
11
30.847185
21
257.293363
0
LINE
8
boundary
62
5
39
2
10
30.847185
20
257.293363
11
31.453197
21
255.060801
0
LINE
8
boundary
62
5
39
2
10
31.453197
20
255.060801
11
32.777724
21
250.631470
0
LINE
8
boundary
62
5
39
2
10
32.777724
20
250.631470
11
33.259728
21
248.866377
0
LINE
8
boundary
62
5
39
2
10
33.259728
20
248.866377
11
34.656017
21
244.161150
0
LINE
8
boundary
62
5
39
2
10
34.656017
20
244.161150
11
34.962642
21
243.032321
0
LINE
8
boundary
62
5
39
2
10
34.962642
20
243.032321
11
36.637522
21
237.283450
0
LINE
8
boundary
62
5
39
2
10
36.637522
20
237.283450
11
36.817627
21
236.610170
0
LINE
8
boundary
62
5
39
2
10
36.817627
20
236.610170
11
38.464649
21
230.798264
0
LINE
8
boundary
62
5
39
2
10
38.464649
20
230.798264
11
38.509293
21
230.626938
0
LINE
8
boundary
62
5
39
2
10
38.509293
20
230.626938
11
39.196832
21
228.120608
0
LINE
8
boundary
62
5
39
2
10
39.196832
20
228.120608
11
40.337793
21
224.032391
0
LINE
8
boundary
62
5
39
2
10
40.337793
20
224.032391
11
40.417241
21
223.758932
0
LINE
8
boundary
62
5
39
2
10
40.417241
20
223.758932
11
42.053262
21
217.691389
0
LINE
8
boundary
62
5
39
2
10
42.053262
20
217.691389
11
42.233464
21
217.049507
0
LINE
8
boundary
62
5
39
2
10
42.233464
20
217.049507
11
43.687070
21
211.477454
0
LINE
8
boundary
62
5
39
2
10
43.687070
20
211.477454
11
43.982696
21
210.385931
0
LINE
8
boundary
62
5
39
2
10
43.982696
20
210.385931
11
45.458794
21
204.531191
0
LINE
8
boundary
62
5
39
2
10
45.458794
20
204.531191
11
45.803484
21
203.212391
0
LINE
8
boundary
62
5
39
2
10
45.803484
20
203.212391
11
47.016565
21
198.231292
0
LINE
8
boundary
62
5
39
2
10
47.016565
20
198.231292
11
47.432019
21
196.585754
0
LINE
8
boundary
62
5
39
2
10
47.432019
20
196.585754
11
48.581419
21
191.706812
0
LINE
8
boundary
62
5
39
2
10
48.581419
20
191.706812
11
49.100488
21
189.562254
0
LINE
8
boundary
62
5
39
2
10
49.100488
20
189.562254
11
50.274924
21
184.370838
0
LINE
8
boundary
62
5
39
2
10
50.274924
20
184.370838
11
50.788903
21
182.112984
0
LINE
8
boundary
62
5
39
2
10
50.788903
20
182.112984
11
51.768574
21
177.514953
0
LINE
8
boundary
62
5
39
2
10
51.768574
20
177.514953
11
52.266834
21
175.144136
0
LINE
8
boundary
62
5
39
2
10
52.266834
20
175.144136
11
53.104708
21
170.891636
0
LINE
8
boundary
62
5
39
2
10
53.104708
20
170.891636
11
53.623421
21
168.143042
0
LINE
8
boundary
62
5
39
2
10
53.623421
20
168.143042
11
54.417792
21
163.663352
0
LINE
8
boundary
62
5
39
2
10
54.417792
20
163.663352
11
54.857994
21
160.980637
0
LINE
8
boundary
62
5
39
2
10
54.857994
20
160.980637
11
55.488977
21
156.898726
0
LINE
8
boundary
62
5
39
2
10
55.488977
20
156.898726
11
55.882888
21
154.028405
0
LINE
8
boundary
62
5
39
2
10
55.882888
20
154.028405
11
56.429113
21
149.818764
0
LINE
8
boundary
62
5
39
2
10
56.429113
20
149.818764
11
56.740665
21
146.953192
0
LINE
8
boundary
62
5
39
2
10
56.740665
20
146.953192
11
57.171235
21
142.786296
0
LINE
8
boundary
62
5
39
2
10
57.171235
20
142.786296
11
57.417056
21
139.820731
0
LINE
8
boundary
62
5
39
2
10
57.417056
20
139.820731
11
57.767027
21
135.413279
0
LINE
8
boundary
62
5
39
2
10
57.767027
20
135.413279
11
57.933271
21
132.698334
0
LINE
8
boundary
62
5
39
2
10
57.933271
20
132.698334
11
58.185512
21
128.450232
0
LINE
8
boundary
62
5
39
2
10
58.185512
20
128.450232
11
58.300962
21
125.783975
0
LINE
8
boundary
62
5
39
2
10
58.300962
20
125.783975
11
58.494764
21
121.260336
0
LINE
8
boundary
62
5
39
2
10
58.494764
20
121.260336
11
58.564382
21
118.787591
0
LINE
8
boundary
62
5
39
2
10
58.564382
20
118.787591
11
58.700688
21
114.080097
0
LINE
8
boundary
62
5
39
2
10
58.700688
20
114.080097
11
58.735675
21
111.890033
0
LINE
8
boundary
62
5
39
2
10
58.735675
20
111.890033
11
58.822475
21
107.035779
0
LINE
8
boundary
62
5
39
2
10
58.822475
20
107.035779
11
58.835151
21
104.967757
0
LINE
8
boundary
62
5
39
2
10
58.835151
20
104.967757
11
58.886142
21
99.354122
0
LINE
8
boundary
62
5
39
2
10
58.886142
20
99.354122
11
58.881571
21
97.849862
0
LINE
8
boundary
62
5
39
2
10
58.881571
20
97.849862
11
58.888112
21
92.434854
0
LINE
8
boundary
62
5
39
2
10
58.888112
20
92.434854
11
58.872997
21
91.305474
0
LINE
8
boundary
62
5
39
2
10
58.872997
20
91.305474
11
58.830026
21
85.334037
0
LINE
8
boundary
62
5
39
2
10
58.830026
20
85.334037
11
58.814659
21
84.715099
0
LINE
8
boundary
62
5
39
2
10
58.814659
20
84.715099
11
58.710509
21
78.219654
0
LINE
8
boundary
62
5
39
2
10
58.710509
20
78.219654
11
58.710465
21
78.218426
0
LINE
8
boundary
62
5
39
2
10
58.710465
20
78.218426
11
58.710208
21
78.207974
0
LINE
8
boundary
62
5
39
2
10
58.710208
20
78.207974
11
58.576960
21
71.813792
0
LINE
8
boundary
62
5
39
2
10
58.576960
20
71.813792
11
58.569946
21
71.029132
0
LINE
8
boundary
62
5
39
2
10
58.569946
20
71.029132
11
58.411073
21
65.365764
0
LINE
8
boundary
62
5
39
2
10
58.411073
20
65.365764
11
58.389107
21
63.588588
0
LINE
8
boundary
62
5
39
2
10
58.389107
20
63.588588
11
58.249897
21
59.413857
0
LINE
8
boundary
62
5
39
2
10
58.249897
20
59.413857
11
58.214577
21
56.894817
0
LINE
8
boundary
62
5
39
2
10
58.214577
20
56.894817
11
58.098859
21
53.613026
0
LINE
8
boundary
62
5
39
2
10
58.098859
20
53.613026
11
58.054895
21
49.937490
0
LINE
8
boundary
62
5
39
2
10
58.054895
20
49.937490
11
58.007194
21
47.914764
0
LINE
8
boundary
62
5
39
2
10
58.007194
20
47.914764
11
58.022030
21
43.285870
0
LINE
8
boundary
62
5
39
2
10
58.022030
20
43.285870
11
58.027035
21
42.459893
0
LINE
8
boundary
62
5
39
2
10
58.027035
20
42.459893
11
58.146734
21
39.196011
0
LINE
8
boundary
62
5
39
2
10
58.146734
20
39.196011
11
58.231744
21
37.109680
0
LINE
8
boundary
62
5
39
2
10
58.231744
20
37.109680
11
58.269463
21
36.595140
0
LINE
8
boundary
62
5
39
2
10
58.269463
20
36.595140
11
58.730033
21
31.981004
0
LINE
8
boundary
62
5
39
2
10
58.730033
20
31.981004
11
58.998786
21
30.028127
0
LINE
8
boundary
62
5
39
2
10
58.998786
20
30.028127
11
59.978813
21
25.488481
0
LINE
8
boundary
62
5
39
2
10
59.978813
20
25.488481
11
60.454805
21
23.623841
0
LINE
8
boundary
62
5
39
2
10
60.454805
20
23.623841
11
60.905519
21
22.455220
0
LINE
8
boundary
62
5
39
2
10
60.905519
20
22.455220
11
61.820926
21
20.263029
0
LINE
8
boundary
62
5
39
2
10
61.820926
20
20.263029
11
61.880005
21
20.121435
0
LINE
8
boundary
62
5
39
2
10
61.880005
20
20.121435
11
61.911938
21
20.050699
0
LINE
8
boundary
62
5
39
2
10
61.911938
20
20.050699
11
63.678904
21
17.329278
0
LINE
8
boundary
62
5
39
2
10
63.678904
20
17.329278
11
63.815806
21
17.130006
0
LINE
8
boundary
62
5
39
2
10
63.815806
20
17.130006
11
64.598602
21
16.343987
0
LINE
8
boundary
62
5
39
2
10
64.598602
20
16.343987
11
65.500071
21
15.471665
0
LINE
8
boundary
62
5
39
2
10
65.500071
20
15.471665
11
65.527090
21
15.453959
0
LINE
8
boundary
62
5
39
2
10
65.527090
20
15.453959
11
65.558867
21
15.433932
0
LINE
8
boundary
62
5
39
2
10
65.558867
20
15.433932
11
66.574632
21
14.788844
0
LINE
8
boundary
62
5
39
2
10
66.574632
20
14.788844
11
67.452406
21
14.253195
0
LINE
8
boundary
62
5
39
2
10
67.452406
20
14.253195
11
67.646483
21
14.184261
0
LINE
8
boundary
62
5
39
2
10
67.646483
20
14.184261
11
67.865439
21
14.110406
0
LINE
8
boundary
62
5
39
2
10
67.865439
20
14.110406
11
68.822203
21
13.783512
0
LINE
8
boundary
62
5
39
2
10
68.822203
20
13.783512
11
69.676867
21
13.506766
0
LINE
8
boundary
62
5
39
2
10
69.676867
20
13.506766
11
70.029041
21
13.461426
0
LINE
8
boundary
62
5
39
2
10
70.029041
20
13.461426
11
70.412053
21
13.417470
0
LINE
8
boundary
62
5
39
2
10
70.412053
20
13.417470
11
71.282091
21
13.313745
0
LINE
8
boundary
62
5
39
2
10
71.282091
20
13.313745
11
72.148860
21
13.222082
0
LINE
8
boundary
62
5
39
2
10
72.148860
20
13.222082
11
72.546417
21
13.239974
0
LINE
8
boundary
62
5
39
2
10
72.546417
20
13.239974
11
72.932880
21
13.261791
0
LINE
8
boundary
62
5
39
2
10
72.932880
20
13.261791
11
73.874472
21
13.310529
0
LINE
8
boundary
62
5
39
2
10
73.874472
20
13.310529
11
74.839070
21
13.371565
0
LINE
8
boundary
62
5
39
2
10
74.839070
20
13.371565
11
75.218670
21
13.441566
0
LINE
8
boundary
62
5
39
2
10
75.218670
20
13.441566
11
75.578464
21
13.511642
0
LINE
8
boundary
62
5
39
2
10
75.578464
20
13.511642
11
76.617427
21
13.708820
0
LINE
8
boundary
62
5
39
2
10
76.617427
20
13.708820
11
77.704586
21
13.926502
0
LINE
8
boundary
62
5
39
2
10
77.704586
20
13.926502
11
78.022374
21
14.022108
0
LINE
8
boundary
62
5
39
2
10
78.022374
20
14.022108
11
78.317576
21
14.113809
0
LINE
8
boundary
62
5
39
2
10
78.317576
20
14.113809
11
79.476033
21
14.467518
0
LINE
8
boundary
62
5
39
2
10
79.476033
20
14.467518
11
80.708748
21
14.856079
0
LINE
8
boundary
62
5
39
2
10
80.708748
20
14.856079
11
80.926078
21
14.943301
0
LINE
8
boundary
62
5
39
2
10
80.926078
20
14.943301
11
81.124946
21
15.025004
0
LINE
8
boundary
62
5
39
2
10
81.124946
20
15.025004
11
82.412346
21
15.546642
0
LINE
8
boundary
62
5
39
2
10
82.412346
20
15.546642
11
83.815224
21
16.128484
0
LINE
8
boundary
62
5
39
2
10
83.815224
20
16.128484
11
83.897248
21
16.170161
0
LINE
8
boundary
62
5
39
2
10
83.897248
20
16.170161
11
84.155194
21
16.303970
0
LINE
8
boundary
62
5
39
2
10
84.155194
20
16.303970
11
86.819186
21
17.677840
0
LINE
8
boundary
62
5
39
2
10
86.819186
20
17.677840
11
87.458060
21
18.006575
0
LINE
8
boundary
62
5
39
2
10
87.458060
20
18.006575
11
88.496116
21
18.551987
0
LINE
8
boundary
62
5
39
2
10
88.496116
20
18.551987
11
90.344927
21
19.706075
0
LINE
8
boundary
62
5
39
2
10
90.344927
20
19.706075
11
92.555277
21
21.121290
0
LINE
8
boundary
62
5
39
2
10
92.555277
20
21.121290
11
92.914328
21
21.347353
0
LINE
8
boundary
62
5
39
2
10
92.914328
20
21.347353
11
93.203359
21
21.534066
0
LINE
8
boundary
62
5
39
2
10
93.203359
20
21.534066
11
96.135452
21
23.762856
0
LINE
8
boundary
62
5
39
2
10
96.135452
20
23.762856
11
100.664730
21
27.278392
0
LINE
8
boundary
62
5
39
2
10
100.664730
20
27.278392
11
101.930053
21
28.444429
0
LINE
8
boundary
62
5
39
2
10
101.930053
20
28.444429
11
103.991608
21
30.397008
0
LINE
8
boundary
62
5
39
2
10
103.991608
20
30.397008
11
106.007624
21
32.264092
0
LINE
8
boundary
62
5
39
2
10
106.007624
20
32.264092
11
107.306276
21
33.498727
0
LINE
8
boundary
62
5
39
2
10
107.306276
20
33.498727
11
109.775771
21
36.230040
0
LINE
8
boundary
62
5
39
2
10
109.775771
20
36.230040
11
113.111444
21
39.980823
0
LINE
8
boundary
62
5
39
2
10
113.111444
20
39.980823
11
113.305942
21
40.234864
0
LINE
8
boundary
62
5
39
2
10
113.305942
20
40.234864
11
113.692321
21
40.743904
0
LINE
8
boundary
62
5
39
2
10
113.692321
20
40.743904
11
116.513486
21
44.399015
0
LINE
8
boundary
62
5
39
2
10
116.513486
20
44.399015
11
117.695372
21
45.944764
0
LINE
8
boundary
62
5
39
2
10
117.695372
20
45.944764
11
119.471156
21
48.595487
0
LINE
8
boundary
62
5
39
2
10
119.471156
20
48.595487
11
121.571086
21
51.743082
0
LINE
8
boundary
62
5
39
2
10
121.571086
20
51.743082
11
122.197520
21
52.803345
0
LINE
8
boundary
62
5
39
2
10
122.197520
20
52.803345
11
123.920863
21
55.722944
0
LINE
8
annotation
62
1
39
211
10
93.542548
20
34.409109
11
94.623956
21
35.609416
0
LINE
8
annotation
62
1
39
211
10
94.623956
20
35.609416
11
96.471362
21
37.695475
0
LINE
8
annotation
62
1
39
211
10
96.471362
20
37.695475
11
98.165790
21
39.941013
0
LINE
8
annotation
62
1
39
211
10
98.165790
20
39.941013
11
101.029403
21
43.770584
0
LINE
8
annotation
62
1
39
211
10
101.029403
20
43.770584
11
101.332848
21
44.239449
0
LINE
8
annotation
62
1
39
211
10
101.332848
20
44.239449
11
102.158901
21
45.519953
0
LINE
8
annotation
62
1
39
211
10
102.158901
20
45.519953
11
104.232142
21
48.684056
0
LINE
8
annotation
62
1
39
211
10
104.232142
20
48.684056
11
104.942439
21
49.773087
0
LINE
8
annotation
62
1
39
211
10
104.942439
20
49.773087
11
106.953130
21
53.270994
0
LINE
8
annotation
62
1
39
211
10
106.953130
20
53.270994
11
108.452133
21
55.881478
0
LINE
8
annotation
62
1
39
211
10
108.452133
20
55.881478
11
109.495902
21
57.901306
0
LINE
8
annotation
62
1
39
211
10
109.495902
20
57.901306
11
111.593920
21
61.963247
0
LINE
8
annotation
62
1
39
211
10
111.593920
20
61.963247
11
111.866239
21
62.530026
0
LINE
8
annotation
62
1
39
211
10
111.866239
20
62.530026
11
112.824317
21
64.525832
0
LINE
8
annotation
62
1
39
211
10
112.824317
20
64.525832
11
114.043047
21
67.027408
0
LINE
8
annotation
62
1
39
211
10
114.043047
20
67.027408
11
114.407169
21
67.774258
0
LINE
8
annotation
62
1
39
211
10
114.407169
20
67.774258
11
116.171238
21
71.531130
0
LINE
8
annotation
62
1
39
211
10
116.171238
20
71.531130
11
117.166354
21
73.651028
0
LINE
8
annotation
62
1
39
211
10
117.166354
20
73.651028
11
118.259297
21
76.023678
0
LINE
8
annotation
62
1
39
211
10
118.259297
20
76.023678
11
119.897188
21
79.578200
0
LINE
8
annotation
62
1
39
211
10
119.897188
20
79.578200
11
120.320331
21
80.531294
0
LINE
8
annotation
62
1
39
211
10
120.320331
20
80.531294
11
121.525118
21
83.238670
0
LINE
8
annotation
62
1
39
211
10
121.525118
20
83.238670
11
122.432991
21
85.246859
0
LINE
8
annotation
62
1
39
211
10
122.432991
20
85.246859
11
122.699639
21
85.836288
0
LINE
8
annotation
62
1
39
211
10
122.699639
20
85.836288
11
124.367509
21
89.732850
0
LINE
8
annotation
62
1
39
211
10
124.367509
20
89.732850
11
125.111797
21
91.462285
0
LINE
8
annotation
62
1
39
211
10
125.111797
20
91.462285
11
126.258134
21
94.361310
0
LINE
8
annotation
62
1
39
211
10
126.258134
20
94.361310
11
127.574694
21
97.646968
0
LINE
8
annotation
62
1
39
211
10
127.574694
20
97.646968
11
128.071563
21
99.056651
0
LINE
8
annotation
62
1
39
211
10
128.071563
20
99.056651
11
129.721793
21
103.614137
0
LINE
8
annotation
62
1
39
211
10
129.721793
20
103.614137
11
129.732216
21
103.648350
0
LINE
8
annotation
62
1
39
211
10
129.732216
20
103.648350
11
129.766958
21
103.760439
0
LINE
8
annotation
62
1
39
211
10
129.766958
20
103.760439
11
131.240049
21
108.388912
0
LINE
8
annotation
62
1
39
211
10
131.240049
20
108.388912
11
131.716268
21
109.817609
0
LINE
8
annotation
62
1
39
211
10
131.716268
20
109.817609
11
132.564831
21
113.060773
0
LINE
8
annotation
62
1
39
211
10
132.564831
20
113.060773
11
133.355676
21
115.856600
0
LINE
8
annotation
62
1
39
211
10
133.355676
20
115.856600
11
133.740839
21
117.660322
0
LINE
8
annotation
62
1
39
211
10
133.740839
20
117.660322
11
134.709719
21
121.714749
0
LINE
8
annotation
62
1
39
211
10
134.709719
20
121.714749
11
134.787328
21
122.147096
0
LINE
8
annotation
62
1
39
211
10
134.787328
20
122.147096
11
135.150692
21
123.897193
0
LINE
8
annotation
62
1
39
211
10
135.150692
20
123.897193
11
135.640397
21
126.248908
0
LINE
8
annotation
62
1
39
211
10
135.640397
20
126.248908
11
135.776240
21
126.820972
0
LINE
8
annotation
62
1
39
211
10
135.776240
20
126.820972
11
136.499032
21
130.705928
0
LINE
8
annotation
62
1
39
211
10
136.499032
20
130.705928
11
136.895807
21
132.533942
0
LINE
8
annotation
62
1
39
211
10
136.895807
20
132.533942
11
137.320848
21
134.980311
0
LINE
8
annotation
62
1
39
211
10
137.320848
20
134.980311
11
137.863037
21
137.636021
0
LINE
8
annotation
62
1
39
211
10
137.863037
20
137.636021
11
138.113651
21
139.100313
0
LINE
8
annotation
62
1
39
211
10
138.113651
20
139.100313
11
138.840753
21
142.733835
0
LINE
8
annotation
62
1
39
211
10
138.840753
20
142.733835
11
138.929123
21
143.235564
0
LINE
8
annotation
62
1
39
211
10
138.929123
20
143.235564
11
139.347528
21
145.289570
0
LINE
8
annotation
62
1
39
211
10
139.347528
20
145.289570
11
139.808591
21
147.547050
0
LINE
8
annotation
62
1
39
211
10
139.808591
20
147.547050
11
139.923836
21
148.038292
0
LINE
8
annotation
62
1
39
211
10
139.923836
20
148.038292
11
140.744085
21
151.911030
0
LINE
8
annotation
62
1
39
211
10
140.744085
20
151.911030
11
141.086364
21
153.343633
0
LINE
8
annotation
62
1
39
211
10
141.086364
20
153.343633
11
141.702570
21
156.176027
0
LINE
8
annotation
62
1
39
211
10
141.702570
20
156.176027
11
142.246559
21
158.433985
0
LINE
8
annotation
62
1
39
211
10
142.246559
20
158.433985
11
142.713439
21
160.545882
0
LINE
8
annotation
62
1
39
211
10
142.713439
20
160.545882
11
143.543936
21
163.988447
0
LINE
8
annotation
62
1
39
211
10
143.543936
20
163.988447
11
143.768945
21
164.998951
0
LINE
8
annotation
62
1
39
211
10
143.768945
20
164.998951
11
144.732715
21
169.023027
0
LINE
8
annotation
62
1
39
211
10
144.732715
20
169.023027
11
144.772697
21
169.202769
0
LINE
8
annotation
62
1
39
211
10
144.772697
20
169.202769
11
144.985481
21
170.105036
0
LINE
8
annotation
62
1
39
211
10
144.985481
20
170.105036
11
145.807224
21
173.547554
0
LINE
8
annotation
62
1
39
211
10
145.807224
20
173.547554
11
145.980582
21
174.234259
0
LINE
8
annotation
62
1
39
211
10
145.980582
20
174.234259
11
146.856787
21
177.990924
0
LINE
8
annotation
62
1
39
211
10
146.856787
20
177.990924
11
147.245029
21
179.578993
0
LINE
8
annotation
62
1
39
211
10
147.245029
20
179.578993
11
147.884777
21
182.402085
0
LINE
8
annotation
62
1
39
211
10
147.884777
20
182.402085
11
148.441489
21
184.776500
0
LINE
8
annotation
62
1
39
211
10
148.441489
20
184.776500
11
148.889356
21
186.786233
0
LINE
8
annotation
62
1
39
211
10
148.889356
20
186.786233
11
149.602989
21
189.935606
0
LINE
8
annotation
62
1
39
211
10
149.602989
20
189.935606
11
149.873732
21
191.152324
0
LINE
8
annotation
62
1
39
211
10
149.873732
20
191.152324
11
150.716344
21
194.953319
0
LINE
8
annotation
62
1
39
211
10
150.716344
20
194.953319
11
150.838964
21
195.496149
0
LINE
8
annotation
62
1
39
211
10
150.838964
20
195.496149
11
151.582990
21
198.886997
0
LINE
8
annotation
62
1
39
211
10
151.582990
20
198.886997
11
151.844615
21
200.057338
0
LINE
8
annotation
62
1
39
211
10
151.844615
20
200.057338
11
151.881195
21
200.225968
0
LINE
8
annotation
62
1
39
211
10
151.881195
20
200.225968
11
152.855637
21
204.561305
0
LINE
8
annotation
62
1
39
211
10
152.855637
20
204.561305
11
153.011964
21
205.306325
0
LINE
8
annotation
62
1
39
211
10
153.011964
20
205.306325
11
153.863337
21
209.030695
0
LINE
8
annotation
62
1
39
211
10
153.863337
20
209.030695
11
154.123580
21
210.298895
0
LINE
8
annotation
62
1
39
211
10
154.123580
20
210.298895
11
154.881077
21
213.523380
0
LINE
8
annotation
62
1
39
211
10
154.881077
20
213.523380
11
155.238559
21
215.294171
0
LINE
8
annotation
62
1
39
211
10
155.238559
20
215.294171
11
155.837682
21
217.822857
0
LINE
8
annotation
62
1
39
211
10
155.837682
20
217.822857
11
156.234380
21
219.840636
0
LINE
8
annotation
62
1
39
211
10
156.234380
20
219.840636
11
156.745558
21
222.102613
0
LINE
8
annotation
62
1
39
211
10
156.745558
20
222.102613
11
157.199036
21
224.589949
0
LINE
8
annotation
62
1
39
211
10
157.199036
20
224.589949
11
157.597412
21
226.570328
0
LINE
8
annotation
62
1
39
211
10
157.597412
20
226.570328
11
158.063189
21
229.502090
0
LINE
8
annotation
62
1
39
211
10
158.063189
20
229.502090
11
158.364022
21
231.391751
0
LINE
8
annotation
62
1
39
211
10
158.364022
20
231.391751
11
158.823293
21
235.097072
0
LINE
8
annotation
62
1
39
211
10
158.823293
20
235.097072
11
159.113536
21
238.836691
0
LINE
8
annotation
62
1
39
211
10
159.113536
20
238.836691
11
159.341637
21
242.103776
0
LINE
8
annotation
62
1
39
211
10
159.341637
20
242.103776
11
159.361134
21
244.064374
0
LINE
8
annotation
62
1
39
211
10
159.361134
20
244.064374
11
159.384341
21
246.237401
0
LINE
8
annotation
62
1
39
211
10
159.384341
20
246.237401
11
159.293408
21
248.148489
0
LINE
8
annotation
62
1
39
211
10
159.293408
20
248.148489
11
159.208550
21
250.391613
0
LINE
8
annotation
62
1
39
211
10
159.208550
20
250.391613
11
158.945015
21
253.361900
0
LINE
8
annotation
62
1
39
211
10
158.945015
20
253.361900
11
158.655210
21
256.094842
0
LINE
8
annotation
62
1
39
211
10
158.655210
20
256.094842
11
158.389144
21
257.500051
0
LINE
8
annotation
62
1
39
211
10
158.389144
20
257.500051
11
157.828107
21
261.552930
0
LINE
8
annotation
62
1
39
211
10
157.828107
20
261.552930
11
157.519036
21
262.875317
0
LINE
8
annotation
62
1
39
211
10
157.519036
20
262.875317
11
156.974206
21
266.003785
0
LINE
8
annotation
62
1
39
211
10
156.974206
20
266.003785
11
156.597127
21
267.433956
0
LINE
8
annotation
62
1
39
211
10
156.597127
20
267.433956
11
156.052443
21
270.167459
0
LINE
8
annotation
62
1
39
211
10
156.052443
20
270.167459
11
155.551805
21
271.923338
0
LINE
8
annotation
62
1
39
211
10
155.551805
20
271.923338
11
154.974029
21
274.562402
0
LINE
8
annotation
62
1
39
211
10
154.974029
20
274.562402
11
154.342948
21
276.676212
0
LINE
8
annotation
62
1
39
211
10
154.342948
20
276.676212
11
153.784183
21
279.069018
0
LINE
8
annotation
62
1
39
211
10
153.784183
20
279.069018
11
153.007333
21
281.599093
0
LINE
8
annotation
62
1
39
211
10
153.007333
20
281.599093
11
152.503563
21
283.652090
0
LINE
8
annotation
62
1
39
211
10
152.503563
20
283.652090
11
151.526575
21
286.648398
0
LINE
8
annotation
62
1
39
211
10
151.526575
20
286.648398
11
151.099300
21
288.231765
0
LINE
8
annotation
62
1
39
211
10
151.099300
20
288.231765
11
149.529449
21
292.565716
0
LINE
8
annotation
62
1
39
211
10
149.529449
20
292.565716
11
149.211394
21
293.583853
0
LINE
8
annotation
62
1
39
211
10
149.211394
20
293.583853
11
147.346144
21
298.028254
0
LINE
8
annotation
62
1
39
211
10
147.346144
20
298.028254
11
146.742085
21
299.443143
0
LINE
8
annotation
62
1
39
211
10
146.742085
20
299.443143
11
146.480707
21
299.928915
0
LINE
8
annotation
62
1
39
211
10
146.480707
20
299.928915
11
143.527947
21
305.778514
0
LINE
8
annotation
62
1
39
211
10
143.527947
20
305.778514
11
140.831354
21
310.103134
0
LINE
8
annotation
62
1
39
211
10
140.831354
20
310.103134
11
139.219925
21
312.795008
0
LINE
8
annotation
62
1
39
211
10
139.219925
20
312.795008
11
136.962037
21
315.945445
0
LINE
8
annotation
62
1
39
211
10
136.962037
20
315.945445
11
134.475934
21
319.365567
0
LINE
8
annotation
62
1
39
211
10
134.475934
20
319.365567
11
131.179526
21
323.238689
0
LINE
8
annotation
62
1
39
211
10
131.179526
20
323.238689
11
128.138613
21
326.886024
0
LINE
8
annotation
62
1
39
211
10
128.138613
20
326.886024
11
125.796730
21
329.256748
0
LINE
8
annotation
62
1
39
211
10
125.796730
20
329.256748
11
122.850290
21
332.194422
0
LINE
8
annotation
62
1
39
211
10
76.082610
20
176.282839
11
76.082610
21
176.282839
0
LINE
8
annotation
62
1
39
211
10
76.082610
20
176.282839
11
76.523000
21
171.378341
0
LINE
8
annotation
62
1
39
211
10
76.523000
20
171.378341
11
77.792354
21
166.765675
0
LINE
8
annotation
62
1
39
211
10
77.792354
20
166.765675
11
79.812940
21
162.520986
0
LINE
8
annotation
62
1
39
211
10
79.812940
20
162.520986
11
82.507031
21
158.720418
0
LINE
8
annotation
62
1
39
211
10
82.507031
20
158.720418
11
85.796897
21
155.440115
0
LINE
8
annotation
62
1
39
211
10
85.796897
20
155.440115
11
89.604809
21
152.756221
0
LINE
8
annotation
62
1
39
211
10
89.604809
20
152.756221
11
93.853037
21
150.744881
0
LINE
8
annotation
62
1
39
211
10
93.853037
20
150.744881
11
98.463854
21
149.482237
0
LINE
8
annotation
62
1
39
211
10
98.463854
20
149.482237
11
103.359529
21
149.044435
0
LINE
8
annotation
62
1
39
211
10
103.359529
20
149.044435
11
103.359529
21
149.044435
0
LINE
8
annotation
62
1
39
211
10
103.359529
20
149.044435
11
108.255205
21
149.482237
0
LINE
8
annotation
62
1
39
211
10
108.255205
20
149.482237
11
112.866021
21
150.744881
0
LINE
8
annotation
62
1
39
211
10
112.866021
20
150.744881
11
117.114250
21
152.756221
0
LINE
8
annotation
62
1
39
211
10
117.114250
20
152.756221
11
120.922162
21
155.440115
0
LINE
8
annotation
62
1
39
211
10
120.922162
20
155.440115
11
124.212028
21
158.720418
0
LINE
8
annotation
62
1
39
211
10
124.212028
20
158.720418
11
126.906118
21
162.520986
0
LINE
8
annotation
62
1
39
211
10
126.906118
20
162.520986
11
128.926705
21
166.765675
0
LINE
8
annotation
62
1
39
211
10
128.926705
20
166.765675
11
130.196058
21
171.378341
0
LINE
8
annotation
62
1
39
211
10
130.196058
20
171.378341
11
130.636449
21
176.282839
0
LINE
8
annotation
62
1
39
211
10
130.636449
20
176.282839
11
130.636449
21
189.871228
0
LINE
8
annotation
62
1
39
211
10
130.636449
20
189.871228
11
130.636449
21
189.871228
0
LINE
8
annotation
62
1
39
211
10
130.636449
20
189.871228
11
130.196312
21
194.778104
0
LINE
8
annotation
62
1
39
211
10
130.196312
20
194.778104
11
128.927592
21
199.397142
0
LINE
8
annotation
62
1
39
211
10
128.927592
20
199.397142
11
126.907830
21
203.651056
0
LINE
8
annotation
62
1
39
211
10
126.907830
20
203.651056
11
124.214564
21
207.462560
0
LINE
8
annotation
62
1
39
211
10
124.214564
20
207.462560
11
120.925332
21
210.754370
0
LINE
8
annotation
62
1
39
211
10
120.925332
20
210.754370
11
117.117674
21
213.449201
0
LINE
8
annotation
62
1
39
211
10
117.117674
20
213.449201
11
112.869128
21
215.469766
0
LINE
8
annotation
62
1
39
211
10
112.869128
20
215.469766
11
108.257233
21
216.738781
0
LINE
8
annotation
62
1
39
211
10
108.257233
20
216.738781
11
103.359529
21
217.178961
0
LINE
8
annotation
62
1
39
211
10
103.359529
20
217.178961
11
103.359529
21
217.178961
0
LINE
8
annotation
62
1
39
211
10
103.359529
20
217.178961
11
98.461825
21
216.738528
0
LINE
8
annotation
62
1
39
211
10
98.461825
20
216.738528
11
93.849931
21
215.468879
0
LINE
8
annotation
62
1
39
211
10
93.849931
20
215.468879
11
89.601385
21
213.447489
0
LINE
8
annotation
62
1
39
211
10
89.601385
20
213.447489
11
85.793727
21
210.751834
0
LINE
8
annotation
62
1
39
211
10
85.793727
20
210.751834
11
82.504495
21
207.459390
0
LINE
8
annotation
62
1
39
211
10
82.504495
20
207.459390
11
79.811228
21
203.647632
0
LINE
8
annotation
62
1
39
211
10
79.811228
20
203.647632
11
77.791466
21
199.394035
0
LINE
8
annotation
62
1
39
211
10
77.791466
20
199.394035
11
76.522747
21
194.776076
0
LINE
8
annotation
62
1
39
211
10
76.522747
20
194.776076
11
76.082610
21
189.871228
0
LINE
8
annotation
62
1
39
211
10
76.082610
20
189.871228
11
76.082610
21
176.282839
0
LINE
8
annotation
62
1
39
211
10
130.636449
20
244.494396
11
130.636449
21
244.494396
0
LINE
8
annotation
62
1
39
211
10
130.636449
20
244.494396
11
130.196312
21
249.378607
0
LINE
8
annotation
62
1
39
211
10
130.196312
20
249.378607
11
128.927592
21
253.980494
0
LINE
8
annotation
62
1
39
211
10
128.927592
20
253.980494
11
126.907830
21
258.222013
0
LINE
8
annotation
62
1
39
211
10
126.907830
20
258.222013
11
124.214564
21
262.025117
0
LINE
8
annotation
62
1
39
211
10
124.214564
20
262.025117
11
120.925332
21
265.311760
0
LINE
8
annotation
62
1
39
211
10
120.925332
20
265.311760
11
117.117674
21
268.003896
0
LINE
8
annotation
62
1
39
211
10
117.117674
20
268.003896
11
112.869128
21
270.023479
0
LINE
8
annotation
62
1
39
211
10
112.869128
20
270.023479
11
108.257233
21
271.292462
0
LINE
8
annotation
62
1
39
211
10
108.257233
20
271.292462
11
103.359529
21
271.732800
0
LINE
8
annotation
62
1
39
211
10
103.359529
20
271.732800
11
103.359529
21
271.732800
0
LINE
8
annotation
62
1
39
211
10
103.359529
20
271.732800
11
98.461825
21
271.292462
0
LINE
8
annotation
62
1
39
211
10
98.461825
20
271.292462
11
93.849931
21
270.023479
0
LINE
8
annotation
62
1
39
211
10
93.849931
20
270.023479
11
89.601385
21
268.003896
0
LINE
8
annotation
62
1
39
211
10
89.601385
20
268.003896
11
85.793727
21
265.311760
0
LINE
8
annotation
62
1
39
211
10
85.793727
20
265.311760
11
82.504495
21
262.025117
0
LINE
8
annotation
62
1
39
211
10
82.504495
20
262.025117
11
79.811228
21
258.222013
0
LINE
8
annotation
62
1
39
211
10
79.811228
20
258.222013
11
77.791466
21
253.980494
0
LINE
8
annotation
62
1
39
211
10
77.791466
20
253.980494
11
76.522747
21
249.378607
0
LINE
8
annotation
62
1
39
211
10
76.522747
20
249.378607
11
76.082610
21
244.494396
0
LINE
8
annotation
62
1
39
211
10
76.082610
20
244.494396
11
76.082610
21
244.494396
0
LINE
8
annotation
62
1
39
211
10
76.082610
20
244.494396
11
76.523000
21
239.587256
0
LINE
8
annotation
62
1
39
211
10
76.523000
20
239.587256
11
77.792354
21
234.967511
0
LINE
8
annotation
62
1
39
211
10
77.792354
20
234.967511
11
79.812940
21
230.712572
0
LINE
8
annotation
62
1
39
211
10
79.812940
20
230.712572
11
82.507031
21
226.899852
0
LINE
8
annotation
62
1
39
211
10
82.507031
20
226.899852
11
85.796897
21
223.606764
0
LINE
8
annotation
62
1
39
211
10
85.796897
20
223.606764
11
89.604809
21
220.910718
0
LINE
8
annotation
62
1
39
211
10
89.604809
20
220.910718
11
93.853037
21
218.889128
0
LINE
8
annotation
62
1
39
211
10
93.853037
20
218.889128
11
98.463854
21
217.619405
0
LINE
8
annotation
62
1
39
211
10
98.463854
20
217.619405
11
103.359529
21
217.178961
0
LINE
8
annotation
62
1
39
211
10
103.359529
20
217.178961
11
103.359529
21
217.178961
0
LINE
8
annotation
62
1
39
211
10
103.359529
20
217.178961
11
108.255205
21
217.619405
0
LINE
8
annotation
62
1
39
211
10
108.255205
20
217.619405
11
112.866021
21
218.889128
0
LINE
8
annotation
62
1
39
211
10
112.866021
20
218.889128
11
117.114250
21
220.910718
0
LINE
8
annotation
62
1
39
211
10
117.114250
20
220.910718
11
120.922162
21
223.606764
0
LINE
8
annotation
62
1
39
211
10
120.922162
20
223.606764
11
124.212028
21
226.899852
0
LINE
8
annotation
62
1
39
211
10
124.212028
20
226.899852
11
126.906118
21
230.712572
0
LINE
8
annotation
62
1
39
211
10
126.906118
20
230.712572
11
128.926705
21
234.967511
0
LINE
8
annotation
62
1
39
211
10
128.926705
20
234.967511
11
130.196058
21
239.587256
0
LINE
8
annotation
62
1
39
211
10
130.196058
20
239.587256
11
130.636449
21
244.494396
0
LINE
8
frame
62
5
39
2
10
0.000000
20
0.000000
11
600.000000
21
0.000000
0
LINE
8
frame
62
5
39
2
10
600.000000
20
0.000000
11
600.000000
21
1200.000000
0
LINE
8
frame
62
5
39
2
10
600.000000
20
1200.000000
11
0.000000
21
1200.000000
0
LINE
8
frame
62
5
39
2
10
0.000000
20
1200.000000
11
0.000000
21
0.000000
0
ENDSEC
0
EOF
