  0
SECTION
  2
BLOCKS
  0
ENDSEC
  0
SECTION
  2
ENTITIES
  0
LINE
  8
0
 10
120.4
 20
430
 11
120.4
 21
480
  0
LINE
  8
0
 10
120.4
 20
480
 11
110.2
 21
480
  0
LINE
  8
0
 10
110.2
 20
480
 11
110.2
 21
500
  0
LINE
  8
0
 10
110.2
 20
500
 11
10.2
 21
500
  0
LINE
  8
0
 10
10.2
 20
500
 11
10.2
 21
480
  0
LINE
  8
0
 10
10.2
 20
480
 11
0
 21
480
  0
LINE
  8
0
 10
0
 20
480
 11
0
 21
430
  0
LINE
  8
0
 10
0
 20
430
 11
10.2
 21
430
  0
LINE
  8
0
 10
10.2
 20
430
 11
10.2
 21
370
  0
LINE
  8
0
 10
10.2
 20
370
 11
0
 21
370
  0
LINE
  8
0
 10
0
 20
370
 11
0
 21
320
  0
LINE
  8
0
 10
0
 20
320
 11
10.2
 21
320
  0
LINE
  8
0
 10
10.2
 20
320
 11
10.2
 21
300
  0
LINE
  8
0
 10
10.2
 20
300
 11
110.2
 21
300
  0
LINE
  8
0
 10
110.2
 20
300
 11
110.2
 21
320
  0
LINE
  8
0
 10
110.2
 20
320
 11
120.4
 21
320
  0
LINE
  8
0
 10
120.4
 20
320
 11
120.4
 21
370
  0
LINE
  8
0
 10
120.4
 20
370
 11
110.2
 21
370
  0
LINE
  8
0
 10
110.2
 20
370
 11
110.2
 21
430
  0
LINE
  8
0
 10
110.2
 20
430
 11
120.4
 21
430
  0
ENDSEC
  0
SECTION
  2
OBJECTS
  0
DICTIONARY
  0
ENDSEC
  0
EOF
