  0
SECTION
  2
BLOCKS
  0
ENDSEC
  0
SECTION
  2
ENTITIES
  0
LINE
  8
0
 10
100
 20
200
 11
0
 21
200
  0
LINE
  8
0
 10
0
 20
200
 11
0
 21
0
  0
LINE
  8
0
 10
0
 20
0
 11
100
 21
0
  0
LINE
  8
0
 10
100
 20
0
 11
100
 21
200
  0
LINE
  8
0
 10
50
 20
130
 11
50
 21
180
  0
LINE
  8
0
 10
50
 20
180
 11
60.2
 21
180
  0
LINE
  8
0
 10
60.2
 20
180
 11
60.2
 21
130
  0
LINE
  8
0
 10
60.2
 20
130
 11
50
 21
130
  0
LINE
  8
0
 10
50
 20
20
 11
50
 21
70
  0
LINE
  8
0
 10
50
 20
70
 11
60.2
 21
70
  0
LINE
  8
0
 10
60.2
 20
70
 11
60.2
 21
20
  0
LINE
  8
0
 10
60.2
 20
20
 11
50
 21
20
  0
ENDSEC
  0
SECTION
  2
OBJECTS
  0
DICTIONARY
  0
ENDSEC
  0
EOF
