  0
SECTION
  2
BLOCKS
  0
ENDSEC
  0
SECTION
  2
ENTITIES
  0
LINE
  8
0
 10
270.4
 20
130
 11
270.4
 21
180
  0
LINE
  8
0
 10
270.4
 20
180
 11
260.2
 21
180
  0
LINE
  8
0
 10
260.2
 20
180
 11
260.2
 21
200
  0
LINE
  8
0
 10
260.2
 20
200
 11
10.2
 21
200
  0
LINE
  8
0
 10
10.2
 20
200
 11
10.2
 21
180
  0
LINE
  8
0
 10
10.2
 20
180
 11
0
 21
180
  0
LINE
  8
0
 10
0
 20
180
 11
0
 21
130
  0
LINE
  8
0
 10
0
 20
130
 11
10.2
 21
130
  0
LINE
  8
0
 10
10.2
 20
130
 11
10.2
 21
70
  0
LINE
  8
0
 10
10.2
 20
70
 11
0
 21
70
  0
LINE
  8
0
 10
0
 20
70
 11
0
 21
20
  0
LINE
  8
0
 10
0
 20
20
 11
10.2
 21
20
  0
LINE
  8
0
 10
10.2
 20
20
 11
10.2
 21
0
  0
LINE
  8
0
 10
10.2
 20
0
 11
260.2
 21
0
  0
LINE
  8
0
 10
260.2
 20
0
 11
260.2
 21
20
  0
LINE
  8
0
 10
260.2
 20
20
 11
270.4
 21
20
  0
LINE
  8
0
 10
270.4
 20
20
 11
270.4
 21
70
  0
LINE
  8
0
 10
270.4
 20
70
 11
260.2
 21
70
  0
LINE
  8
0
 10
260.2
 20
70
 11
260.2
 21
130
  0
LINE
  8
0
 10
260.2
 20
130
 11
270.4
 21
130
  0
ENDSEC
  0
SECTION
  2
OBJECTS
  0
DICTIONARY
  0
ENDSEC
  0
EOF
