  0
SECTION
  2
BLOCKS
  0
ENDSEC
  0
SECTION
  2
ENTITIES
  0
LINE
  8
0
 10
-1.5
 20
-10
 11
-1.5
 21
-3.99998
  0
LINE
  8
0
 10
-1.5
 20
-3.99998
 11
1.49998
 21
-4
  0
LINE
  8
0
 10
1.49998
 20
-4
 11
1.49998
 21
-10
  0
LINE
  8
0
 10
1.49998
 20
-10
 11
10
 21
-10
  0
LINE
  8
0
 10
10
 20
-10
 11
10
 21
-1.5
  0
LINE
  8
0
 10
10
 20
-1.5
 11
4
 21
-1.5
  0
LINE
  8
0
 10
4
 20
-1.5
 11
4
 21
1.5
  0
LINE
  8
0
 10
4
 20
1.5
 11
10
 21
1.5
  0
LINE
  8
0
 10
10
 20
1.5
 11
10
 21
10
  0
LINE
  8
0
 10
10
 20
10
 11
1.5
 21
10
  0
LINE
  8
0
 10
1.5
 20
10
 11
1.5
 21
3.99998
  0
LINE
  8
0
 10
1.5
 20
3.99998
 11
-1.49998
 21
4
  0
LINE
  8
0
 10
-1.49998
 20
4
 11
-1.49998
 21
10
  0
LINE
  8
0
 10
-1.49998
 20
10
 11
-10
 21
10
  0
LINE
  8
0
 10
-10
 20
10
 11
-10
 21
1.5
  0
LINE
  8
0
 10
-10
 20
1.5
 11
-4
 21
1.5
  0
LINE
  8
0
 10
-4
 20
1.5
 11
-4
 21
-1.49998
  0
LINE
  8
0
 10
-4
 20
-1.49998
 11
-10
 21
-1.49998
  0
LINE
  8
0
 10
-10
 20
-1.49998
 11
-10
 21
-10
  0
LINE
  8
0
 10
-10
 20
-10
 11
-1.5
 21
-10
  0
ENDSEC
  0
SECTION
  2
OBJECTS
  0
DICTIONARY
  0
ENDSEC
  0
EOF
