0
SECTION
2
HEADER
9
$INSUNITS
70
4
9
$ACADVER
1
AC1014
9
$HANDSEED
5
FFFF
0
ENDSEC
0
SECTION
2
TABLES
0
TABLE
2
VPORT
5
8
100
AcDbSymbolTable
0
ENDTAB
0
TABLE
2
LTYPE
5
5
100
AcDbSymbolTable
0
LTYPE
5
14
100
AcDbSymbolTableRecord
100
AcDbLinetypeTableRecord
2
BYBLOCK
70
0
0
LTYPE
5
15
100
AcDbSymbolTableRecord
100
AcDbLinetypeTableRecord
2
BYLAYER
70
0
0
ENDTAB
0
TABLE
2
LAYER
5
2
100
AcDbSymbolTable
70
2
0
LAYER
5
50
100
AcDbSymbolTableRecord
100
AcDbLayerTableRecord
2
0
70
0
6
CONTINUOUS
0
ENDTAB
0
TABLE
2
STYLE
5
3
100
AcDbSymbolTable
70
1
0
STYLE
5
11
100
AcDbSymbolTableRecord
100
AcDbTextStyleTableRecord
2
STANDARD
70
0
0
ENDTAB
0
TABLE
2
VIEW
5
6
100
AcDbSymbolTable
70
0
0
ENDTAB
0
TABLE
2
UCS
5
7
100
AcDbSymbolTable
70
0
0
ENDTAB
0
TABLE
2
APPID
5
9
100
AcDbSymbolTable
70
2
0
APPID
5
12
100
AcDbSymbolTableRecord
100
AcDbRegAppTableRecord
2
ACAD
70
0
0
ENDTAB
0
TABLE
2
DIMSTYLE
5
A
100
AcDbSymbolTable
70
1
0
ENDTAB
0
TABLE
2
BLOCK_RECORD
5
1
100
AcDbSymbolTable
70
1
0
BLOCK_RECORD
5
1F
100
AcDbSymbolTableRecord
100
AcDbBlockTableRecord
2
*MODEL_SPACE
0
BLOCK_RECORD
5
1B
100
AcDbSymbolTableRecord
100
AcDbBlockTableRecord
2
*PAPER_SPACE
0
ENDTAB
0
ENDSEC
0
SECTION
2
BLOCKS
0
BLOCK
5
20
100
AcDbEntity
100
AcDbBlockBegin
2
*MODEL_SPACE
0
ENDBLK
5
21
100
AcDbEntity
100
AcDbBlockEnd
0
BLOCK
5
1C
100
AcDbEntity
100
AcDbBlockBegin
2
*PAPER_SPACE
0
ENDBLK
5
1D
100
AcDbEntity
100
AcDbBlockEnd
0
ENDSEC
0
SECTION
2
ENTITIES
0
LWPOLYLINE
5
100
100
AcDbEntity
8
0
100
AcDbPolyline
90
4
70
1
43
0.0
10
24.000000208616257
20
24.000000208616257
10
4.0000002086162532
20
24.000000208616257
10
4.0000002086162567
20
4.0000002086162594
10
24.000000208616257
20
4.0000002086162567
0
LINE
5
101
100
AcDbEntity
8
0
100
AcDbLine
10
14.000000208616255
20
24.000000208616257
30
0
11
14.000000208616257
21
4.0000002086162576
31
0
0
LINE
5
102
100
AcDbEntity
8
0
100
AcDbLine
10
4.0000002086162549
20
14.000000208616258
30
0
11
24.000000208616257
21
14.000000208616257
31
0
0
LWPOLYLINE
5
103
100
AcDbEntity
8
0
100
AcDbPolyline
90
4
70
1
43
0.0
10
15.500000208616253
20
24.000000208616257
10
12.500000208616251
20
24.000000208616257
10
12.500000208616255
20
17.000000208616257
10
15.500000208616257
20
17.000000208616257
0
LINE
5
104
100
AcDbEntity
8
0
100
AcDbLine
10
14.000000208616257
20
17.000000208616257
30
0
11
14.000000208616253
21
24.000000208616257
31
0
0
LINE
5
105
100
AcDbEntity
8
0
100
AcDbLine
10
11.000000208616264
20
12.500000208616262
30
0
11
4.000000208616262
21
12.500000208616257
31
0
0
LINE
5
106
100
AcDbEntity
8
0
100
AcDbLine
10
11.000000208616264
20
15.50000020861626
30
0
11
11.000000208616264
21
12.500000208616262
31
0
0
LINE
5
107
100
AcDbEntity
8
0
100
AcDbLine
10
4.0000002086162594
20
15.50000020861626
30
0
11
11.000000208616264
21
15.50000020861626
31
0
0
LINE
5
108
100
AcDbEntity
8
0
100
AcDbLine
10
15.500000208616257
20
11.00000020861626
30
0
11
15.50000020861626
21
4.0000002086162567
31
0
0
LINE
5
109
100
AcDbEntity
8
0
100
AcDbLine
10
12.500000208616257
20
11.000000208616269
30
0
11
15.500000208616257
21
11.00000020861626
31
0
0
LINE
5
110
100
AcDbEntity
8
0
100
AcDbLine
10
12.500000208616257
20
4.0000002086162647
30
0
11
12.500000208616257
21
11.000000208616269
31
0
0
LINE
5
111
100
AcDbEntity
8
0
100
AcDbLine
10
17.00000020861625
20
15.500000208616262
30
0
11
24.00000020861625
21
15.500000208616264
31
0
0
LINE
5
112
100
AcDbEntity
8
0
100
AcDbLine
10
17.00000020861625
20
12.500000208616262
30
0
11
17.00000020861625
21
15.500000208616262
31
0
0
LINE
5
113
100
AcDbEntity
8
0
100
AcDbLine
10
24.00000020861625
20
12.500000208616264
30
0
11
17.00000020861625
21
12.500000208616262
31
0
0
ENDSEC
0
SECTION
2
OBJECTS
0
DICTIONARY
5
C
100
AcDbDictionary
3
ACAD_GROUP
350
D
3
ACAD_MLINESTYLE
350
17
0
DICTIONARY
5
D
100
AcDbDictionary
0
DICTIONARY
5
1A
330
C
100
AcDbDictionary
0
DICTIONARY
5
17
100
AcDbDictionary
0
ENDSEC
0
EOF
