  0
SECTION
  2
HEADER
  9
$ACADVER
  1
AC1009
  9
$DWGCODEPAGE
  3
ansi_1252
  9
$INSBASE
 10
0.0
 20
0.0
 30
0.0
  9
$EXTMIN
 10
-829.0815281464683
 20
-0.0000000000014921
 30
0.0
  9
$EXTMAX
 10
7.226324619935571
 20
1230.019048885142
 30
0.0
  9
$LIMMIN
 10
0.0
 20
0.0
  9
$LIMMAX
 10
12.0
 20
9.0
  9
$ORTHOMODE
 70
     0
  9
$REGENMODE
 70
     1
  9
$FILLMODE
 70
     1
  9
$QTEXTMODE
 70
     0
  9
$MIRRTEXT
 70
     1
  9
$DRAGMODE
 70
     2
  9
$LTSCALE
 40
1.0
  9
$OSMODE
 70
    37
  9
$ATTMODE
 70
     1
  9
$TEXTSIZE
 40
0.2
  9
$TRACEWID
 40
0.05
  9
$TEXTSTYLE
  7
STANDARD
  9
$CLAYER
  8
LAYER_02
  9
$CELTYPE
  6
BYLAYER
  9
$CECOLOR
 62
   256
  9
$DIMSCALE
 40
1.0
  9
$DIMASZ
 40
0.18
  9
$DIMEXO
 40
0.0625
  9
$DIMDLI
 40
0.38
  9
$DIMRND
 40
0.0
  9
$DIMDLE
 40
0.0
  9
$DIMEXE
 40
0.18
  9
$DIMTP
 40
0.0
  9
$DIMTM
 40
0.0
  9
$DIMTXT
 40
0.18
  9
$DIMCEN
 40
0.09
  9
$DIMTSZ
 40
0.0
  9
$DIMTOL
 70
     0
  9
$DIMLIM
 70
     0
  9
$DIMTIH
 70
     1
  9
$DIMTOH
 70
     1
  9
$DIMSE1
 70
     0
  9
$DIMSE2
 70
     0
  9
$DIMTAD
 70
     0
  9
$DIMZIN
 70
     0
  9
$DIMBLK
  1

  9
$DIMASO
 70
     1
  9
$DIMSHO
 70
     1
  9
$DIMPOST
  1

  9
$DIMAPOST
  1

  9
$DIMALT
 70
     0
  9
$DIMALTD
 70
     2
  9
$DIMALTF
 40
25.4
  9
$DIMLFAC
 40
1.0
  9
$DIMTOFL
 70
     0
  9
$DIMTVP
 40
0.0
  9
$DIMTIX
 70
     0
  9
$DIMSOXD
 70
     0
  9
$DIMSAH
 70
     0
  9
$DIMBLK1
  1

  9
$DIMBLK2
  1

  9
$DIMSTYLE
  2
STANDARD
  9
$DIMCLRD
 70
     0
  9
$DIMCLRE
 70
     0
  9
$DIMCLRT
 70
     0
  9
$DIMTFAC
 40
1.0
  9
$DIMGAP
 40
0.09
  9
$LUNITS
 70
     2
  9
$LUPREC
 70
     2
  9
$SKETCHINC
 40
0.1
  9
$FILLETRAD
 40
0.5
  9
$AUNITS
 70
     0
  9
$AUPREC
 70
     0
  9
$MENU
  1
.
  9
$ELEVATION
 40
0.0
  9
$PELEVATION
 40
0.0
  9
$THICKNESS
 40
0.0
  9
$LIMCHECK
 70
     0
  9
$CHAMFERA
 40
0.0
  9
$CHAMFERB
 40
0.0
  9
$SKPOLY
 70
     0
  9
$TDCREATE
 40
2457464.550271539
  9
$TDUPDATE
 40
2457464.550289167
  9
$TDINDWG
 40
0.0000000116
  9
$TDUSRTIMER
 40
0.0000000116
  9
$USRTIMER
 70
     1
  9
$ANGBASE
 50
0.0
  9
$ANGDIR
 70
     0
  9
$PDMODE
 70
     0
  9
$PDSIZE
 40
0.0
  9
$PLINEWID
 40
0.0
  9
$COORDS
 70
     1
  9
$SPLFRAME
 70
     0
  9
$SPLINETYPE
 70
     6
  9
$SPLINESEGS
 70
     8
  9
$ATTDIA
 70
     0
  9
$ATTREQ
 70
     1
  9
$HANDLING
 70
     1
  9
$HANDSEED
  5
10F
  9
$SURFTAB1
 70
     6
  9
$SURFTAB2
 70
     6
  9
$SURFTYPE
 70
     6
  9
$SURFU
 70
     6
  9
$SURFV
 70
     6
  9
$UCSNAME
  2

  9
$UCSORG
 10
0.0
 20
0.0
 30
0.0
  9
$UCSXDIR
 10
1.0
 20
0.0
 30
0.0
  9
$UCSYDIR
 10
0.0
 20
1.0
 30
0.0
  9
$PUCSNAME
  2

  9
$PUCSORG
 10
0.0
 20
0.0
 30
0.0
  9
$PUCSXDIR
 10
1.0
 20
0.0
 30
0.0
  9
$PUCSYDIR
 10
0.0
 20
1.0
 30
0.0
  9
$USERI1
 70
     0
  9
$USERI2
 70
     0
  9
$USERI3
 70
     0
  9
$USERI4
 70
     0
  9
$USERI5
 70
     0
  9
$USERR1
 40
0.0
  9
$USERR2
 40
0.0
  9
$USERR3
 40
0.0
  9
$USERR4
 40
0.0
  9
$USERR5
 40
0.0
  9
$WORLDVIEW
 70
     1
  9
$SHADEDGE
 70
     3
  9
$SHADEDIF
 70
    70
  9
$TILEMODE
 70
     1
  9
$MAXACTVP
 70
    64
  9
$PLIMCHECK
 70
     0
  9
$PEXTMIN
 10
1.000000000000000E+20
 20
1.000000000000000E+20
 30
1.000000000000000E+20
  9
$PEXTMAX
 10
-1.000000000000000E+20
 20
-1.000000000000000E+20
 30
-1.000000000000000E+20
  9
$PLIMMIN
 10
0.0
 20
0.0
  9
$PLIMMAX
 10
12.0
 20
9.0
  9
$UNITMODE
 70
     0
  9
$VISRETAIN
 70
     1
  9
$PLINEGEN
 70
     0
  9
$PSLTSCALE
 70
     1
  0
ENDSEC
  0
SECTION
  2
TABLES
  0
TABLE
  2
VPORT
 70
     1
  0
VPORT
  2
*ACTIVE
 70
     0
 10
0.0
 20
0.0
 11
1.0
 21
1.0
 12
-410.9276017632664
 22
615.0095244425701
 13
0.0
 23
0.0
 14
0.5
 24
0.5
 15
0.5
 25
0.5
 16
0.0
 26
0.0
 36
1.0
 17
0.0
 27
0.0
 37
0.0
 40
1254.619429862846
 41
0.6799145537822454
 42
50.0
 43
0.0
 44
0.0
 50
0.0
 51
0.0
 71
     0
 72
   100
 73
     1
 74
     3
 75
     0
 76
     0
 77
     0
 78
     0
  0
ENDTAB
  0
TABLE
  2
LTYPE
 70
     1
  0
LTYPE
  2
CONTINUOUS
 70
     0
  3
Solid line
 72
    65
 73
     0
 40
0.0
  0
ENDTAB
  0
TABLE
  2
LAYER
 70
     3
  0
LAYER
  2
0
 70
     0
 62
     7
  6
CONTINUOUS
  0
LAYER
  2
LAYER_02
 70
     0
 62
   192
  6
CONTINUOUS
  0
LAYER
  2
DEFAULT
 70
     0
 62
     7
  6
CONTINUOUS
  0
ENDTAB
  0
TABLE
  2
STYLE
 70
     1
  0
STYLE
  2
STANDARD
 70
     0
 40
0.0
 41
1.0
 50
0.0
 71
     0
 42
0.2
  3
txt
  4

  0
ENDTAB
  0
TABLE
  2
VIEW
 70
     0
  0
ENDTAB
  0
TABLE
  2
UCS
 70
     0
  0
ENDTAB
  0
TABLE
  2
APPID
 70
     1
  0
APPID
  2
ACAD
 70
     0
  0
ENDTAB
  0
TABLE
  2
DIMSTYLE
 70
     1
  0
DIMSTYLE
  2
STANDARD
 70
     0
  3

  4

  5

  6

  7

 40
1.0
 41
0.18
 42
0.0625
 43
0.38
 44
0.18
 45
0.0
 46
0.0
 47
0.0
 48
0.0
140
0.18
141
0.09
142
0.0
143
25.4
144
1.0
145
0.0
146
1.0
147
0.09
 71
     0
 72
     0
 73
     1
 74
     1
 75
     0
 76
     0
 77
     0
 78
     0
170
     0
171
     2
172
     0
173
     0
174
     0
175
     0
176
     0
177
     0
178
     0
  0
ENDTAB
  0
ENDSEC
  0
SECTION
  2
BLOCKS
  0
BLOCK
  8
0
  2
$MODEL_SPACE
 70
     0
 10
0.0
 20
0.0
 30
0.0
  3
$MODEL_SPACE
  1

  0
ENDBLK
  5
21
  8
0
  0
BLOCK
 67
     1
  8
0
  2
$PAPER_SPACE
 70
     0
 10
0.0
 20
0.0
 30
0.0
  3
$PAPER_SPACE
  1

  0
ENDBLK
  5
1D
 67
     1
  8
0
  0
ENDSEC
  0
SECTION
  2
ENTITIES
  0
LINE
  5
6F
  8
LAYER_02
 10
-666.1204575868695
 20
615.7907542579064
 30
0.0
 11
-829.0815281464683
 21
615.7907542579089
 31
0.0
  0
LINE
  5
70
  8
LAYER_02
 10
-829.0815281464683
 20
615.7907542579089
 30
0.0
 11
-829.0815281464664
 21
555.7907542579075
 31
0.0
  0
ARC
  5
71
  8
LAYER_02
 10
-824.0815281464664
 20
555.7907542579075
 30
0.0
 40
5.0
 50
180.0
 51
270.0000000000209
  0
LINE
  5
72
  8
LAYER_02
 10
-824.0815281464646
 20
550.7907542579075
 30
0.0
 11
-809.7383823959561
 21
550.7907542579172
 31
0.0
  0
ARC
  5
73
  8
LAYER_02
 10
-806.9099552712186
 20
547.9623271331624
 30
0.0
 40
4.000000000000674
 50
315.0000000000737
 51
134.9999999998342
  0
LINE
  5
74
  8
LAYER_02
 10
-804.0815281464683
 20
545.1339000084193
 30
0.0
 11
-804.0815281464683
 21
506.4476085073842
 31
0.0
  0
ARC
  5
75
  8
LAYER_02
 10
-806.9099552712186
 20
503.6191813826412
 30
0.0
 40
4.000000000000674
 50
225.0000000001658
 51
44.99999999992631
  0
LINE
  5
76
  8
LAYER_02
 10
-809.7383823959561
 20
500.7907542578863
 30
0.0
 11
-824.0815281464573
 21
500.7907542579068
 31
0.0
  0
ARC
  5
77
  8
LAYER_02
 10
-824.0815281464664
 20
495.7907542579068
 30
0.0
 40
5.0
 50
89.99999999989578
 51
179.9999999999974
  0
LINE
  5
78
  8
LAYER_02
 10
-829.0815281464664
 20
495.790754257907
 30
0.0
 11
-829.0815281464664
 21
105.0000000000025
 31
0.0
  0
ARC
  5
79
  8
LAYER_02
 10
-824.0815281464664
 20
105.0000000000025
 30
0.0
 40
5.0
 50
180.0
 51
270.0000000000834
  0
LINE
  5
7A
  8
LAYER_02
 10
-824.0815281464592
 20
100.0000000000025
 30
0.0
 11
-809.7383823959561
 21
100.0000000000262
 31
0.0
  0
ARC
  5
7B
  8
LAYER_02
 10
-806.9099552712186
 20
97.1715728752714
 30
0.0
 40
4.000000000000674
 50
315.0000000000737
 51
134.9999999998342
  0
LINE
  5
7C
  8
LAYER_02
 10
-804.0815281464683
 20
94.34314575052836
 30
0.0
 11
-804.0815281464683
 21
55.65685424949321
 31
0.0
  0
ARC
  5
7D
  8
LAYER_02
 10
-806.9099552712186
 20
52.82842712475018
 30
0.0
 40
4.000000000000674
 50
225.0000000001658
 51
44.99999999992631
  0
LINE
  5
7E
  8
LAYER_02
 10
-809.7383823959561
 20
49.99999999999532
 30
0.0
 11
-824.0815281464628
 21
50.0000000000022
 31
0.0
  0
ARC
  5
7F
  8
LAYER_02
 10
-824.0815281464646
 20
45.0000000000022
 30
0.0
 40
5.0
 50
89.99999999997915
 51
180.0000000000039
  0
LINE
  5
80
  8
LAYER_02
 10
-829.0815281464646
 20
45.00000000000186
 30
0.0
 11
-829.0815281464646
 21
5.000000000004249
 31
0.0
  0
ARC
  5
81
  8
LAYER_02
 10
-824.0815281464646
 20
5.000000000002146
 30
0.0
 40
5.0
 50
179.9999999999759
 51
270.0
  0
LINE
  5
82
  8
LAYER_02
 10
-824.0815281464646
 20
0.0000000000021458
 30
0.0
 11
-458.1593870272471
 21
0.0000000000021458
 31
0.0
  0
ARC
  5
83
  8
LAYER_02
 10
-458.1593870272471
 20
5.000000000002146
 30
0.0
 40
5.0
 50
270.0
 51
0.0000000000104119
  0
LINE
  5
84
  8
LAYER_02
 10
-453.1593870272471
 20
5.000000000003055
 30
0.0
 11
-453.1593870272453
 21
45.00000000000226
 31
0.0
  0
ARC
  5
85
  8
LAYER_02
 10
-458.1593870272453
 20
45.00000000000226
 30
0.0
 40
5.0
 50
0.0
 51
90.00000000004168
  0
LINE
  5
86
  8
LAYER_02
 10
-458.159387027249
 20
50.00000000000226
 30
0.0
 11
-472.5025327777629
 21
49.99999999999532
 31
0.0
  0
ARC
  5
87
  8
LAYER_02
 10
-475.3309599025005
 20
52.82842712475018
 30
0.0
 40
4.000000000000674
 50
135.0000000000737
 51
314.9999999998342
  0
LINE
  5
88
  8
LAYER_02
 10
-478.1593870272508
 20
55.65685424949321
 30
0.0
 11
-478.1593870272508
 21
94.34314575052836
 31
0.0
  0
ARC
  5
89
  8
LAYER_02
 10
-475.3309599025005
 20
97.1715728752714
 30
0.0
 40
4.000000000000674
 50
45.00000000016582
 51
224.9999999999263
  0
LINE
  5
8A
  8
LAYER_02
 10
-472.5025327777629
 20
100.0000000000262
 30
0.0
 11
-458.1593870272526
 21
100.0000000000028
 31
0.0
  0
ARC
  5
8B
  8
LAYER_02
 10
-458.1593870272453
 20
105.0000000000028
 30
0.0
 40
5.0
 50
269.9999999999166
 51
359.9999999999857
  0
LINE
  5
8C
  8
LAYER_02
 10
-453.1593870272453
 20
105.0000000000016
 30
0.0
 11
-453.1593870272453
 21
500.7907542579106
 31
0.0
  0
LINE
  5
8D
  8
LAYER_02
 10
-453.1593870272453
 20
500.7907542579106
 30
0.0
 11
-472.5025327777629
 21
500.7907542578863
 31
0.0
  0
ARC
  5
8E
  8
LAYER_02
 10
-475.3309599025005
 20
503.6191813826412
 30
0.0
 40
4.000000000000674
 50
135.0000000000737
 51
314.9999999998342
  0
LINE
  5
8F
  8
LAYER_02
 10
-478.1593870272508
 20
506.4476085073842
 30
0.0
 11
-478.1593870272508
 21
545.1339000084193
 31
0.0
  0
ARC
  5
90
  8
LAYER_02
 10
-475.3309599025005
 20
547.9623271331624
 30
0.0
 40
4.000000000000674
 50
45.00000000016582
 51
224.9999999999263
  0
LINE
  5
91
  8
LAYER_02
 10
-472.5025327777629
 20
550.7907542579172
 30
0.0
 11
-458.159387027249
 21
550.7907542579073
 31
0.0
  0
ARC
  5
92
  8
LAYER_02
 10
-458.1593870272453
 20
555.7907542579073
 30
0.0
 40
5.0
 50
269.9999999999583
 51
359.9999999999948
  0
LINE
  5
93
  8
LAYER_02
 10
-453.1593870272453
 20
555.7907542579068
 30
0.0
 11
-453.1593870272435
 21
615.7907542579084
 31
0.0
  0
LINE
  5
94
  8
LAYER_02
 10
-453.1593870272453
 20
615.7907542579072
 30
0.0
 11
-616.1204575868659
 21
615.7907542579064
 31
0.0
  0
LINE
  5
95
  8
LAYER_02
 10
-616.1204575868659
 20
615.7907542579064
 30
0.0
 11
-616.1204575868404
 21
606.4476085073928
 31
0.0
  0
ARC
  5
96
  8
LAYER_02
 10
-618.9488847115962
 20
603.6191813826543
 30
0.0
 40
4.000000000000674
 50
225.0000000000737
 51
44.99999999983418
  0
LINE
  5
97
  8
LAYER_02
 10
-621.7773118363392
 20
600.790754257904
 30
0.0
 11
-660.4636033373744
 21
600.790754257904
 31
0.0
  0
ARC
  5
98
  8
LAYER_02
 10
-663.2920304621174
 20
603.6191813826543
 30
0.0
 40
4.000000000000674
 50
135.0000000001658
 51
314.9999999999263
  0
LINE
  5
99
  8
LAYER_02
 10
-666.1204575868732
 20
606.4476085073928
 30
0.0
 11
-666.1204575868695
 21
615.7907542579064
 31
0.0
  0
LINE
  5
9A
  8
LAYER_02
 10
-453.1593870272344
 20
1062.084151478904
 30
0.0
 11
-453.1593870272344
 21
1022.084151478907
 31
0.0
  0
ARC
  5
9B
  8
LAYER_02
 10
-458.1593870272344
 20
1022.084151478905
 30
0.0
 40
5.0
 50
269.9999999999583
 51
0.0000000000169358
  0
LINE
  5
9C
  8
LAYER_02
 10
-458.159387027238
 20
1017.084151478905
 30
0.0
 11
-472.5025327777429
 21
1017.084151478914
 31
0.0
  0
ARC
  5
9D
  8
LAYER_02
 10
-475.3309599024805
 20
1014.255724354159
 30
0.0
 40
4.000000000000674
 50
45.00000000016582
 51
224.9999999999263
  0
LINE
  5
9E
  8
LAYER_02
 10
-478.1593870272308
 20
1011.427297229416
 30
0.0
 11
-478.1593870272308
 21
972.7410057283813
 31
0.0
  0
ARC
  5
9F
  8
LAYER_02
 10
-475.3309599024805
 20
969.9125786036383
 30
0.0
 40
4.000000000000674
 50
135.0000000000737
 51
314.9999999998342
  0
LINE
  5
A0
  8
LAYER_02
 10
-472.5025327777429
 20
967.0841514788834
 30
0.0
 11
-458.1593870272399
 21
967.0841514789023
 31
0.0
  0
ARC
  5
A1
  8
LAYER_02
 10
-458.1593870272326
 20
962.0841514789023
 30
0.0
 40
5.0
 50
0.0000000000026055
 51
90.00000000008338
  0
LINE
  5
A2
  8
LAYER_02
 10
-453.1593870272326
 20
962.0841514789025
 30
0.0
 11
-453.1593870272344
 21
642.0841514789041
 31
0.0
  0
LINE
  5
A3
  8
LAYER_02
 10
-453.1593870272344
 20
642.0841514789041
 30
0.0
 11
-610.4636033373525
 21
642.0841514789136
 31
0.0
  0
ARC
  5
A4
  8
LAYER_02
 10
-613.2920304620919
 20
639.2557243541596
 30
0.0
 40
4.000000000000674
 50
45.00000000014739
 51
224.9999999997421
  0
LINE
  5
A5
  8
LAYER_02
 10
-616.1204575868513
 20
636.4272972294257
 30
0.0
 11
-616.1204575868513
 21
627.0841514789148
 31
0.0
  0
LINE
  5
A6
  8
LAYER_02
 10
-616.1204575868513
 20
627.0841514789148
 30
0.0
 11
-666.1204575868495
 21
627.0841514789151
 31
0.0
  0
LINE
  5
A7
  8
LAYER_02
 10
-666.1204575868495
 20
627.0841514789151
 30
0.0
 11
-666.1204575868531
 21
636.4272972294148
 31
0.0
  0
ARC
  5
A8
  8
LAYER_02
 10
-668.9488847115962
 20
639.2557243541651
 30
0.0
 40
4.000000000000674
 50
314.9999999999263
 51
135.0000000000553
  0
LINE
  5
A9
  8
LAYER_02
 10
-671.7773118363465
 20
642.084151478909
 30
0.0
 11
-829.0815281464592
 21
642.0841514789045
 31
0.0
  0
LINE
  5
AA
  8
LAYER_02
 10
-829.0815281464592
 20
642.0841514789045
 30
0.0
 11
-829.0815281464592
 21
962.0841514789014
 31
0.0
  0
ARC
  5
AB
  8
LAYER_02
 10
-824.0815281464592
 20
962.0841514789014
 30
0.0
 40
5.0
 50
89.99999999997915
 51
180.0
  0
LINE
  5
AC
  8
LAYER_02
 10
-824.0815281464573
 20
967.0841514789014
 30
0.0
 11
-809.738382395947
 21
967.0841514788834
 31
0.0
  0
ARC
  5
AD
  8
LAYER_02
 10
-806.9099552712095
 20
969.9125786036383
 30
0.0
 40
4.000000000000674
 50
225.0000000001658
 51
44.99999999992631
  0
LINE
  5
AE
  8
LAYER_02
 10
-804.0815281464592
 20
972.7410057283813
 30
0.0
 11
-804.0815281464592
 21
1011.427297229416
 31
0.0
  0
ARC
  5
AF
  8
LAYER_02
 10
-806.9099552712095
 20
1014.255724354159
 30
0.0
 40
4.000000000000674
 50
315.0000000000737
 51
134.9999999998342
  0
LINE
  5
B0
  8
LAYER_02
 10
-809.738382395947
 20
1017.084151478914
 30
0.0
 11
-824.0815281464537
 21
1017.084151478905
 31
0.0
  0
ARC
  5
B1
  8
LAYER_02
 10
-824.0815281464592
 20
1022.084151478905
 30
0.0
 40
5.0
 50
180.0000000000143
 51
270.0000000000625
  0
LINE
  5
B2
  8
LAYER_02
 10
-829.0815281464592
 20
1022.084151478904
 30
0.0
 11
-829.0815281464573
 21
1062.084151478903
 31
0.0
  0
ARC
  5
B3
  8
LAYER_02
 10
-824.0815281464573
 20
1062.084151478904
 30
0.0
 40
5.0
 50
90.0
 51
180.0000000000052
  0
LINE
  5
B4
  8
LAYER_02
 10
-824.0815281464573
 20
1067.084151478904
 30
0.0
 11
-458.1593870272344
 21
1067.084151478904
 31
0.0
  0
ARC
  5
B5
  8
LAYER_02
 10
-458.1593870272344
 20
1062.084151478904
 30
0.0
 40
5.0
 50
359.9999999999974
 51
90.0
  0
CIRCLE
  5
B7
  8
DEFAULT
 10
-811.5815281465738
 20
381.0284619400473
 30
0.0
 40
2.6
  0
CIRCLE
  5
B8
  8
DEFAULT
 10
-470.6593870271362
 20
381.0284619400473
 30
0.0
 40
2.6
  0
CIRCLE
  5
B9
  8
DEFAULT
 10
-811.5815281465738
 20
219.7622923178621
 30
0.0
 40
2.6
  0
CIRCLE
  5
BA
  8
DEFAULT
 10
-470.6593870271362
 20
219.7622923178621
 30
0.0
 40
2.6
  0
CIRCLE
  5
BB
  8
DEFAULT
 10
-641.1204575868459
 20
634.5841514789148
 30
0.0
 40
2.6
  0
LINE
  5
BC
  8
LAYER_02
 10
-427.7736753800681
 20
629.2282946272343
 30
0.0
 11
-388.430529629556
 21
629.2282946272416
 31
0.0
  0
ARC
  5
BD
  8
LAYER_02
 10
-385.6021025048129
 20
626.3998675024912
 30
0.0
 40
4.000000000000674
 50
315.0000000001658
 51
134.9999999999263
  0
LINE
  5
BE
  8
LAYER_02
 10
-382.7736753800572
 20
623.5714403777528
 30
0.0
 11
-382.7736753800626
 21
614.2282946272331
 31
0.0
  0
LINE
  5
BF
  8
LAYER_02
 10
-382.7736753800626
 20
614.2282946272331
 30
0.0
 11
-332.7736753800608
 21
614.2282946272335
 31
0.0
  0
LINE
  5
C0
  8
LAYER_02
 10
-332.7736753800608
 20
614.2282946272335
 30
0.0
 11
-332.7736753800517
 21
623.5714403777409
 31
0.0
  0
ARC
  5
C1
  8
LAYER_02
 10
-329.9452482553087
 20
626.3998675024912
 30
0.0
 40
4.000000000000674
 50
44.99999999994473
 51
225.0000000000737
  0
LINE
  5
C2
  8
LAYER_02
 10
-327.1168211305584
 20
629.2282946272352
 30
0.0
 11
-7.773675380066248
 21
629.2282946272334
 31
0.0
  0
LINE
  5
C3
  8
LAYER_02
 10
-7.773675380066248
 20
629.2282946272334
 30
0.0
 11
-7.773675380066248
 21
673.57144037774
 31
0.0
  0
ARC
  5
C4
  8
LAYER_02
 10
-4.945248255315942
 20
676.3998675024831
 30
0.0
 40
4.000000000000674
 50
45.00000000016585
 51
224.9999999999263
  0
LINE
  5
C5
  8
LAYER_02
 10
-2.116821130578369
 20
679.2282946272379
 30
0.0
 11
7.226324619933752
 21
679.228294627235
 31
0.0
  0
LINE
  5
C6
  8
LAYER_02
 10
7.226324619933752
 20
679.228294627235
 30
0.0
 11
7.226324619933752
 21
729.2282946272377
 31
0.0
  0
LINE
  5
C7
  8
LAYER_02
 10
7.226324619933752
 20
729.2282946272377
 30
0.0
 11
-2.116821130567455
 21
729.2282946272416
 31
0.0
  0
ARC
  5
C8
  8
LAYER_02
 10
-4.945248255321399
 20
732.0567217519791
 30
0.0
 40
3.999999999999389
 50
134.9999999999816
 51
315.0000000001658
  0
LINE
  5
C9
  8
LAYER_02
 10
-7.773675380066248
 20
734.8851488767258
 30
0.0
 11
-7.773675380055334
 21
1124.362194635637
 31
0.0
  0
ARC
  5
CA
  8
LAYER_02
 10
-4.945248255308666
 20
1127.190621760388
 30
0.0
 40
4.000000000003247
 50
44.99999999996317
 51
225.0000000000369
  0
LINE
  5
CB
  8
LAYER_02
 10
-2.11682113055836
 20
1130.019048885134
 30
0.0
 11
7.226324619935571
 21
1130.019048885131
 31
0.0
  0
LINE
  5
CC
  8
LAYER_02
 10
7.226324619935571
 20
1130.019048885131
 30
0.0
 11
7.226324619931933
 21
1180.019048885133
 31
0.0
  0
LINE
  5
CD
  8
LAYER_02
 10
7.226324619931933
 20
1180.019048885133
 30
0.0
 11
-2.116821130578369
 21
1180.019048885135
 31
0.0
  0
ARC
  5
CE
  8
LAYER_02
 10
-4.945248255315942
 20
1182.84747600989
 30
0.0
 40
4.000000000000674
 50
135.0000000000737
 51
314.9999999998342
  0
LINE
  5
CF
  8
LAYER_02
 10
-7.773675380066248
 20
1185.675903134633
 30
0.0
 11
-7.773675380066248
 21
1219.679048885141
 31
0.0
  0
ARC
  5
D0
  8
LAYER_02
 10
-18.11367538006639
 20
1219.679048885141
 30
0.0
 40
10.34
 50
0.0
 51
90.0
  0
LINE
  5
D1
  8
LAYER_02
 10
-18.11367538006639
 20
1230.019048885141
 30
0.0
 11
-121.5206340175381
 21
1230.01904888514
 31
0.0
  0
ARC
  5
D2
  8
LAYER_02
 10
-121.5206340175381
 20
1219.678416281734
 30
0.0
 40
10.34063260340633
 50
90.0
 51
180.0
  0
LINE
  5
D3
  8
LAYER_02
 10
-131.8612666209436
 20
1219.678416281734
 30
0.0
 11
-131.86126662094
 21
980.4092455456347
 31
0.0
  0
ARC
  5
D4
  8
LAYER_02
 10
-142.2018992243455
 20
980.4092455456347
 30
0.0
 40
10.34063260340633
 50
215.2756277037341
 51
0.0
  0
LINE
  5
D5
  8
LAYER_02
 10
-150.6438192359063
 20
974.4374226114688
 30
0.0
 11
-331.4425256016283
 21
1230.019048885142
 31
0.0
  0
LINE
  5
D6
  8
LAYER_02
 10
-331.4425256016283
 20
1230.019048885142
 30
0.0
 11
-422.4330427766607
 21
1230.01904888514
 31
0.0
  0
ARC
  5
D7
  8
LAYER_02
 10
-422.4330427766607
 20
1219.678416281734
 30
0.0
 40
10.34063260340633
 50
90.0
 51
180.0
  0
LINE
  5
D8
  8
LAYER_02
 10
-432.7736753800663
 20
1219.678416281734
 30
0.0
 11
-432.7736753800663
 21
1086.774771461114
 31
0.0
  0
LINE
  5
D9
  8
LAYER_02
 10
-432.7736753800663
 20
1086.774771461114
 30
0.0
 11
-208.4239632410307
 21
769.628341405689
 31
0.0
  0
ARC
  5
DA
  8
LAYER_02
 10
-216.865883252586
 20
763.6565184715136
 30
0.0
 40
10.34063260340632
 50
270.0000000001315
 51
35.27562770379816
  0
LINE
  5
DB
  8
LAYER_02
 10
-216.8658832525751
 20
753.3158858681089
 30
0.0
 11
-422.4330427766607
 21
753.3158858681079
 31
0.0
  0
ARC
  5
DC
  8
LAYER_02
 10
-422.4330427766607
 20
742.9752532647016
 30
0.0
 40
10.34063260340633
 50
90.0
 51
180.0
  0
LINE
  5
DD
  8
LAYER_02
 10
-432.7736753800663
 20
742.9752532647016
 30
0.0
 11
-432.7736753800663
 21
634.2282946272334
 31
0.0
  0
ARC
  5
DE
  8
LAYER_02
 10
-427.7736753800663
 20
634.2282946272343
 30
0.0
 40
5.0
 50
180.0000000000104
 51
269.9999999999791
  0
CIRCLE
  5
DF
  8
DEFAULT
 10
-357.7736753800626
 20
621.728294627235
 30
0.0
 40
2.6
  0
CIRCLE
  5
E0
  8
DEFAULT
 10
-0.2736753800662477
 20
1155.019048885133
 30
0.0
 40
2.6
  0
CIRCLE
  5
E1
  8
DEFAULT
 10
-0.2736753800662477
 20
704.2282946272334
 30
0.0
 40
2.6
  0
LINE
  5
E2
  8
LAYER_02
 10
-4.999999999998959
 20
600.7907542579059
 30
0.0
 11
-44.34314575051108
 21
600.7907542578986
 31
0.0
  0
ARC
  5
E3
  8
LAYER_02
 10
-47.17157287525411
 20
603.6191813826489
 30
0.0
 40
4.000000000000674
 50
135.0000000001658
 51
314.9999999999263
  0
LINE
  5
E4
  8
LAYER_02
 10
-50.00000000000988
 20
606.4476085073874
 30
0.0
 11
-50.00000000000442
 21
615.790754257907
 31
0.0
  0
LINE
  5
E5
  8
LAYER_02
 10
-50.00000000000442
 20
615.790754257907
 30
0.0
 11
-100.0000000000062
 21
615.7907542579067
 31
0.0
  0
LINE
  5
E6
  8
LAYER_02
 10
-100.0000000000062
 20
615.7907542579067
 30
0.0
 11
-100.0000000000153
 21
606.4476085073992
 31
0.0
  0
ARC
  5
E7
  8
LAYER_02
 10
-102.8284271247584
 20
603.6191813826489
 30
0.0
 40
4.000000000000674
 50
224.9999999999447
 51
45.0000000000737
  0
LINE
  5
E8
  8
LAYER_02
 10
-105.6568542495087
 20
600.790754257905
 30
0.0
 11
-425.0000000000008
 21
600.7907542579068
 31
0.0
  0
LINE
  5
E9
  8
LAYER_02
 10
-425.0000000000008
 20
600.7907542579068
 30
0.0
 11
-425.0000000000008
 21
556.4476085074001
 31
0.0
  0
ARC
  5
EA
  8
LAYER_02
 10
-427.8284271247511
 20
553.6191813826571
 30
0.0
 40
4.000000000000674
 50
225.0000000001658
 51
44.99999999992631
  0
LINE
  5
EB
  8
LAYER_02
 10
-430.6568542494887
 20
550.7907542579022
 30
0.0
 11
-440.0000000000008
 21
550.7907542579052
 31
0.0
  0
LINE
  5
EC
  8
LAYER_02
 10
-440.0000000000008
 20
550.7907542579052
 30
0.0
 11
-440.0000000000008
 21
500.7907542579024
 31
0.0
  0
LINE
  5
ED
  8
LAYER_02
 10
-440.0000000000008
 20
500.7907542579024
 30
0.0
 11
-430.6568542494996
 21
500.7907542578986
 31
0.0
  0
ARC
  5
EE
  8
LAYER_02
 10
-427.8284271247456
 20
497.962327133161
 30
0.0
 40
3.999999999999389
 50
314.9999999999816
 51
135.0000000001658
  0
LINE
  5
EF
  8
LAYER_02
 10
-425.0000000000008
 20
495.1339000084143
 30
0.0
 11
-425.0000000000117
 21
105.6568542495028
 31
0.0
  0
ARC
  5
F0
  8
LAYER_02
 10
-427.8284271247584
 20
102.8284271247525
 30
0.0
 40
4.000000000003247
 50
224.9999999999631
 51
45.00000000003685
  0
LINE
  5
F1
  8
LAYER_02
 10
-430.6568542495087
 20
100.0000000000058
 30
0.0
 11
-440.0000000000026
 21
100.0000000000093
 31
0.0
  0
LINE
  5
F2
  8
LAYER_02
 10
-440.0000000000026
 20
100.0000000000093
 30
0.0
 11
-439.999999999999
 21
50.00000000000715
 31
0.0
  0
LINE
  5
F3
  8
LAYER_02
 10
-439.999999999999
 20
50.00000000000715
 30
0.0
 11
-430.6568542494887
 21
50.00000000000533
 31
0.0
  0
ARC
  5
F4
  8
LAYER_02
 10
-427.8284271247511
 20
47.17157287525048
 30
0.0
 40
4.000000000000674
 50
315.0000000000737
 51
134.9999999998342
  0
LINE
  5
F5
  8
LAYER_02
 10
-425.0000000000008
 20
44.34314575050745
 30
0.0
 11
-425.0000000000008
 21
10.33999999999877
 31
0.0
  0
ARC
  5
F6
  8
LAYER_02
 10
-414.6600000000007
 20
10.33999999999877
 30
0.0
 40
10.34
 50
180.0
 51
270.0
  0
LINE
  5
F7
  8
LAYER_02
 10
-414.6600000000007
 20
-0.0000000000012079
 30
0.0
 11
-311.253041362529
 21
-0.0000000000000142
 31
0.0
  0
ARC
  5
F8
  8
LAYER_02
 10
-311.253041362529
 20
10.34063260340632
 30
0.0
 40
10.34063260340633
 50
270.0
 51
0.0
  0
LINE
  5
F9
  8
LAYER_02
 10
-300.9124087591234
 20
10.34063260340632
 30
0.0
 11
-300.9124087591271
 21
249.6098033395054
 31
0.0
  0
ARC
  5
FA
  8
LAYER_02
 10
-290.5717761557215
 20
249.6098033395054
 30
0.0
 40
10.34063260340633
 50
35.27562770373376
 51
180.0
  0
LINE
  5
FB
  8
LAYER_02
 10
-282.1298561441607
 20
255.5816262736714
 30
0.0
 11
-101.3311497784388
 21
-0.0000000000014921
 31
0.0
  0
LINE
  5
FC
  8
LAYER_02
 10
-101.3311497784388
 20
-0.0000000000014921
 30
0.0
 11
-10.34063260340632
 21
-0.0000000000000142
 31
0.0
  0
ARC
  5
FD
  8
LAYER_02
 10
-10.34063260340632
 20
10.34063260340632
 30
0.0
 40
10.34063260340633
 50
270.0
 51
0.0
  0
LINE
  5
FE
  8
LAYER_02
 10
-0.000000000000778
 20
10.34063260340632
 30
0.0
 11
-0.000000000000778
 21
143.2442774240261
 31
0.0
  0
LINE
  5
FF
  8
LAYER_02
 10
-0.000000000000778
 20
143.2442774240261
 30
0.0
 11
-224.3497121390363
 21
460.3907074794512
 31
0.0
  0
ARC
  5
100
  8
LAYER_02
 10
-215.907792127481
 20
466.3625304136266
 30
0.0
 40
10.34063260340632
 50
90.0000000001315
 51
215.2756277037979
  0
LINE
  5
101
  8
LAYER_02
 10
-215.9077921274919
 20
476.7031630170312
 30
0.0
 11
-10.34063260340632
 21
476.7031630170322
 31
0.0
  0
ARC
  5
102
  8
LAYER_02
 10
-10.34063260340632
 20
487.0437956204386
 30
0.0
 40
10.34063260340633
 50
270.0
 51
0.0
  0
LINE
  5
103
  8
LAYER_02
 10
-0.000000000000778
 20
487.0437956204386
 30
0.0
 11
-0.000000000000778
 21
595.7907542579068
 31
0.0
  0
ARC
  5
104
  8
LAYER_02
 10
-5.000000000000778
 20
595.7907542579059
 30
0.0
 40
5.0
 50
0.000000000010422
 51
89.99999999997915
  0
CIRCLE
  5
105
  8
DEFAULT
 10
-75.00000000000442
 20
608.2907542579052
 30
0.0
 40
2.6
  0
CIRCLE
  5
106
  8
DEFAULT
 10
-432.5000000000008
 20
75.00000000000715
 30
0.0
 40
2.6
  0
CIRCLE
  5
107
  8
DEFAULT
 10
-432.5000000000008
 20
525.7907542579068
 30
0.0
 40
2.6
  0
ENDSEC
  0
EOF
