  0
SECTION
  2
HEADER
  9
$ACADVER
  1
AC1009
  9
$DWGCODEPAGE
  3
ansi_1252
  9
$INSBASE
 10
0.0
 20
0.0
 30
0.0
  9
$EXTMIN
 10
10512.55669051932
 20
-1925.977775492296
 30
0.0
  9
$EXTMAX
 10
10550.9712093626
 20
-1892.709826299858
 30
0.0
  9
$LIMMIN
 10
0.0
 20
0.0
  9
$LIMMAX
 10
12.0
 20
9.0
  9
$ORTHOMODE
 70
     0
  9
$REGENMODE
 70
     1
  9
$FILLMODE
 70
     1
  9
$QTEXTMODE
 70
     0
  9
$MIRRTEXT
 70
     1
  9
$DRAGMODE
 70
     2
  9
$LTSCALE
 40
1.0
  9
$OSMODE
 70
    37
  9
$ATTMODE
 70
     1
  9
$TEXTSIZE
 40
0.2
  9
$TRACEWID
 40
0.05
  9
$TEXTSTYLE
  7
STANDARD
  9
$CLAYER
  8
DEFAULT
  9
$CELTYPE
  6
BYLAYER
  9
$CECOLOR
 62
   256
  9
$DIMSCALE
 40
1.0
  9
$DIMASZ
 40
0.18
  9
$DIMEXO
 40
0.0625
  9
$DIMDLI
 40
0.38
  9
$DIMRND
 40
0.0
  9
$DIMDLE
 40
0.0
  9
$DIMEXE
 40
0.18
  9
$DIMTP
 40
0.0
  9
$DIMTM
 40
0.0
  9
$DIMTXT
 40
0.18
  9
$DIMCEN
 40
0.09
  9
$DIMTSZ
 40
0.0
  9
$DIMTOL
 70
     0
  9
$DIMLIM
 70
     0
  9
$DIMTIH
 70
     1
  9
$DIMTOH
 70
     1
  9
$DIMSE1
 70
     0
  9
$DIMSE2
 70
     0
  9
$DIMTAD
 70
     0
  9
$DIMZIN
 70
     0
  9
$DIMBLK
  1

  9
$DIMASO
 70
     1
  9
$DIMSHO
 70
     1
  9
$DIMPOST
  1

  9
$DIMAPOST
  1

  9
$DIMALT
 70
     0
  9
$DIMALTD
 70
     2
  9
$DIMALTF
 40
25.4
  9
$DIMLFAC
 40
1.0
  9
$DIMTOFL
 70
     0
  9
$DIMTVP
 40
0.0
  9
$DIMTIX
 70
     0
  9
$DIMSOXD
 70
     0
  9
$DIMSAH
 70
     0
  9
$DIMBLK1
  1

  9
$DIMBLK2
  1

  9
$DIMSTYLE
  2
STANDARD
  9
$DIMCLRD
 70
     0
  9
$DIMCLRE
 70
     0
  9
$DIMCLRT
 70
     0
  9
$DIMTFAC
 40
1.0
  9
$DIMGAP
 40
0.09
  9
$LUNITS
 70
     2
  9
$LUPREC
 70
     2
  9
$SKETCHINC
 40
0.1
  9
$FILLETRAD
 40
0.5
  9
$AUNITS
 70
     0
  9
$AUPREC
 70
     0
  9
$MENU
  1
.
  9
$ELEVATION
 40
0.0
  9
$PELEVATION
 40
0.0
  9
$THICKNESS
 40
0.0
  9
$LIMCHECK
 70
     0
  9
$CHAMFERA
 40
0.0
  9
$CHAMFERB
 40
0.0
  9
$SKPOLY
 70
     0
  9
$TDCREATE
 40
2457435.748123345
  9
$TDUPDATE
 40
2457435.748144653
  9
$TDINDWG
 40
0.0000000116
  9
$TDUSRTIMER
 40
0.0000000116
  9
$USRTIMER
 70
     1
  9
$ANGBASE
 50
0.0
  9
$ANGDIR
 70
     0
  9
$PDMODE
 70
     0
  9
$PDSIZE
 40
0.0
  9
$PLINEWID
 40
0.0
  9
$COORDS
 70
     1
  9
$SPLFRAME
 70
     0
  9
$SPLINETYPE
 70
     6
  9
$SPLINESEGS
 70
     8
  9
$ATTDIA
 70
     0
  9
$ATTREQ
 70
     1
  9
$HANDLING
 70
     1
  9
$HANDSEED
  5
A9
  9
$SURFTAB1
 70
     6
  9
$SURFTAB2
 70
     6
  9
$SURFTYPE
 70
     6
  9
$SURFU
 70
     6
  9
$SURFV
 70
     6
  9
$UCSNAME
  2

  9
$UCSORG
 10
0.0
 20
0.0
 30
0.0
  9
$UCSXDIR
 10
1.0
 20
0.0
 30
0.0
  9
$UCSYDIR
 10
0.0
 20
1.0
 30
0.0
  9
$PUCSNAME
  2

  9
$PUCSORG
 10
0.0
 20
0.0
 30
0.0
  9
$PUCSXDIR
 10
1.0
 20
0.0
 30
0.0
  9
$PUCSYDIR
 10
0.0
 20
1.0
 30
0.0
  9
$USERI1
 70
     0
  9
$USERI2
 70
     0
  9
$USERI3
 70
     0
  9
$USERI4
 70
     0
  9
$USERI5
 70
     0
  9
$USERR1
 40
0.0
  9
$USERR2
 40
0.0
  9
$USERR3
 40
0.0
  9
$USERR4
 40
0.0
  9
$USERR5
 40
0.0
  9
$WORLDVIEW
 70
     1
  9
$SHADEDGE
 70
     3
  9
$SHADEDIF
 70
    70
  9
$TILEMODE
 70
     1
  9
$MAXACTVP
 70
    64
  9
$PLIMCHECK
 70
     0
  9
$PEXTMIN
 10
1.000000000000000E+20
 20
1.000000000000000E+20
 30
1.000000000000000E+20
  9
$PEXTMAX
 10
-1.000000000000000E+20
 20
-1.000000000000000E+20
 30
-1.000000000000000E+20
  9
$PLIMMIN
 10
0.0
 20
0.0
  9
$PLIMMAX
 10
12.0
 20
9.0
  9
$UNITMODE
 70
     0
  9
$VISRETAIN
 70
     1
  9
$PLINEGEN
 70
     0
  9
$PSLTSCALE
 70
     1
  0
ENDSEC
  0
SECTION
  2
TABLES
  0
TABLE
  2
VPORT
 70
     1
  0
VPORT
  2
*ACTIVE
 70
     0
 10
0.0
 20
0.0
 11
1.0
 21
1.0
 12
10531.76394994096
 22
-1909.343800896077
 13
0.0
 23
0.0
 14
0.5
 24
0.5
 15
0.5
 25
0.5
 16
0.0
 26
0.0
 36
1.0
 17
0.0
 27
0.0
 37
0.0
 40
33.93330817628605
 41
1.154700538379043
 42
50.0
 43
0.0
 44
0.0
 50
0.0
 51
0.0
 71
     0
 72
   100
 73
     1
 74
     3
 75
     0
 76
     0
 77
     0
 78
     0
  0
ENDTAB
  0
TABLE
  2
LTYPE
 70
     1
  0
LTYPE
  2
CONTINUOUS
 70
     0
  3
Solid line
 72
    65
 73
     0
 40
0.0
  0
ENDTAB
  0
TABLE
  2
LAYER
 70
     2
  0
LAYER
  2
0
 70
     0
 62
     7
  6
CONTINUOUS
  0
LAYER
  2
DEFAULT
 70
     0
 62
     7
  6
CONTINUOUS
  0
ENDTAB
  0
TABLE
  2
STYLE
 70
     1
  0
STYLE
  2
STANDARD
 70
     0
 40
0.0
 41
1.0
 50
0.0
 71
     0
 42
0.2
  3
txt
  4

  0
ENDTAB
  0
TABLE
  2
VIEW
 70
     0
  0
ENDTAB
  0
TABLE
  2
UCS
 70
     0
  0
ENDTAB
  0
TABLE
  2
APPID
 70
     1
  0
APPID
  2
ACAD
 70
     0
  0
ENDTAB
  0
TABLE
  2
DIMSTYLE
 70
     1
  0
DIMSTYLE
  2
STANDARD
 70
     0
  3

  4

  5

  6

  7

 40
1.0
 41
0.18
 42
0.0625
 43
0.38
 44
0.18
 45
0.0
 46
0.0
 47
0.0
 48
0.0
140
0.18
141
0.09
142
0.0
143
25.4
144
1.0
145
0.0
146
1.0
147
0.09
 71
     0
 72
     0
 73
     1
 74
     1
 75
     0
 76
     0
 77
     0
 78
     0
170
     0
171
     2
172
     0
173
     0
174
     0
175
     0
176
     0
177
     0
178
     0
  0
ENDTAB
  0
ENDSEC
  0
SECTION
  2
BLOCKS
  0
BLOCK
  8
0
  2
$MODEL_SPACE
 70
     0
 10
0.0
 20
0.0
 30
0.0
  3
$MODEL_SPACE
  1

  0
ENDBLK
  5
21
  8
0
  0
BLOCK
 67
     1
  8
0
  2
$PAPER_SPACE
 70
     0
 10
0.0
 20
0.0
 30
0.0
  3
$PAPER_SPACE
  1

  0
ENDBLK
  5
1D
 67
     1
  8
0
  0
ENDSEC
  0
SECTION
  2
ENTITIES
  0
LINE
  5
6F
  8
DEFAULT
 10
10549.9712093626
 20
-1892.709826299859
 30
0.0
 11
10513.55669051933
 21
-1892.709826299858
 31
0.0
  0
LINE
  5
70
  8
DEFAULT
 10
10512.55669051932
 20
-1894.441877107426
 30
0.0
 11
10530.76394994096
 21
-1925.97777549228
 31
0.0
  0
LINE
  5
71
  8
DEFAULT
 10
10532.76394994096
 20
-1925.977775492296
 30
0.0
 11
10550.9712093626
 21
-1894.441877107427
 31
0.0
  0
LINE
  5
72
  8
DEFAULT
 10
10532.76394994096
 20
-1921.977775492296
 30
0.0
 11
10547.50710774746
 21
-1896.441877107426
 31
0.0
  0
LINE
  5
73
  8
DEFAULT
 10
10532.76394994096
 20
-1917.977775492297
 30
0.0
 11
10544.04300613233
 21
-1898.441877107424
 31
0.0
  0
LINE
  5
74
  8
DEFAULT
 10
10532.76394994096
 20
-1913.977775492297
 30
0.0
 11
10540.57890451719
 21
-1900.441877107424
 31
0.0
  0
LINE
  5
75
  8
DEFAULT
 10
10532.76394994096
 20
-1909.977775492298
 30
0.0
 11
10537.11480290205
 21
-1902.441877107424
 31
0.0
  0
LINE
  5
76
  8
DEFAULT
 10
10532.70732561394
 20
-1906.075851703645
 30
0.0
 11
10533.70732561394
 21
-1904.343800896075
 31
0.0
  0
LINE
  5
77
  8
DEFAULT
 10
10546.50710774746
 20
-1894.709826299859
 30
0.0
 11
10517.02079213446
 21
-1894.709826299858
 31
0.0
  0
LINE
  5
78
  8
DEFAULT
 10
10516.02079213446
 20
-1896.441877107426
 30
0.0
 11
10530.76394994096
 21
-1921.97777549228
 31
0.0
  0
LINE
  5
79
  8
DEFAULT
 10
10543.04300613232
 20
-1896.709826299859
 30
0.0
 11
10520.4848937496
 21
-1896.709826299859
 31
0.0
  0
LINE
  5
7A
  8
DEFAULT
 10
10519.4848937496
 20
-1898.441877107426
 30
0.0
 11
10530.76394994096
 21
-1917.977775492281
 31
0.0
  0
LINE
  5
7B
  8
DEFAULT
 10
10539.57890451718
 20
-1898.709826299859
 30
0.0
 11
10523.94899536474
 21
-1898.709826299859
 31
0.0
  0
LINE
  5
7C
  8
DEFAULT
 10
10522.94899536474
 20
-1900.441877107428
 30
0.0
 11
10530.76394994096
 21
-1913.977775492285
 31
0.0
  0
LINE
  5
7D
  8
DEFAULT
 10
10536.11480290205
 20
-1900.709826299858
 30
0.0
 11
10527.41309697987
 21
-1900.709826299858
 31
0.0
  0
LINE
  5
7E
  8
DEFAULT
 10
10526.41309697988
 20
-1902.441877107428
 30
0.0
 11
10530.76394994096
 21
-1909.977775492285
 31
0.0
  0
LINE
  5
7F
  8
DEFAULT
 10
10532.76394994096
 20
-1902.709826299858
 30
0.0
 11
10530.76394994096
 21
-1902.709826299858
 31
0.0
  0
LINE
  5
80
  8
DEFAULT
 10
10529.82057426799
 20
-1904.343800896075
 30
0.0
 11
10530.82057426799
 21
-1906.075851703643
 31
0.0
  0
LINE
  5
81
  8
DEFAULT
 10
10523.02634563393
 20
-1910.575851703648
 30
0.0
 11
10531.76394994096
 21
-1925.709826299858
 31
0.0
  0
LINE
  5
82
  8
DEFAULT
 10
10531.76394994096
 20
-1925.709826299858
 30
0.0
 11
10540.501554248
 21
-1910.575851703638
 31
0.0
  0
LINE
  5
83
  8
DEFAULT
 10
10524.7583964415
 20
-1909.575851703648
 30
0.0
 11
10531.76394994096
 21
-1921.709826299859
 31
0.0
  0
LINE
  5
84
  8
DEFAULT
 10
10531.76394994096
 20
-1921.709826299859
 30
0.0
 11
10538.76950344043
 21
-1909.57585170364
 31
0.0
  0
LINE
  5
85
  8
DEFAULT
 10
10526.49044724907
 20
-1908.575851703647
 30
0.0
 11
10531.76394994096
 21
-1917.709826299859
 31
0.0
  0
LINE
  5
86
  8
DEFAULT
 10
10531.76394994096
 20
-1917.709826299859
 30
0.0
 11
10537.03745263286
 21
-1908.575851703642
 31
0.0
  0
LINE
  5
87
  8
DEFAULT
 10
10528.22249805663
 20
-1907.575851703645
 30
0.0
 11
10531.76394994096
 21
-1913.70982629986
 31
0.0
  0
LINE
  5
88
  8
DEFAULT
 10
10531.76394994096
 20
-1913.70982629986
 30
0.0
 11
10535.30540182529
 21
-1907.575851703643
 31
0.0
  0
LINE
  5
89
  8
DEFAULT
 10
10529.9545488642
 20
-1906.575851703645
 30
0.0
 11
10531.76394994096
 21
-1909.70982629986
 31
0.0
  0
LINE
  5
8A
  8
DEFAULT
 10
10531.76394994096
 20
-1909.70982629986
 30
0.0
 11
10533.57335101772
 21
-1906.575851703644
 31
0.0
  0
LINE
  5
8B
  8
DEFAULT
 10
10541.501554248
 20
-1908.84380089607
 30
0.0
 11
10550.23915855503
 21
-1893.709826299859
 31
0.0
  0
LINE
  5
8C
  8
DEFAULT
 10
10550.23915855503
 20
-1893.709826299859
 30
0.0
 11
10532.76394994095
 21
-1893.709826299858
 31
0.0
  0
LINE
  5
8D
  8
DEFAULT
 10
10530.76394994095
 20
-1893.709826299859
 30
0.0
 11
10513.28874132689
 21
-1893.709826299858
 31
0.0
  0
LINE
  5
8E
  8
DEFAULT
 10
10513.28874132689
 20
-1893.709826299858
 30
0.0
 11
10522.02634563393
 21
-1908.84380089608
 31
0.0
  0
LINE
  5
8F
  8
DEFAULT
 10
10539.76950344043
 20
-1907.843800896071
 30
0.0
 11
10546.77505693989
 21
-1895.709826299859
 31
0.0
  0
LINE
  5
90
  8
DEFAULT
 10
10546.77505693989
 20
-1895.709826299859
 30
0.0
 11
10532.76394994095
 21
-1895.709826299859
 31
0.0
  0
LINE
  5
91
  8
DEFAULT
 10
10530.76394994095
 20
-1895.709826299859
 30
0.0
 11
10516.75284294203
 21
-1895.709826299858
 31
0.0
  0
LINE
  5
92
  8
DEFAULT
 10
10516.75284294203
 20
-1895.709826299858
 30
0.0
 11
10523.7583964415
 21
-1907.843800896079
 31
0.0
  0
LINE
  5
93
  8
DEFAULT
 10
10538.03745263286
 20
-1906.843800896072
 30
0.0
 11
10543.31095532476
 21
-1897.709826299859
 31
0.0
  0
LINE
  5
94
  8
DEFAULT
 10
10543.31095532476
 20
-1897.709826299859
 30
0.0
 11
10532.76394994095
 21
-1897.709826299859
 31
0.0
  0
LINE
  5
95
  8
DEFAULT
 10
10530.76394994095
 20
-1897.709826299859
 30
0.0
 11
10520.21694455717
 21
-1897.709826299858
 31
0.0
  0
LINE
  5
96
  8
DEFAULT
 10
10520.21694455717
 20
-1897.709826299858
 30
0.0
 11
10525.49044724907
 21
-1906.843800896078
 31
0.0
  0
LINE
  5
97
  8
DEFAULT
 10
10536.30540182529
 20
-1905.843800896074
 30
0.0
 11
10539.84685370962
 21
-1899.709826299859
 31
0.0
  0
LINE
  5
98
  8
DEFAULT
 10
10539.84685370962
 20
-1899.709826299859
 30
0.0
 11
10532.76394994096
 21
-1899.709826299859
 31
0.0
  0
LINE
  5
99
  8
DEFAULT
 10
10530.76394994096
 20
-1899.709826299859
 30
0.0
 11
10523.6810461723
 21
-1899.709826299858
 31
0.0
  0
LINE
  5
9A
  8
DEFAULT
 10
10523.6810461723
 20
-1899.709826299858
 30
0.0
 11
10527.22249805664
 21
-1905.843800896077
 31
0.0
  0
LINE
  5
9B
  8
DEFAULT
 10
10534.57335101772
 20
-1904.843800896075
 30
0.0
 11
10536.38275209448
 21
-1901.709826299859
 31
0.0
  0
LINE
  5
9C
  8
DEFAULT
 10
10536.38275209448
 20
-1901.709826299859
 30
0.0
 11
10532.76394994096
 21
-1901.709826299859
 31
0.0
  0
LINE
  5
9D
  8
DEFAULT
 10
10530.76394994096
 20
-1901.709826299859
 30
0.0
 11
10527.14514778744
 21
-1901.709826299858
 31
0.0
  0
LINE
  5
9E
  8
DEFAULT
 10
10527.14514778744
 20
-1901.709826299858
 30
0.0
 11
10528.9545488642
 21
-1904.843800896076
 31
0.0
  0
LINE
  5
9F
  8
DEFAULT
 10
10531.76394994095
 20
-1904.376492966529
 30
0.0
 11
10532.27075224424
 21
-1904.083890520298
 31
0.0
  0
LINE
  5
A0
  8
DEFAULT
 10
10531.76394994095
 20
-1904.376492966529
 30
0.0
 11
10531.25714763766
 21
-1904.083890520298
 31
0.0
  0
LINE
  5
A1
  8
DEFAULT
 10
10531.76394994095
 20
-1904.376492966529
 30
0.0
 11
10531.76394994095
 21
-1904.96169785899
 31
0.0
  0
ENDSEC
  0
EOF
