  0
SECTION
  2
HEADER
  9
$ACADVER
  1
AC1014
  9
$HANDSEED
  5
FFFF
  9
$MEASUREMENT
 70
     1
  0
ENDSEC
  0
SECTION
  2
TABLES
  0
TABLE
  2
VPORT
  5
8
330
0
100
AcDbSymbolTable
 70
     4
  0
VPORT
  5
2E
330
8
100
AcDbSymbolTableRecord
100
AcDbViewportTableRecord
  2
*ACTIVE
 70
     0
 10
0.0
 20
0.0
 11
1.0
 21
1.0
 12
210.0
 22
148.5
 13
0.0
 23
0.0
 14
10.0
 24
10.0
 15
10.0
 25
10.0
 16
0.0
 26
0.0
 36
1.0
 17
0.0
 27
0.0
 37
0.0
 40
341.0
 41
1.24
 42
50.0
 43
0.0
 44
0.0
 50
0.0
 51
0.0
 71
     0
 72
   100
 73
     1
 74
     3
 75
     0
 76
     0
 77
     0
 78
     0
  0
ENDTAB
  0
TABLE
  2
LTYPE
  5
5
330
0
100
AcDbSymbolTable
 70
     1
  0
LTYPE
  5
14
330
5
100
AcDbSymbolTableRecord
100
AcDbLinetypeTableRecord
  2
BYBLOCK
 70
     0
  3

 72
    65
 73
     0
 40
0.0
  0
LTYPE
  5
15
330
5
100
AcDbSymbolTableRecord
100
AcDbLinetypeTableRecord
  2
BYLAYER
 70
     0
  3

 72
    65
 73
     0
 40
0.0
  0
LTYPE
  5
16
330
5
100
AcDbSymbolTableRecord
100
AcDbLinetypeTableRecord
  2
CONTINUOUS
 70
     0
  3
Solid line
 72
    65
 73
     0
 40
0.0
  0
ENDTAB
  0
TABLE
  2
LAYER
  5
2
100
AcDbSymbolTable
 70
1
  0
LAYER
  5
50
100
AcDbSymbolTableRecord
100
AcDbLayerTableRecord
  2
0
 70
0
  6
CONTINUOUS
  0
ENDTAB
  0
TABLE
  2
STYLE
  5
3
330
0
100
AcDbSymbolTable
 70
     1
  0
STYLE
  5
11
330
3
100
AcDbSymbolTableRecord
100
AcDbTextStyleTableRecord
  2
STANDARD
 70
     0
 40
0.0
 41
1.0
 50
0.0
 71
     0
 42
2.5
  3
txt
  4

  0
ENDTAB
  0
TABLE
  2
VIEW
  5
6
330
0
100
AcDbSymbolTable
 70
     0
  0
ENDTAB
  0
TABLE
  2
UCS
  5
7
330
0
100
AcDbSymbolTable
 70
     0
  0
ENDTAB
  0
TABLE
  2
APPID
  5
9
330
0
100
AcDbSymbolTable
 70
     2
  0
APPID
  5
12
330
9
100
AcDbSymbolTableRecord
100
AcDbRegAppTableRecord
  2
ACAD
 70
     0
  0
ENDTAB
  0
TABLE
  2
DIMSTYLE
  5
A
330
0
100
AcDbSymbolTable
 70
     1
  0
DIMSTYLE
105
27
330
A
100
AcDbSymbolTableRecord
100
AcDbDimStyleTableRecord
  2
ISO-25
 70
     0
  3

  4

  5

  6

  7

 40
1.0
 41
2.5
 42
0.625
 43
3.75
 44
1.25
 45
0.0
 46
0.0
 47
0.0
 48
0.0
140
2.5
141
2.5
142
0.0
143
0.03937007874016
144
1.0
145
0.0
146
1.0
147
0.625
 71
     0
 72
     0
 73
     0
 74
     0
 75
     0
 76
     0
 77
     1
 78
     8
170
     0
171
     3
172
     1
173
     0
174
     0
175
     0
176
     0
177
     0
178
     0
270
     2
271
     2
272
     2
273
     2
274
     3
340
11
275
     0
280
     0
281
     0
282
     0
283
     0
284
     8
285
     0
286
     0
287
     3
288
     0
  0
ENDTAB
  0
TABLE
  2
BLOCK_RECORD
  5
1
330
0
100
AcDbSymbolTable
 70
     1
  0
BLOCK_RECORD
  5
1F
330
1
100
AcDbSymbolTableRecord
100
AcDbBlockTableRecord
  2
*MODEL_SPACE
  0
BLOCK_RECORD
  5
1B
330
1
100
AcDbSymbolTableRecord
100
AcDbBlockTableRecord
  2
*PAPER_SPACE
  0
ENDTAB
  0
ENDSEC
  0
SECTION
  2
BLOCKS
  0
BLOCK
  5
20
330
1F
100
AcDbEntity
  8
0
100
AcDbBlockBegin
  2
*MODEL_SPACE
 70
     0
 10
0.0
 20
0.0
 30
0.0
  3
*MODEL_SPACE
  1

  0
ENDBLK
  5
21
330
1F
100
AcDbEntity
  8
0
100
AcDbBlockEnd
  0
BLOCK
  5
1C
330
1B
100
AcDbEntity
 67
     1
  8
0
100
AcDbBlockBegin
  2
*PAPER_SPACE
  1

  0
ENDBLK
  5
1D
330
1B
100
AcDbEntity
 67
     1
  8
0
100
AcDbBlockEnd
  0
ENDSEC
  0
SECTION
  2
ENTITIES
  0
SPLINE
  5
100
100
AcDbEntity
  8
0
 62
7
100
AcDbSpline
 70
8
 71
3
 72
8
 73
4
 74
0
 40
0
 40
0
 40
0
 40
0
 40
1
 40
1
 40
1
 40
1
 10
-3.611297
 20
55.596566
 30
0.0
 10
-15.580840
 20
55.557884
 30
0.0
 10
-25.162682
 20
55.180873
 30
0.0
 10
-37.216877
 20
57.342310
 30
0.0
  0
SPLINE
  5
101
100
AcDbEntity
  8
0
 62
7
100
AcDbSpline
 70
8
 71
3
 72
8
 73
4
 74
0
 40
0
 40
0
 40
0
 40
0
 40
1
 40
1
 40
1
 40
1
 10
-37.216877
 20
57.342310
 30
0.0
 10
-44.262798
 20
58.605714
 30
0.0
 10
-52.153434
 20
60.736415
 30
0.0
 10
-56.856501
 20
55.923893
 30
0.0
  0
SPLINE
  5
102
100
AcDbEntity
  8
0
 62
7
100
AcDbSpline
 70
8
 71
3
 72
8
 73
4
 74
0
 40
0
 40
0
 40
0
 40
0
 40
1
 40
1
 40
1
 40
1
 10
-56.856501
 20
55.923893
 30
0.0
 10
-58.647090
 20
54.091631
 30
0.0
 10
-59.975629
 20
51.252923
 30
0.0
 10
-59.584226
 20
48.940915
 30
0.0
  0
SPLINE
  5
103
100
AcDbEntity
  8
0
 62
7
100
AcDbSpline
 70
8
 71
3
 72
8
 73
4
 74
0
 40
0
 40
0
 40
0
 40
0
 40
1
 40
1
 40
1
 40
1
 10
-59.584226
 20
48.940915
 30
0.0
 10
-59.096686
 20
46.061024
 30
0.0
 10
-55.940522
 20
43.998350
 30
0.0
 10
-52.819467
 20
42.503483
 30
0.0
  0
SPLINE
  5
104
100
AcDbEntity
  8
0
 62
7
100
AcDbSpline
 70
8
 71
3
 72
8
 73
4
 74
0
 40
0
 40
0
 40
0
 40
0
 40
1
 40
1
 40
1
 40
1
 10
-52.819467
 20
42.503483
 30
0.0
 10
-44.766166
 20
38.646255
 30
0.0
 10
-36.946629
 20
38.569496
 30
0.0
 10
-29.142809
 20
38.030013
 30
0.0
  0
SPLINE
  5
105
100
AcDbEntity
  8
0
 62
7
100
AcDbSpline
 70
8
 71
3
 72
8
 73
4
 74
0
 40
0
 40
0
 40
0
 40
0
 40
1
 40
1
 40
1
 40
1
 10
-29.142809
 20
38.030013
 30
0.0
 10
-20.275565
 20
37.417014
 30
0.0
 10
-11.428615
 20
36.206589
 30
0.0
 10
-1.858218
 20
35.757614
 30
0.0
  0
SPLINE
  5
106
100
AcDbEntity
  8
0
 62
7
100
AcDbSpline
 70
8
 71
3
 72
8
 73
4
 74
0
 40
0
 40
0
 40
0
 40
0
 40
1
 40
1
 40
1
 40
1
 10
-1.858218
 20
35.757614
 30
0.0
 10
6.638937
 20
35.358989
 30
0.0
 10
15.706379
 20
35.560608
 30
0.0
 10
22.346689
 20
33.513451
 30
0.0
  0
SPLINE
  5
107
100
AcDbEntity
  8
0
 62
7
100
AcDbSpline
 70
8
 71
3
 72
8
 73
4
 74
0
 40
0
 40
0
 40
0
 40
0
 40
1
 40
1
 40
1
 40
1
 10
22.346689
 20
33.513451
 30
0.0
 10
26.718892
 20
32.165534
 30
0.0
 10
30.038849
 20
29.842695
 30
0.0
 10
36.292563
 20
25.658878
 30
0.0
  0
SPLINE
  5
108
100
AcDbEntity
  8
0
 62
7
100
AcDbSpline
 70
8
 71
3
 72
8
 73
4
 74
0
 40
0
 40
0
 40
0
 40
0
 40
1
 40
1
 40
1
 40
1
 10
36.292563
 20
25.658878
 30
0.0
 10
37.709744
 20
24.710766
 30
0.0
 10
39.277585
 20
23.667084
 30
0.0
 10
38.857321
 20
23.094120
 30
0.0
  0
SPLINE
  5
109
100
AcDbEntity
  8
0
 62
7
100
AcDbSpline
 70
8
 71
3
 72
8
 73
4
 74
0
 40
0
 40
0
 40
0
 40
0
 40
1
 40
1
 40
1
 40
1
 10
38.857321
 20
23.094120
 30
0.0
 10
38.622386
 20
22.773824
 30
0.0
 10
37.766168
 20
22.600626
 30
0.0
 10
36.933752
 20
22.452930
 30
0.0
  0
SPLINE
  5
10a
100
AcDbEntity
  8
0
 62
7
100
AcDbSpline
 70
8
 71
3
 72
8
 73
4
 74
0
 40
0
 40
0
 40
0
 40
0
 40
1
 40
1
 40
1
 40
1
 10
36.933752
 20
22.452930
 30
0.0
 10
27.798720
 20
20.832103
 30
0.0
 10
21.530148
 20
22.282502
 30
0.0
 10
14.812711
 20
20.048470
 30
0.0
  0
SPLINE
  5
10b
100
AcDbEntity
  8
0
 62
7
100
AcDbSpline
 70
8
 71
3
 72
8
 73
4
 74
0
 40
0
 40
0
 40
0
 40
0
 40
1
 40
1
 40
1
 40
1
 10
14.812711
 20
20.048470
 30
0.0
 10
7.091884
 20
17.480737
 30
0.0
 10
-1.221918
 20
10.045671
 30
0.0
 10
0.000000
 20
0.973079
 30
0.0
  0
SPLINE
  5
10c
100
AcDbEntity
  8
0
 62
7
100
AcDbSpline
 70
8
 71
3
 72
8
 73
4
 74
0
 40
0
 40
0
 40
0
 40
0
 40
1
 40
1
 40
1
 40
1
 10
4.385557
 20
78.878587
 30
0.0
 10
-7.884400
 20
79.006080
 30
0.0
 10
-11.624739
 20
62.391586
 30
0.0
 10
-3.611297
 20
55.596566
 30
0.0
  0
SPLINE
  5
10d
100
AcDbEntity
  8
0
 62
7
100
AcDbSpline
 70
8
 71
3
 72
8
 73
4
 74
0
 40
0
 40
0
 40
0
 40
0
 40
1
 40
1
 40
1
 40
1
 10
17.988943
 20
98.326489
 30
0.0
 10
6.106048
 20
105.266970
 30
0.0
 10
-7.328392
 20
85.518769
 30
0.0
 10
4.385557
 20
78.878587
 30
0.0
  0
SPLINE
  5
10e
100
AcDbEntity
  8
0
 62
7
100
AcDbSpline
 70
8
 71
3
 72
8
 73
4
 74
0
 40
0
 40
0
 40
0
 40
0
 40
1
 40
1
 40
1
 40
1
 10
109.042555
 20
89.158247
 30
0.0
 10
95.598125
 20
93.332945
 30
0.0
 10
83.554591
 20
102.339994
 30
0.0
 10
69.876026
 20
105.664056
 30
0.0
  0
SPLINE
  5
10f
100
AcDbEntity
  8
0
 62
7
100
AcDbSpline
 70
8
 71
3
 72
8
 73
4
 74
0
 40
0
 40
0
 40
0
 40
0
 40
1
 40
1
 40
1
 40
1
 10
69.876026
 20
105.664056
 30
0.0
 10
64.398692
 20
106.995116
 30
0.0
 10
58.659188
 20
107.414935
 30
0.0
 10
52.999621
 20
107.865326
 30
0.0
  0
SPLINE
  5
110
100
AcDbEntity
  8
0
 62
7
100
AcDbSpline
 70
8
 71
3
 72
8
 73
4
 74
0
 40
0
 40
0
 40
0
 40
0
 40
1
 40
1
 40
1
 40
1
 10
52.999621
 20
107.865326
 30
0.0
 10
48.493983
 20
108.223887
 30
0.0
 10
44.039008
 20
108.601826
 30
0.0
 10
39.582355
 20
109.752129
 30
0.0
  0
SPLINE
  5
111
100
AcDbEntity
  8
0
 62
7
100
AcDbSpline
 70
8
 71
3
 72
8
 73
4
 74
0
 40
0
 40
0
 40
0
 40
0
 40
1
 40
1
 40
1
 40
1
 10
39.582355
 20
109.752129
 30
0.0
 10
36.113037
 20
110.647592
 30
0.0
 10
32.642702
 20
112.011106
 30
0.0
 10
29.204939
 20
111.638932
 30
0.0
  0
SPLINE
  5
112
100
AcDbEntity
  8
0
 62
7
100
AcDbSpline
 70
8
 71
3
 72
8
 73
4
 74
0
 40
0
 40
0
 40
0
 40
0
 40
1
 40
1
 40
1
 40
1
 10
29.204939
 20
111.638932
 30
0.0
 10
23.109948
 20
110.979086
 30
0.0
 10
17.117339
 20
104.863352
 30
0.0
 10
17.988943
 20
98.326489
 30
0.0
  0
SPLINE
  5
113
100
AcDbEntity
  8
0
 62
7
100
AcDbSpline
 70
8
 71
3
 72
8
 73
4
 74
0
 40
0
 40
0
 40
0
 40
0
 40
1
 40
1
 40
1
 40
1
 10
112.912033
 20
92.310885
 30
0.0
 10
110.290274
 20
93.394343
 30
0.0
 10
109.000448
 20
92.343464
 30
0.0
 10
109.042555
 20
89.158247
 30
0.0
  0
LWPOLYLINE
  5
114
100
AcDbEntity
  8
0
 62
7
100
AcDbPolyline
 90
2
 70
0
 10
112.912033
 20
39.115045
 30
0.0
 10
120.912033
 20
39.115045
 30
0.0
  0
LWPOLYLINE
  5
115
100
AcDbEntity
  8
0
 62
7
100
AcDbPolyline
 90
3
 70
0
 10
120.912033
 20
64.115045
 30
0.0
 10
112.912033
 20
64.115045
 30
0.0
 10
112.912033
 20
92.310885
 30
0.0
  0
SPLINE
  5
116
100
AcDbEntity
  8
0
 62
7
100
AcDbSpline
 70
8
 71
3
 72
8
 73
4
 74
0
 40
0
 40
0
 40
0
 40
0
 40
1
 40
1
 40
1
 40
1
 10
93.037841
 20
20.048470
 30
0.0
 10
99.678771
 20
20.465971
 30
0.0
 10
106.521117
 20
20.228144
 30
0.0
 10
112.912033
 20
18.219038
 30
0.0
  0
SPLINE
  5
117
100
AcDbEntity
  8
0
 62
7
100
AcDbSpline
 70
8
 71
3
 72
8
 73
4
 74
0
 40
0
 40
0
 40
0
 40
0
 40
1
 40
1
 40
1
 40
1
 10
0.000000
 20
0.973079
 30
0.0
 10
10.260766
 20
-1.135285
 30
0.0
 10
20.695825
 20
0.712943
 30
0.0
 10
31.002749
 20
1.133377
 30
0.0
  0
SPLINE
  5
118
100
AcDbEntity
  8
0
 62
7
100
AcDbSpline
 70
8
 71
3
 72
8
 73
4
 74
0
 40
0
 40
0
 40
0
 40
0
 40
1
 40
1
 40
1
 40
1
 10
31.002749
 20
1.133377
 30
0.0
 10
36.477481
 20
1.356699
 30
0.0
 10
41.916061
 20
1.177180
 30
0.0
 10
47.513381
 20
1.133377
 30
0.0
  0
SPLINE
  5
119
100
AcDbEntity
  8
0
 62
7
100
AcDbSpline
 70
8
 71
3
 72
8
 73
4
 74
0
 40
0
 40
0
 40
0
 40
0
 40
1
 40
1
 40
1
 40
1
 10
47.513381
 20
1.133377
 30
0.0
 10
52.710450
 20
1.092706
 30
0.0
 10
58.044368
 20
1.169036
 30
0.0
 10
62.741633
 20
2.896648
 30
0.0
  0
SPLINE
  5
11a
100
AcDbEntity
  8
0
 62
7
100
AcDbSpline
 70
8
 71
3
 72
8
 73
4
 74
0
 40
0
 40
0
 40
0
 40
0
 40
1
 40
1
 40
1
 40
1
 10
62.741633
 20
2.896648
 30
0.0
 10
73.417457
 20
6.823121
 30
0.0
 10
80.804644
 20
19.279298
 30
0.0
 10
93.037841
 20
20.048470
 30
0.0
  0
SPLINE
  5
11b
100
AcDbEntity
  8
0
 62
7
100
AcDbSpline
 70
8
 71
3
 72
8
 73
4
 74
0
 40
0
 40
0
 40
0
 40
0
 40
1
 40
1
 40
1
 40
1
 10
158.842659
 20
50.214015
 30
0.0
 10
158.842659
 20
50.214015
 30
0.0
 10
128.842657
 20
50.214015
 30
0.0
 10
128.842657
 20
50.214015
 30
0.0
  0
SPLINE
  5
11c
100
AcDbEntity
  8
0
 62
7
100
AcDbSpline
 70
8
 71
3
 72
8
 73
4
 74
0
 40
0
 40
0
 40
0
 40
0
 40
1
 40
1
 40
1
 40
1
 10
128.842657
 20
50.214015
 30
0.0
 10
145.138290
 20
32.122765
 30
0.0
 10
167.543320
 20
20.689825
 30
0.0
 10
191.754692
 20
18.110977
 30
0.0
  0
LWPOLYLINE
  5
11d
100
AcDbEntity
  8
0
 62
7
100
AcDbPolyline
 90
2
 70
0
 10
112.912033
 20
18.219038
 30
0.0
 10
112.912033
 20
39.115045
 30
0.0
  0
SPLINE
  5
11e
100
AcDbEntity
  8
0
 62
7
100
AcDbSpline
 70
8
 71
3
 72
8
 73
4
 74
0
 40
0
 40
0
 40
0
 40
0
 40
1
 40
1
 40
1
 40
1
 10
191.754692
 20
54.810695
 30
0.0
 10
191.754692
 20
54.810695
 30
0.0
 10
191.754692
 20
86.810696
 30
0.0
 10
191.754692
 20
86.810696
 30
0.0
  0
SPLINE
  5
11f
100
AcDbEntity
  8
0
 62
7
100
AcDbSpline
 70
8
 71
3
 72
8
 73
4
 74
0
 40
0
 40
0
 40
0
 40
0
 40
1
 40
1
 40
1
 40
1
 10
191.754692
 20
86.810696
 30
0.0
 10
167.375978
 20
84.812404
 30
0.0
 10
144.769375
 20
73.278889
 30
0.0
 10
128.842657
 20
54.714014
 30
0.0
  0
LWPOLYLINE
  5
120
100
AcDbEntity
  8
0
 62
7
100
AcDbPolyline
 90
5
 70
1
 10
191.754692
 20
18.110977
 30
0.0
 10
191.754692
 20
50.110976
 30
0.0
 10
199.754690
 20
50.110976
 30
0.0
 10
199.754690
 20
54.810977
 30
0.0
 10
191.754692
 20
54.810695
 30
0.0
  0
LWPOLYLINE
  5
121
100
AcDbEntity
  8
0
 62
7
100
AcDbPolyline
 90
4
 70
1
 10
128.842657
 20
54.714014
 30
0.0
 10
158.842659
 20
54.714014
 30
0.0
 10
158.842659
 20
50.214015
 30
0.0
 10
158.842659
 20
50.214015
 30
0.0
  0
LWPOLYLINE
  5
122
100
AcDbEntity
  8
0
 62
7
100
AcDbPolyline
 90
2
 70
0
 10
120.912033
 20
54.115045
 30
0.0
 10
78.487615
 20
54.115045
 30
0.0
  0
LWPOLYLINE
  5
123
100
AcDbEntity
  8
0
 62
7
100
AcDbPolyline
 90
2
 70
0
 10
78.487615
 20
49.615044
 30
0.0
 10
120.912033
 20
49.615044
 30
0.0
  0
LWPOLYLINE
  5
124
100
AcDbEntity
  8
0
 62
7
100
AcDbPolyline
 90
2
 70
0
 10
78.487615
 20
54.115045
 30
0.0
 10
78.487615
 20
49.615044
 30
0.0
  0
LWPOLYLINE
  5
125
100
AcDbEntity
  8
0
 62
7
100
AcDbPolyline
 90
2
 70
0
 10
120.912033
 20
39.115045
 30
0.0
 10
120.912033
 20
49.615044
 30
0.0
  0
LWPOLYLINE
  5
126
100
AcDbEntity
  8
0
 62
7
100
AcDbPolyline
 90
2
 70
0
 10
120.912033
 20
54.115045
 30
0.0
 10
120.912033
 20
64.115045
 30
0.0
  0
LWPOLYLINE
  5
127
100
AcDbEntity
  8
0
 62
7
100
AcDbPolyline
 90
4
 70
0
 10
112.812720
 20
150.456475
 30
0.0
 10
120.841846
 20
150.456472
 30
0.0
 10
120.841846
 20
144.964064
 30
0.0
 10
112.823744
 20
144.964064
 30
0.0
  0
LWPOLYLINE
  5
128
100
AcDbEntity
  8
0
 62
7
100
AcDbPolyline
 90
3
 70
0
 10
39.652222
 20
150.424451
 30
0.0
 10
70.273333
 20
174.413340
 30
0.0
 10
112.888889
 20
183.726674
 30
0.0
  0
LWPOLYLINE
  5
129
100
AcDbEntity
  8
0
 62
7
100
AcDbPolyline
 90
3
 70
0
 10
39.934444
 20
145.408177
 30
0.0
 10
70.273333
 20
120.854844
 30
0.0
 10
112.888889
 20
111.541505
 30
0.0
  0
LWPOLYLINE
  5
12a
100
AcDbEntity
  8
0
 62
7
100
AcDbPolyline
 90
4
 70
0
 10
112.677222
 20
183.656118
 30
0.0
 10
112.888889
 20
150.495007
 30
0.0
 10
112.959444
 20
150.424451
 30
0.0
 10
112.959444
 20
150.424451
 30
0.0
  0
LWPOLYLINE
  5
12b
100
AcDbEntity
  8
0
 62
7
100
AcDbPolyline
 90
2
 70
0
 10
112.888889
 20
144.991674
 30
0.0
 10
112.747778
 20
111.618896
 30
0.0
  0
LWPOLYLINE
  5
12c
100
AcDbEntity
  8
0
 62
7
100
AcDbPolyline
 90
4
 70
0
 10
39.712688
 20
150.668749
 30
0.0
 10
77.729105
 20
150.568966
 30
0.0
 10
77.729105
 20
145.280593
 30
0.0
 10
40.012030
 20
145.280593
 30
0.0
  0
ENDSEC
  0
SECTION
  2
OBJECTS
  0
DICTIONARY
  5
C
330
0
100
AcDbDictionary
  3
ACAD_GROUP
350
D
  3
ACAD_MLINESTYLE
350
17
  0
DICTIONARY
  5
D
330
C
100
AcDbDictionary
  0
DICTIONARY
  5
1A
330
C
100
AcDbDictionary
  0
DICTIONARY
  5
17
330
C
100
AcDbDictionary
  3
STANDARD
350
18
  0
DICTIONARY
  5
19
330
C
100
AcDbDictionary
  0
ENDSEC
  0
EOF
