  0
SECTION
  2
HEADER
  9
$ACADVER
  1
AC1014
  9
$HANDSEED
  5
FFFF
  9
$MEASUREMENT
 70
     1
  0
ENDSEC
  0
SECTION
  2
TABLES
  0
TABLE
  2
VPORT
  5
8
330
0
100
AcDbSymbolTable
 70
     4
  0
VPORT
  5
2E
330
8
100
AcDbSymbolTableRecord
100
AcDbViewportTableRecord
  2
*ACTIVE
 70
     0
 10
0.0
 20
0.0
 11
1.0
 21
1.0
 12
210.0
 22
148.5
 13
0.0
 23
0.0
 14
10.0
 24
10.0
 15
10.0
 25
10.0
 16
0.0
 26
0.0
 36
1.0
 17
0.0
 27
0.0
 37
0.0
 40
341.0
 41
1.24
 42
50.0
 43
0.0
 44
0.0
 50
0.0
 51
0.0
 71
     0
 72
   100
 73
     1
 74
     3
 75
     0
 76
     0
 77
     0
 78
     0
  0
ENDTAB
  0
TABLE
  2
LTYPE
  5
5
330
0
100
AcDbSymbolTable
 70
     1
  0
LTYPE
  5
14
330
5
100
AcDbSymbolTableRecord
100
AcDbLinetypeTableRecord
  2
BYBLOCK
 70
     0
  3

 72
    65
 73
     0
 40
0.0
  0
LTYPE
  5
15
330
5
100
AcDbSymbolTableRecord
100
AcDbLinetypeTableRecord
  2
BYLAYER
 70
     0
  3

 72
    65
 73
     0
 40
0.0
  0
LTYPE
  5
16
330
5
100
AcDbSymbolTableRecord
100
AcDbLinetypeTableRecord
  2
CONTINUOUS
 70
     0
  3
Solid line
 72
    65
 73
     0
 40
0.0
  0
ENDTAB
  0
TABLE
  2
LAYER
  5
2
100
AcDbSymbolTable
 70
1
  0
LAYER
  5
50
100
AcDbSymbolTableRecord
100
AcDbLayerTableRecord
  2
0
 70
0
  6
CONTINUOUS
  0
ENDTAB
  0
TABLE
  2
STYLE
  5
3
330
0
100
AcDbSymbolTable
 70
     1
  0
STYLE
  5
11
330
3
100
AcDbSymbolTableRecord
100
AcDbTextStyleTableRecord
  2
STANDARD
 70
     0
 40
0.0
 41
1.0
 50
0.0
 71
     0
 42
2.5
  3
txt
  4

  0
ENDTAB
  0
TABLE
  2
VIEW
  5
6
330
0
100
AcDbSymbolTable
 70
     0
  0
ENDTAB
  0
TABLE
  2
UCS
  5
7
330
0
100
AcDbSymbolTable
 70
     0
  0
ENDTAB
  0
TABLE
  2
APPID
  5
9
330
0
100
AcDbSymbolTable
 70
     2
  0
APPID
  5
12
330
9
100
AcDbSymbolTableRecord
100
AcDbRegAppTableRecord
  2
ACAD
 70
     0
  0
ENDTAB
  0
TABLE
  2
DIMSTYLE
  5
A
330
0
100
AcDbSymbolTable
 70
     1
  0
DIMSTYLE
105
27
330
A
100
AcDbSymbolTableRecord
100
AcDbDimStyleTableRecord
  2
ISO-25
 70
     0
  3

  4

  5

  6

  7

 40
1.0
 41
2.5
 42
0.625
 43
3.75
 44
1.25
 45
0.0
 46
0.0
 47
0.0
 48
0.0
140
2.5
141
2.5
142
0.0
143
0.03937007874016
144
1.0
145
0.0
146
1.0
147
0.625
 71
     0
 72
     0
 73
     0
 74
     0
 75
     0
 76
     0
 77
     1
 78
     8
170
     0
171
     3
172
     1
173
     0
174
     0
175
     0
176
     0
177
     0
178
     0
270
     2
271
     2
272
     2
273
     2
274
     3
340
11
275
     0
280
     0
281
     0
282
     0
283
     0
284
     8
285
     0
286
     0
287
     3
288
     0
  0
ENDTAB
  0
TABLE
  2
BLOCK_RECORD
  5
1
330
0
100
AcDbSymbolTable
 70
     1
  0
BLOCK_RECORD
  5
1F
330
1
100
AcDbSymbolTableRecord
100
AcDbBlockTableRecord
  2
*MODEL_SPACE
  0
BLOCK_RECORD
  5
1B
330
1
100
AcDbSymbolTableRecord
100
AcDbBlockTableRecord
  2
*PAPER_SPACE
  0
ENDTAB
  0
ENDSEC
  0
SECTION
  2
BLOCKS
  0
BLOCK
  5
20
330
1F
100
AcDbEntity
  8
0
100
AcDbBlockBegin
  2
*MODEL_SPACE
 70
     0
 10
0.0
 20
0.0
 30
0.0
  3
*MODEL_SPACE
  1

  0
ENDBLK
  5
21
330
1F
100
AcDbEntity
  8
0
100
AcDbBlockEnd
  0
BLOCK
  5
1C
330
1B
100
AcDbEntity
 67
     1
  8
0
100
AcDbBlockBegin
  2
*PAPER_SPACE
  1

  0
ENDBLK
  5
1D
330
1B
100
AcDbEntity
 67
     1
  8
0
100
AcDbBlockEnd
  0
ENDSEC
  0
SECTION
  2
ENTITIES
  0
SPLINE
  5
100
100
AcDbEntity
  8
0
 62
7
100
AcDbSpline
 70
8
 71
3
 72
8
 73
4
 74
0
 40
0
 40
0
 40
0
 40
0
 40
1
 40
1
 40
1
 40
1
 10
95.442984
 20
33.068952
 30
0.0
 10
59.716622
 20
51.207080
 30
0.0
 10
30.272278
 20
66.261056
 30
0.0
 10
30.011106
 20
66.522224
 30
0.0
  0
SPLINE
  5
101
100
AcDbEntity
  8
0
 62
7
100
AcDbSpline
 70
8
 71
3
 72
8
 73
4
 74
0
 40
0
 40
0
 40
0
 40
0
 40
1
 40
1
 40
1
 40
1
 10
30.011106
 20
66.522224
 30
0.0
 10
29.634803
 20
66.898528
 30
0.0
 10
23.594130
 20
116.557912
 30
0.0
 10
16.012799
 20
181.600000
 30
0.0
  0
SPLINE
  5
102
100
AcDbEntity
  8
0
 62
7
100
AcDbSpline
 70
8
 71
3
 72
8
 73
4
 74
0
 40
0
 40
0
 40
0
 40
0
 40
1
 40
1
 40
1
 40
1
 10
16.012799
 20
181.600000
 30
0.0
 10
15.576863
 20
185.340000
 30
0.0
 10
11.806658
 20
217.361008
 30
0.0
 10
7.634564
 20
252.757800
 30
0.0
  0
SPLINE
  5
103
100
AcDbEntity
  8
0
 62
7
100
AcDbSpline
 70
8
 71
3
 72
8
 73
4
 74
0
 40
0
 40
0
 40
0
 40
0
 40
1
 40
1
 40
1
 40
1
 10
7.634564
 20
252.757800
 30
0.0
 10
3.462470
 20
288.154594
 30
0.0
 10
0.127928
 20
317.172130
 30
0.0
 10
0.224470
 20
317.241215
 30
0.0
  0
SPLINE
  5
104
100
AcDbEntity
  8
0
 62
7
100
AcDbSpline
 70
8
 71
3
 72
8
 73
4
 74
0
 40
0
 40
0
 40
0
 40
0
 40
1
 40
1
 40
1
 40
1
 10
0.224470
 20
317.241215
 30
0.0
 10
0.321011
 20
317.310300
 30
0.0
 10
24.269914
 20
328.430163
 30
0.0
 10
53.444252
 20
341.952022
 30
0.0
  0
SPLINE
  5
105
100
AcDbEntity
  8
0
 62
7
100
AcDbSpline
 70
8
 71
3
 72
8
 73
4
 74
0
 40
0
 40
0
 40
0
 40
0
 40
1
 40
1
 40
1
 40
1
 10
53.444252
 20
341.952022
 30
0.0
 10
83.823848
 20
356.032498
 30
0.0
 10
107.011064
 20
366.336696
 30
0.0
 10
107.711496
 20
366.067914
 30
0.0
  0
SPLINE
  5
106
100
AcDbEntity
  8
0
 62
7
100
AcDbSpline
 70
8
 71
3
 72
8
 73
4
 74
0
 40
0
 40
0
 40
0
 40
0
 40
1
 40
1
 40
1
 40
1
 10
107.711496
 20
366.067914
 30
0.0
 10
108.645872
 20
365.709360
 30
0.0
 10
189.377408
 20
318.774050
 30
0.0
 10
195.200000
 20
315.204271
 30
0.0
  0
SPLINE
  5
107
100
AcDbEntity
  8
0
 62
7
100
AcDbSpline
 70
8
 71
3
 72
8
 73
4
 74
0
 40
0
 40
0
 40
0
 40
0
 40
1
 40
1
 40
1
 40
1
 10
195.200000
 20
315.204271
 30
0.0
 10
195.860000
 20
314.799631
 30
0.0
 10
197.840000
 20
313.605106
 30
0.0
 10
199.600000
 20
312.549772
 30
0.0
  0
SPLINE
  5
108
100
AcDbEntity
  8
0
 62
7
100
AcDbSpline
 70
8
 71
3
 72
8
 73
4
 74
0
 40
0
 40
0
 40
0
 40
0
 40
1
 40
1
 40
1
 40
1
 10
263.430584
 20
316.218242
 30
0.0
 10
296.777400
 20
319.291235
 30
0.0
 10
324.249616
 20
321.617054
 30
0.0
 10
324.479936
 20
321.386730
 30
0.0
  0
SPLINE
  5
109
100
AcDbEntity
  8
0
 62
7
100
AcDbSpline
 70
8
 71
3
 72
8
 73
4
 74
0
 40
0
 40
0
 40
0
 40
0
 40
1
 40
1
 40
1
 40
1
 10
324.479936
 20
321.386730
 30
0.0
 10
324.860144
 20
321.006523
 30
0.0
 10
294.657704
 20
66.298000
 30
0.0
 10
294.197080
 20
65.999984
 30
0.0
  0
SPLINE
  5
10a
100
AcDbEntity
  8
0
 62
7
100
AcDbSpline
 70
8
 71
3
 72
8
 73
4
 74
0
 40
0
 40
0
 40
0
 40
0
 40
1
 40
1
 40
1
 40
1
 10
294.197080
 20
65.999984
 30
0.0
 10
293.417280
 20
65.495464
 30
0.0
 10
160.787160
 20
0.009784
 30
0.0
 10
160.617024
 20
0.045272
 30
0.0
  0
SPLINE
  5
10b
100
AcDbEntity
  8
0
 62
7
100
AcDbSpline
 70
8
 71
3
 72
8
 73
4
 74
0
 40
0
 40
0
 40
0
 40
0
 40
1
 40
1
 40
1
 40
1
 10
160.617024
 20
0.045272
 30
0.0
 10
160.497664
 20
0.070152
 30
0.0
 10
131.169344
 20
14.930824
 30
0.0
 10
95.442984
 20
33.068952
 30
0.0
  0
LWPOLYLINE
  5
10c
100
AcDbEntity
  8
0
 62
7
100
AcDbPolyline
 90
3
 70
1
 10
199.600000
 20
312.549772
 30
0.0
 10
202.800000
 20
310.630982
 30
0.0
 10
263.430584
 20
316.218242
 30
0.0
  0
SPLINE
  5
10d
100
AcDbEntity
  8
0
 62
7
100
AcDbSpline
 70
8
 71
3
 72
8
 73
4
 74
0
 40
0
 40
0
 40
0
 40
0
 40
1
 40
1
 40
1
 40
1
 10
215.849960
 20
120.749856
 30
0.0
 10
216.427440
 20
121.063176
 30
0.0
 10
222.267680
 20
125.792632
 30
0.0
 10
228.828272
 20
131.259760
 30
0.0
  0
LWPOLYLINE
  5
10e
100
AcDbEntity
  8
0
 62
7
100
AcDbPolyline
 90
2
 70
1
 10
95.442984
 20
33.068952
 30
0.0
 10
95.442984
 20
33.068952
 30
0.0
  0
SPLINE
  5
10f
100
AcDbEntity
  8
0
 62
7
100
AcDbSpline
 70
8
 71
3
 72
8
 73
4
 74
0
 40
0
 40
0
 40
0
 40
0
 40
1
 40
1
 40
1
 40
1
 10
186.491112
 20
255.599936
 30
0.0
 10
177.585280
 20
253.710920
 30
0.0
 10
170.192864
 20
252.038160
 30
0.0
 10
170.063528
 20
251.882688
 30
0.0
  0
SPLINE
  5
110
100
AcDbEntity
  8
0
 62
7
100
AcDbSpline
 70
8
 71
3
 72
8
 73
4
 74
0
 40
0
 40
0
 40
0
 40
0
 40
1
 40
1
 40
1
 40
1
 10
170.063528
 20
251.882688
 30
0.0
 10
169.934192
 20
251.727208
 30
0.0
 10
165.617712
 20
245.897984
 30
0.0
 10
160.471352
 20
238.928856
 30
0.0
  0
LWPOLYLINE
  5
111
100
AcDbEntity
  8
0
 62
7
100
AcDbPolyline
 90
7
 70
1
 10
228.828272
 20
131.259760
 30
0.0
 10
240.756624
 20
141.200000
 30
0.0
 10
240.778304
 20
182.502048
 30
0.0
 10
240.799984
 20
223.804096
 30
0.0
 10
221.741760
 20
241.419304
 30
0.0
 10
202.683536
 20
259.034504
 30
0.0
 10
186.491112
 20
255.599936
 30
0.0
  0
SPLINE
  5
112
100
AcDbEntity
  8
0
 62
7
100
AcDbSpline
 70
8
 71
3
 72
8
 73
4
 74
0
 40
0
 40
0
 40
0
 40
0
 40
1
 40
1
 40
1
 40
1
 10
157.257072
 20
207.728856
 30
0.0
 10
160.635584
 20
197.537984
 30
0.0
 10
163.669336
 20
188.903520
 30
0.0
 10
163.998736
 20
188.541160
 30
0.0
  0
SPLINE
  5
113
100
AcDbEntity
  8
0
 62
7
100
AcDbSpline
 70
8
 71
3
 72
8
 73
4
 74
0
 40
0
 40
0
 40
0
 40
0
 40
1
 40
1
 40
1
 40
1
 10
163.998736
 20
188.541160
 30
0.0
 10
164.578152
 20
187.903784
 30
0.0
 10
174.348344
 20
192.464448
 30
0.0
 10
184.576728
 20
198.146856
 30
0.0
  0
LWPOLYLINE
  5
114
100
AcDbEntity
  8
0
 62
7
100
AcDbPolyline
 90
3
 70
1
 10
160.471352
 20
238.928856
 30
0.0
 10
151.114328
 20
226.257712
 30
0.0
 10
157.257072
 20
207.728856
 30
0.0
  0
SPLINE
  5
115
100
AcDbEntity
  8
0
 62
7
100
AcDbSpline
 70
8
 71
3
 72
8
 73
4
 74
0
 40
0
 40
0
 40
0
 40
0
 40
1
 40
1
 40
1
 40
1
 10
205.820320
 20
174.521200
 30
0.0
 10
197.316672
 20
169.188736
 30
0.0
 10
194.639680
 20
168.022912
 30
0.0
 10
177.014712
 20
161.976416
 30
0.0
  0
LWPOLYLINE
  5
116
100
AcDbEntity
  8
0
 62
7
100
AcDbPolyline
 90
11
 70
1
 10
184.576728
 20
198.146856
 30
0.0
 10
189.553480
 20
200.911696
 30
0.0
 10
183.172016
 20
213.655848
 30
0.0
 10
176.790576
 20
226.400000
 30
0.0
 10
189.920096
 20
226.400000
 30
0.0
 10
203.049616
 20
226.400000
 30
0.0
 10
209.124808
 20
219.708296
 30
0.0
 10
215.200000
 20
213.016592
 30
0.0
 10
215.197600
 20
196.708296
 30
0.0
 10
215.195200
 20
180.400000
 30
0.0
 10
205.820320
 20
174.521200
 30
0.0
  0
SPLINE
  5
117
100
AcDbEntity
  8
0
 62
7
100
AcDbSpline
 70
8
 71
3
 72
8
 73
4
 74
0
 40
0
 40
0
 40
0
 40
0
 40
1
 40
1
 40
1
 40
1
 10
118.798720
 20
257.674424
 30
0.0
 10
125.618016
 20
271.421568
 30
0.0
 10
131.041704
 20
282.824968
 30
0.0
 10
130.851360
 20
283.015312
 30
0.0
  0
SPLINE
  5
118
100
AcDbEntity
  8
0
 62
7
100
AcDbSpline
 70
8
 71
3
 72
8
 73
4
 74
0
 40
0
 40
0
 40
0
 40
0
 40
1
 40
1
 40
1
 40
1
 10
130.851360
 20
283.015312
 30
0.0
 10
130.661016
 20
283.205656
 30
0.0
 10
125.043016
 20
280.545512
 30
0.0
 10
118.366920
 20
277.103880
 30
0.0
  0
LWPOLYLINE
  5
119
100
AcDbEntity
  8
0
 62
7
100
AcDbPolyline
 90
9
 70
1
 10
177.014712
 20
161.976416
 30
0.0
 10
157.583992
 20
155.310432
 30
0.0
 10
141.392152
 20
158.475480
 30
0.0
 10
125.200000
 20
161.640528
 30
0.0
 10
115.800000
 20
171.007760
 30
0.0
 10
106.400000
 20
180.374992
 30
0.0
 10
106.400000
 20
206.527304
 30
0.0
 10
106.400000
 20
232.679616
 30
0.0
 10
118.798720
 20
257.674424
 30
0.0
  0
SPLINE
  5
11a
100
AcDbEntity
  8
0
 62
7
100
AcDbSpline
 70
8
 71
3
 72
8
 73
4
 74
0
 40
0
 40
0
 40
0
 40
0
 40
1
 40
1
 40
1
 40
1
 10
97.037000
 20
151.754584
 30
0.0
 10
104.977856
 20
143.479600
 30
0.0
 10
112.043064
 20
136.407880
 30
0.0
 10
112.737464
 20
136.039648
 30
0.0
  0
SPLINE
  5
11b
100
AcDbEntity
  8
0
 62
7
100
AcDbSpline
 70
8
 71
3
 72
8
 73
4
 74
0
 40
0
 40
0
 40
0
 40
0
 40
1
 40
1
 40
1
 40
1
 10
112.737464
 20
136.039648
 30
0.0
 10
113.431856
 20
135.671416
 30
0.0
 10
123.783888
 20
132.617344
 30
0.0
 10
135.741968
 20
129.252832
 30
0.0
  0
LWPOLYLINE
  5
11c
100
AcDbEntity
  8
0
 62
7
100
AcDbPolyline
 90
7
 70
1
 10
118.366920
 20
277.103880
 30
0.0
 10
106.228568
 20
270.846368
 30
0.0
 10
91.270248
 20
250.287816
 30
0.0
 10
76.311929
 20
229.729256
 30
0.0
 10
79.455502
 20
198.264632
 30
0.0
 10
82.599072
 20
166.800000
 30
0.0
 10
97.037000
 20
151.754584
 30
0.0
  0
SPLINE
  5
11d
100
AcDbEntity
  8
0
 62
7
100
AcDbSpline
 70
8
 71
3
 72
8
 73
4
 74
0
 40
0
 40
0
 40
0
 40
0
 40
1
 40
1
 40
1
 40
1
 10
176.941968
 20
132.871072
 30
0.0
 10
188.762120
 20
138.785120
 30
0.0
 10
199.697264
 20
143.659376
 30
0.0
 10
204.800000
 20
145.288592
 30
0.0
  0
SPLINE
  5
11e
100
AcDbEntity
  8
0
 62
7
100
AcDbSpline
 70
8
 71
3
 72
8
 73
4
 74
0
 40
0
 40
0
 40
0
 40
0
 40
1
 40
1
 40
1
 40
1
 10
204.800000
 20
145.288592
 30
0.0
 10
209.420000
 20
146.763680
 30
0.0
 10
213.554128
 20
147.977184
 30
0.0
 10
213.986952
 20
147.985280
 30
0.0
  0
SPLINE
  5
11f
100
AcDbEntity
  8
0
 62
7
100
AcDbSpline
 70
8
 71
3
 72
8
 73
4
 74
0
 40
0
 40
0
 40
0
 40
0
 40
1
 40
1
 40
1
 40
1
 10
213.986952
 20
147.985280
 30
0.0
 10
214.419776
 20
147.993360
 30
0.0
 10
210.696112
 20
143.910616
 30
0.0
 10
205.712152
 20
138.912472
 30
0.0
  0
SPLINE
  5
120
100
AcDbEntity
  8
0
 62
7
100
AcDbSpline
 70
8
 71
3
 72
8
 73
4
 74
0
 40
0
 40
0
 40
0
 40
0
 40
1
 40
1
 40
1
 40
1
 10
205.712152
 20
138.912472
 30
0.0
 10
197.392512
 20
130.569168
 30
0.0
 10
196.067784
 20
129.570048
 30
0.0
 10
189.536072
 20
126.712472
 30
0.0
  0
SPLINE
  5
121
100
AcDbEntity
  8
0
 62
7
100
AcDbSpline
 70
8
 71
3
 72
8
 73
4
 74
0
 40
0
 40
0
 40
0
 40
0
 40
1
 40
1
 40
1
 40
1
 10
189.536072
 20
126.712472
 30
0.0
 10
185.623192
 20
125.000616
 30
0.0
 10
182.410872
 20
123.056768
 30
0.0
 10
182.410872
 20
123.056768
 30
0.0
  0
SPLINE
  5
122
100
AcDbEntity
  8
0
 62
7
100
AcDbSpline
 70
8
 71
3
 72
8
 73
4
 74
0
 40
0
 40
0
 40
0
 40
0
 40
1
 40
1
 40
1
 40
1
 10
182.410872
 20
123.056768
 30
0.0
 10
182.410872
 20
123.056768
 30
0.0
 10
133.644920
 20
101.682264
 30
0.0
 10
136.174920
 20
100.968640
 30
0.0
  0
SPLINE
  5
123
100
AcDbEntity
  8
0
 62
7
100
AcDbSpline
 70
8
 71
3
 72
8
 73
4
 74
0
 40
0
 40
0
 40
0
 40
0
 40
1
 40
1
 40
1
 40
1
 10
136.174920
 20
100.968640
 30
0.0
 10
138.704920
 20
100.255016
 30
0.0
 10
126.246440
 20
70.888384
 30
0.0
 10
126.246440
 20
70.888384
 30
0.0
  0
SPLINE
  5
124
100
AcDbEntity
  8
0
 62
7
100
AcDbSpline
 70
8
 71
3
 72
8
 73
4
 74
0
 40
0
 40
0
 40
0
 40
0
 40
1
 40
1
 40
1
 40
1
 10
126.246440
 20
70.888384
 30
0.0
 10
126.246440
 20
70.888384
 30
0.0
 10
188.909832
 20
105.851408
 30
0.0
 10
189.823624
 20
105.987240
 30
0.0
  0
SPLINE
  5
125
100
AcDbEntity
  8
0
 62
7
100
AcDbSpline
 70
8
 71
3
 72
8
 73
4
 74
0
 40
0
 40
0
 40
0
 40
0
 40
1
 40
1
 40
1
 40
1
 10
189.823624
 20
105.987240
 30
0.0
 10
199.415984
 20
111.436960
 30
0.0
 10
206.792288
 20
114.631712
 30
0.0
 10
215.849960
 20
120.749856
 30
0.0
  0
LWPOLYLINE
  5
126
100
AcDbEntity
  8
0
 62
7
100
AcDbPolyline
 90
3
 70
1
 10
135.741968
 20
129.252832
 30
0.0
 10
157.483944
 20
123.135528
 30
0.0
 10
176.941968
 20
132.871072
 30
0.0
  0
LWPOLYLINE
  5
127
100
AcDbEntity
  8
0
 62
7
100
AcDbPolyline
 90
2
 70
1
 10
215.849960
 20
120.749856
 30
0.0
 10
215.849960
 20
120.749856
 30
0.0
  0
ENDSEC
  0
SECTION
  2
OBJECTS
  0
DICTIONARY
  5
C
330
0
100
AcDbDictionary
  3
ACAD_GROUP
350
D
  3
ACAD_MLINESTYLE
350
17
  0
DICTIONARY
  5
D
330
C
100
AcDbDictionary
  0
DICTIONARY
  5
1A
330
C
100
AcDbDictionary
  0
DICTIONARY
  5
17
330
C
100
AcDbDictionary
  3
STANDARD
350
18
  0
DICTIONARY
  5
19
330
C
100
AcDbDictionary
  0
ENDSEC
  0
EOF
