  0
SECTION
  2
HEADER
  9
$ACADVER
  1
AC1018
  9
$ACADMAINTVER
 70
     0
  9
$DWGCODEPAGE
  3
ANSI_1252
  9
$INSBASE
 10
0.0
 20
0.0
 30
0.0
  9
$EXTMIN
 10
0.0
 20
0.0
 30
-0.0000000000000524
  9
$EXTMAX
 10
125.0
 20
250.0
 30
0.0000000000000664
  9
$LIMMIN
 10
0.0
 20
0.0
  9
$LIMMAX
 10
12.0
 20
9.0
  9
$ORTHOMODE
 70
     0
  9
$REGENMODE
 70
     1
  9
$FILLMODE
 70
     1
  9
$QTEXTMODE
 70
     0
  9
$MIRRTEXT
 70
     1
  9
$LTSCALE
 40
1.0
  9
$ATTMODE
 70
     1
  9
$TEXTSIZE
 40
0.2
  9
$TRACEWID
 40
0.05
  9
$TEXTSTYLE
  7
Standard
  9
$CLAYER
  8
OKPOURLACOUPE
  9
$CELTYPE
  6
ByLayer
  9
$CECOLOR
 62
   256
  9
$CELTSCALE
 40
1.0
  9
$DISPSILH
 70
     0
  9
$DIMSCALE
 40
1.0
  9
$DIMASZ
 40
0.18
  9
$DIMEXO
 40
0.0625
  9
$DIMDLI
 40
0.38
  9
$DIMRND
 40
0.0
  9
$DIMDLE
 40
0.0
  9
$DIMEXE
 40
0.18
  9
$DIMTP
 40
0.0
  9
$DIMTM
 40
0.0
  9
$DIMTXT
 40
0.18
  9
$DIMCEN
 40
0.09
  9
$DIMTSZ
 40
0.0
  9
$DIMTOL
 70
     0
  9
$DIMLIM
 70
     0
  9
$DIMTIH
 70
     1
  9
$DIMTOH
 70
     1
  9
$DIMSE1
 70
     0
  9
$DIMSE2
 70
     0
  9
$DIMTAD
 70
     0
  9
$DIMZIN
 70
     0
  9
$DIMBLK
  1

  9
$DIMASO
 70
     1
  9
$DIMSHO
 70
     1
  9
$DIMPOST
  1

  9
$DIMAPOST
  1

  9
$DIMALT
 70
     0
  9
$DIMALTD
 70
     2
  9
$DIMALTF
 40
25.4
  9
$DIMLFAC
 40
1.0
  9
$DIMTOFL
 70
     0
  9
$DIMTVP
 40
0.0
  9
$DIMTIX
 70
     0
  9
$DIMSOXD
 70
     0
  9
$DIMSAH
 70
     0
  9
$DIMBLK1
  1

  9
$DIMBLK2
  1

  9
$DIMSTYLE
  2
Standard
  9
$DIMCLRD
 70
     0
  9
$DIMCLRE
 70
     0
  9
$DIMCLRT
 70
     0
  9
$DIMTFAC
 40
1.0
  9
$DIMGAP
 40
0.09
  9
$DIMJUST
 70
     0
  9
$DIMSD1
 70
     0
  9
$DIMSD2
 70
     0
  9
$DIMTOLJ
 70
     1
  9
$DIMTZIN
 70
     0
  9
$DIMALTZ
 70
     0
  9
$DIMALTTZ
 70
     0
  9
$DIMUPT
 70
     0
  9
$DIMDEC
 70
     4
  9
$DIMTDEC
 70
     4
  9
$DIMALTU
 70
     2
  9
$DIMALTTD
 70
     2
  9
$DIMTXSTY
  7
Standard
  9
$DIMAUNIT
 70
     0
  9
$DIMADEC
 70
     0
  9
$DIMALTRND
 40
0.0
  9
$DIMAZIN
 70
     0
  9
$DIMDSEP
 70
    46
  9
$DIMATFIT
 70
     3
  9
$DIMFRAC
 70
     0
  9
$DIMLDRBLK
  1

  9
$DIMLUNIT
 70
     2
  9
$DIMLWD
 70
    -2
  9
$DIMLWE
 70
    -2
  9
$DIMTMOVE
 70
     0
  9
$LUNITS
 70
     2
  9
$LUPREC
 70
     2
  9
$SKETCHINC
 40
0.1
  9
$FILLETRAD
 40
0.5
  9
$AUNITS
 70
     0
  9
$AUPREC
 70
     0
  9
$MENU
  1
.
  9
$ELEVATION
 40
0.0
  9
$PELEVATION
 40
0.0
  9
$THICKNESS
 40
0.0
  9
$LIMCHECK
 70
     0
  9
$CHAMFERA
 40
0.5
  9
$CHAMFERB
 40
0.5
  9
$CHAMFERC
 40
1.0
  9
$CHAMFERD
 40
0.0
  9
$SKPOLY
 70
     0
  9
$TDCREATE
 40
2456734.649178299
  9
$TDUCREATE
 40
2456734.607511632
  9
$TDUPDATE
 40
2456734.64917831
  9
$TDUUPDATE
 40
2456734.607511643
  9
$TDINDWG
 40
0.0000000116
  9
$TDUSRTIMER
 40
0.0000000116
  9
$USRTIMER
 70
     1
  9
$ANGBASE
 50
0.0
  9
$ANGDIR
 70
     0
  9
$PDMODE
 70
     0
  9
$PDSIZE
 40
0.0
  9
$PLINEWID
 40
0.0
  9
$SPLFRAME
 70
     0
  9
$SPLINETYPE
 70
     6
  9
$SPLINESEGS
 70
     8
  9
$HANDSEED
  5
452
  9
$SURFTAB1
 70
     6
  9
$SURFTAB2
 70
     6
  9
$SURFTYPE
 70
     6
  9
$SURFU
 70
     6
  9
$SURFV
 70
     6
  9
$UCSBASE
  2

  9
$UCSNAME
  2

  9
$UCSORG
 10
0.0
 20
0.0
 30
0.0
  9
$UCSXDIR
 10
1.0
 20
0.0
 30
0.0
  9
$UCSYDIR
 10
0.0
 20
1.0
 30
0.0
  9
$UCSORTHOREF
  2

  9
$UCSORTHOVIEW
 70
     0
  9
$UCSORGTOP
 10
0.0
 20
0.0
 30
0.0
  9
$UCSORGBOTTOM
 10
0.0
 20
0.0
 30
0.0
  9
$UCSORGLEFT
 10
0.0
 20
0.0
 30
0.0
  9
$UCSORGRIGHT
 10
0.0
 20
0.0
 30
0.0
  9
$UCSORGFRONT
 10
0.0
 20
0.0
 30
0.0
  9
$UCSORGBACK
 10
0.0
 20
0.0
 30
0.0
  9
$PUCSBASE
  2

  9
$PUCSNAME
  2

  9
$PUCSORG
 10
0.0
 20
0.0
 30
0.0
  9
$PUCSXDIR
 10
1.0
 20
0.0
 30
0.0
  9
$PUCSYDIR
 10
0.0
 20
1.0
 30
0.0
  9
$PUCSORTHOREF
  2

  9
$PUCSORTHOVIEW
 70
     0
  9
$PUCSORGTOP
 10
0.0
 20
0.0
 30
0.0
  9
$PUCSORGBOTTOM
 10
0.0
 20
0.0
 30
0.0
  9
$PUCSORGLEFT
 10
0.0
 20
0.0
 30
0.0
  9
$PUCSORGRIGHT
 10
0.0
 20
0.0
 30
0.0
  9
$PUCSORGFRONT
 10
0.0
 20
0.0
 30
0.0
  9
$PUCSORGBACK
 10
0.0
 20
0.0
 30
0.0
  9
$USERI1
 70
     0
  9
$USERI2
 70
     0
  9
$USERI3
 70
     0
  9
$USERI4
 70
     0
  9
$USERI5
 70
     0
  9
$USERR1
 40
0.0
  9
$USERR2
 40
0.0
  9
$USERR3
 40
0.0
  9
$USERR4
 40
0.0
  9
$USERR5
 40
0.0
  9
$WORLDVIEW
 70
     1
  9
$SHADEDGE
 70
     3
  9
$SHADEDIF
 70
    70
  9
$TILEMODE
 70
     1
  9
$MAXACTVP
 70
    64
  9
$PINSBASE
 10
0.0
 20
0.0
 30
0.0
  9
$PLIMCHECK
 70
     0
  9
$PEXTMIN
 10
1.000000000000000E+20
 20
1.000000000000000E+20
 30
1.000000000000000E+20
  9
$PEXTMAX
 10
-1.000000000000000E+20
 20
-1.000000000000000E+20
 30
-1.000000000000000E+20
  9
$PLIMMIN
 10
0.0
 20
0.0
  9
$PLIMMAX
 10
12.0
 20
9.0
  9
$UNITMODE
 70
     0
  9
$VISRETAIN
 70
     1
  9
$PLINEGEN
 70
     0
  9
$PSLTSCALE
 70
     1
  9
$TREEDEPTH
 70
  3020
  9
$CMLSTYLE
  2
Standard
  9
$CMLJUST
 70
     0
  9
$CMLSCALE
 40
1.0
  9
$PROXYGRAPHICS
 70
     1
  9
$MEASUREMENT
 70
     0
  9
$CELWEIGHT
370
    -1
  9
$ENDCAPS
280
     0
  9
$JOINSTYLE
280
     0
  9
$LWDISPLAY
290
     0
  9
$INSUNITS
 70
     4
  9
$HYPERLINKBASE
  1

  9
$STYLESHEET
  1

  9
$XEDIT
290
     1
  9
$CEPSNTYPE
380
     0
  9
$PSTYLEMODE
290
     1
  9
$FINGERPRINTGUID
  2
{055B5F93-C789-4487-9D59-ADF32169B20A}
  9
$VERSIONGUID
  2
{FAEB1C32-E019-11D5-929B-00C0DF256EC4}
  9
$EXTNAMES
290
     1
  9
$PSVPSCALE
 40
0.0
  9
$OLESTARTUP
290
     0
  9
$SORTENTS
280
   127
  9
$INDEXCTL
280
     0
  9
$HIDETEXT
280
     1
  9
$XCLIPFRAME
290
     0
  9
$HALOGAP
280
     0
  9
$OBSCOLOR
 70
   257
  9
$OBSLTYPE
280
     0
  9
$INTERSECTIONDISPLAY
280
     0
  9
$INTERSECTIONCOLOR
 70
   257
  9
$DIMASSOC
280
     2
  9
$PROJECTNAME
  1

  0
ENDSEC
  0
SECTION
  2
CLASSES
  0
CLASS
  1
ACDBDICTIONARYWDFLT
  2
AcDbDictionaryWithDefault
  3
ObjectDBX Classes
 90
        0
 91
        3
280
     0
281
     0
  0
ENDSEC
  0
SECTION
  2
TABLES
  0
TABLE
  2
VPORT
  5
8
330
0
100
AcDbSymbolTable
 70
     1
  0
VPORT
  5
29
330
8
100
AcDbSymbolTableRecord
100
AcDbViewportTableRecord
  2
*Active
 70
     0
 10
0.0
 20
0.0
 11
1.0
 21
1.0
 12
0.0
 22
0.0
 13
0.0
 23
0.0
 14
0.5
 24
0.5
 15
0.5
 25
0.5
 16
0.0
 26
0.0
 36
1.0
 17
62.5
 27
125.0
 37
0.0
 40
255.0
 41
0.5
 42
50.0
 43
0.0
 44
0.0
 50
0.0
 51
0.0
 71
     0
 72
   100
 73
     1
 74
     3
 75
     0
 76
     0
 77
     0
 78
     0
281
     0
 65
     1
110
0.0
120
0.0
130
0.0
111
1.0
121
0.0
131
0.0
112
0.0
122
1.0
132
0.0
 79
     0
146
0.0
  0
ENDTAB
  0
TABLE
  2
LTYPE
  5
5
330
0
100
AcDbSymbolTable
 70
     1
  0
LTYPE
  5
14
330
5
100
AcDbSymbolTableRecord
100
AcDbLinetypeTableRecord
  2
ByBlock
 70
     0
  3

 72
    65
 73
     0
 40
0.0
  0
LTYPE
  5
15
330
5
100
AcDbSymbolTableRecord
100
AcDbLinetypeTableRecord
  2
ByLayer
 70
     0
  3

 72
    65
 73
     0
 40
0.0
  0
LTYPE
  5
16
330
5
100
AcDbSymbolTableRecord
100
AcDbLinetypeTableRecord
  2
Continuous
 70
     0
  3
Solid line
 72
    65
 73
     0
 40
0.0
  0
ENDTAB
  0
TABLE
  2
LAYER
  5
2
330
0
100
AcDbSymbolTable
 70
     2
  0
LAYER
  5
10
330
2
100
AcDbSymbolTableRecord
100
AcDbLayerTableRecord
  2
0
 70
     0
 62
     7
  6
Continuous
370
    -3
390
F
  0
LAYER
  5
2A
330
2
100
AcDbSymbolTableRecord
100
AcDbLayerTableRecord
  2
OKPOURLACOUPE
 70
     0
 62
     7
  6
Continuous
370
    -3
390
F
  0
ENDTAB
  0
TABLE
  2
STYLE
  5
3
330
0
100
AcDbSymbolTable
 70
     1
  0
STYLE
  5
11
330
3
100
AcDbSymbolTableRecord
100
AcDbTextStyleTableRecord
  2
Standard
 70
     0
 40
0.0
 41
1.0
 50
0.0
 71
     0
 42
0.2
  3
txt
  4

  0
ENDTAB
  0
TABLE
  2
VIEW
  5
6
330
0
100
AcDbSymbolTable
 70
     0
  0
ENDTAB
  0
TABLE
  2
UCS
  5
7
330
0
100
AcDbSymbolTable
 70
     0
  0
ENDTAB
  0
TABLE
  2
APPID
  5
9
330
0
100
AcDbSymbolTable
 70
     1
  0
APPID
  5
12
330
9
100
AcDbSymbolTableRecord
100
AcDbRegAppTableRecord
  2
ACAD
 70
     0
  0
ENDTAB
  0
TABLE
  2
DIMSTYLE
  5
A
330
0
100
AcDbSymbolTable
 70
     1
100
AcDbDimStyleTable
  0
DIMSTYLE
105
27
330
A
100
AcDbSymbolTableRecord
100
AcDbDimStyleTableRecord
  2
Standard
 70
     0
340
11
  0
ENDTAB
  0
TABLE
  2
BLOCK_RECORD
  5
1
330
0
100
AcDbSymbolTable
 70
     1
  0
BLOCK_RECORD
  5
1F
330
1
100
AcDbSymbolTableRecord
100
AcDbBlockTableRecord
  2
*Model_Space
340
22
  0
BLOCK_RECORD
  5
1B
330
1
100
AcDbSymbolTableRecord
100
AcDbBlockTableRecord
  2
*Paper_Space
340
1E
  0
BLOCK_RECORD
  5
23
330
1
100
AcDbSymbolTableRecord
100
AcDbBlockTableRecord
  2
*Paper_Space0
340
26
  0
ENDTAB
  0
ENDSEC
  0
SECTION
  2
BLOCKS
  0
BLOCK
  5
20
330
1F
100
AcDbEntity
  8
0
100
AcDbBlockBegin
  2
*Model_Space
 70
     0
 71
     0
 10
0.0
 20
0.0
 30
0.0
  3
*Model_Space
  1

  0
ENDBLK
  5
21
330
1F
100
AcDbEntity
  8
0
100
AcDbBlockEnd
  0
BLOCK
  5
1C
330
1B
100
AcDbEntity
 67
     1
  8
0
100
AcDbBlockBegin
  2
*Paper_Space
 70
     0
 71
     0
 10
0.0
 20
0.0
 30
0.0
  3
*Paper_Space
  1

  0
ENDBLK
  5
1D
330
1B
100
AcDbEntity
 67
     1
  8
0
100
AcDbBlockEnd
  0
BLOCK
  5
24
330
23
100
AcDbEntity
  8
0
100
AcDbBlockBegin
  2
*Paper_Space0
 70
     0
 71
     0
 10
0.0
 20
0.0
 30
0.0
  3
*Paper_Space0
  1

  0
ENDBLK
  5
25
330
23
100
AcDbEntity
  8
0
100
AcDbBlockEnd
  0
ENDSEC
  0
SECTION
  2
ENTITIES
  0
POLYLINE
  5
2B
330
1F
100
AcDbEntity
  8
OKPOURLACOUPE
100
AcDb2dPolyline
 66
     1
 10
0.0
 20
0.0
 30
-0.0000000000000524
  0
VERTEX
  5
2D
330
2B
100
AcDbEntity
  8
OKPOURLACOUPE
100
AcDbVertex
100
AcDb2dVertex
 10
118.4790076784829
 20
18.28729539556498
 30
-0.0000000000000524
  0
VERTEX
  5
2E
330
2B
100
AcDbEntity
  8
OKPOURLACOUPE
100
AcDbVertex
100
AcDb2dVertex
 10
115.0840751432726
 20
15.1833570776583
 30
-0.0000000000000524
  0
SEQEND
  5
2C
330
2B
100
AcDbEntity
  8
OKPOURLACOUPE
  0
ARC
  5
2F
330
1F
100
AcDbEntity
  8
OKPOURLACOUPE
100
AcDbCircle
 10
114.9491213033637
 20
15.33096284005883
 30
-0.000000000000048
 40
0.2
100
AcDbArc
 50
222.4362297885468
 51
312.4362297885028
  0
POLYLINE
  5
30
330
1F
100
AcDbEntity
  8
OKPOURLACOUPE
100
AcDb2dPolyline
 66
     1
 10
0.0
 20
0.0
 30
-0.000000000000048
  0
VERTEX
  5
32
330
30
100
AcDbEntity
  8
OKPOURLACOUPE
100
AcDbVertex
100
AcDb2dVertex
 10
114.8015155409632
 20
15.1960090001498
 30
-0.000000000000048
  0
VERTEX
  5
33
330
30
100
AcDbEntity
  8
OKPOURLACOUPE
100
AcDbVertex
100
AcDb2dVertex
 10
113.9513063495365
 20
16.12592530327267
 30
-0.00000000000002
  0
SEQEND
  5
31
330
30
100
AcDbEntity
  8
OKPOURLACOUPE
  0
ARC
  5
34
330
1F
100
AcDbEntity
  8
OKPOURLACOUPE
100
AcDbCircle
 10
113.7298977059359
 20
15.92349454340919
 30
-0.00000000000002
 40
0.2999999999999972
100
AcDbArc
 50
42.43622978853465
 51
222.4362297885349
  0
POLYLINE
  5
35
330
1F
100
AcDbEntity
  8
OKPOURLACOUPE
100
AcDb2dPolyline
 66
     1
 10
0.0
 20
0.0
 30
-0.00000000000002
  0
VERTEX
  5
37
330
35
100
AcDbEntity
  8
OKPOURLACOUPE
100
AcDbVertex
100
AcDb2dVertex
 10
113.5084890623352
 20
15.7210637835457
 30
-0.00000000000002
  0
VERTEX
  5
38
330
35
100
AcDbEntity
  8
OKPOURLACOUPE
100
AcDbVertex
100
AcDb2dVertex
 10
110.2611622895251
 20
12.75207930554799
 30
-0.00000000000002
  0
SEQEND
  5
36
330
35
100
AcDbEntity
  8
OKPOURLACOUPE
  0
POLYLINE
  5
39
330
1F
100
AcDbEntity
  8
OKPOURLACOUPE
100
AcDb2dPolyline
 66
     1
 10
0.0
 20
0.0
 30
-0.00000000000002
  0
VERTEX
  5
3B
330
39
100
AcDbEntity
  8
OKPOURLACOUPE
100
AcDbVertex
100
AcDb2dVertex
 10
110.2611622895251
 20
12.75207930554799
 30
-0.00000000000002
  0
VERTEX
  5
3C
330
39
100
AcDbEntity
  8
OKPOURLACOUPE
100
AcDbVertex
100
AcDb2dVertex
 10
109.5231334775229
 20
12.07731010600307
 30
-0.0000000000000111
  0
SEQEND
  5
3A
330
39
100
AcDbEntity
  8
OKPOURLACOUPE
  0
POLYLINE
  5
3D
330
1F
100
AcDbEntity
  8
OKPOURLACOUPE
100
AcDb2dPolyline
 66
     1
 10
0.0
 20
0.0
 30
-0.0000000000000111
  0
VERTEX
  5
3F
330
3D
100
AcDbEntity
  8
OKPOURLACOUPE
100
AcDbVertex
100
AcDb2dVertex
 10
109.5231334775229
 20
12.07731010600307
 30
-0.0000000000000111
  0
VERTEX
  5
40
330
3D
100
AcDbEntity
  8
OKPOURLACOUPE
100
AcDbVertex
100
AcDb2dVertex
 10
108.9327104279209
 20
11.53749474636697
 30
0.0000000000000009
  0
SEQEND
  5
3E
330
3D
100
AcDbEntity
  8
OKPOURLACOUPE
  0
ARC
  5
41
330
1F
100
AcDbEntity
  8
OKPOURLACOUPE
100
AcDbCircle
 10
108.797756588012
 20
11.68510050876743
 30
0.0000000000000018
 40
0.2
100
AcDbArc
 50
222.4362297885324
 51
312.4362297885349
  0
POLYLINE
  5
42
330
1F
100
AcDbEntity
  8
OKPOURLACOUPE
100
AcDb2dPolyline
 66
     1
 10
0.0
 20
0.0
 30
0.0000000000000047
  0
VERTEX
  5
44
330
42
100
AcDbEntity
  8
OKPOURLACOUPE
100
AcDbVertex
100
AcDb2dVertex
 10
108.6501508256115
 20
11.55014666885845
 30
0.0000000000000047
  0
VERTEX
  5
45
330
42
100
AcDbEntity
  8
OKPOURLACOUPE
100
AcDbVertex
100
AcDb2dVertex
 10
108.1103354659756
 20
12.1405697184604
 30
0.0000000000000084
  0
SEQEND
  5
43
330
42
100
AcDbEntity
  8
OKPOURLACOUPE
  0
POLYLINE
  5
46
330
1F
100
AcDbEntity
  8
OKPOURLACOUPE
100
AcDb2dPolyline
 66
     1
 10
0.0
 20
0.0
 30
0.0000000000000084
  0
VERTEX
  5
48
330
46
100
AcDbEntity
  8
OKPOURLACOUPE
100
AcDbVertex
100
AcDb2dVertex
 10
108.1103354659756
 20
12.1405697184604
 30
0.0000000000000084
  0
VERTEX
  5
49
330
46
100
AcDbEntity
  8
OKPOURLACOUPE
100
AcDbVertex
100
AcDb2dVertex
 10
107.8485948610544
 20
12.42684850509296
 30
-0.0000000000000044
  0
SEQEND
  5
47
330
46
100
AcDbEntity
  8
OKPOURLACOUPE
  0
ARC
  5
4A
330
1F
100
AcDbEntity
  8
OKPOURLACOUPE
100
AcDbCircle
 10
107.1105660490522
 20
11.75207930554799
 30
-0.0000000000000022
 40
1.0
100
AcDbArc
 50
42.43622978853877
 51
90.0
  0
POLYLINE
  5
4B
330
1F
100
AcDbEntity
  8
OKPOURLACOUPE
100
AcDb2dPolyline
 66
     1
 10
0.0
 20
0.0
 30
-0.00000000000002
  0
VERTEX
  5
4D
330
4B
100
AcDbEntity
  8
OKPOURLACOUPE
100
AcDbVertex
100
AcDb2dVertex
 10
107.1105660490522
 20
12.75207930554801
 30
-0.00000000000002
  0
VERTEX
  5
4E
330
4B
100
AcDbEntity
  8
OKPOURLACOUPE
100
AcDbVertex
100
AcDb2dVertex
 10
64.38978947686954
 20
12.75207930554805
 30
-0.00000000000002
  0
SEQEND
  5
4C
330
4B
100
AcDbEntity
  8
OKPOURLACOUPE
  0
POLYLINE
  5
4F
330
1F
100
AcDbEntity
  8
OKPOURLACOUPE
100
AcDb2dPolyline
 66
     1
 10
0.0
 20
0.0
 30
-0.00000000000002
  0
VERTEX
  5
51
330
4F
100
AcDbEntity
  8
OKPOURLACOUPE
100
AcDbVertex
100
AcDb2dVertex
 10
64.38978947686954
 20
12.75207930554805
 30
-0.00000000000002
  0
VERTEX
  5
52
330
4F
100
AcDbEntity
  8
OKPOURLACOUPE
100
AcDbVertex
100
AcDb2dVertex
 10
62.92808279657882
 20
12.75431369464405
 30
0.0000000000000302
  0
SEQEND
  5
50
330
4F
100
AcDbEntity
  8
OKPOURLACOUPE
  0
ARC
  5
53
330
1F
100
AcDbEntity
  8
OKPOURLACOUPE
100
AcDbCircle
 10
62.92838851954164
 20
12.95431346097759
 30
0.0000000000000269
 40
0.2
100
AcDbArc
 50
222.4362297884701
 51
269.9124167885458
  0
POLYLINE
  5
54
330
1F
100
AcDbEntity
  8
OKPOURLACOUPE
100
AcDb2dPolyline
 66
     1
 10
0.0
 20
0.0
 30
0.0000000000000342
  0
VERTEX
  5
56
330
54
100
AcDbEntity
  8
OKPOURLACOUPE
100
AcDbVertex
100
AcDb2dVertex
 10
62.78078275714103
 20
12.81935962106877
 30
0.0000000000000342
  0
VERTEX
  5
57
330
54
100
AcDbEntity
  8
OKPOURLACOUPE
100
AcDbVertex
100
AcDb2dVertex
 10
61.98992120541857
 20
13.68436444326518
 30
0.0000000000000471
  0
SEQEND
  5
55
330
54
100
AcDbEntity
  8
OKPOURLACOUPE
  0
ARC
  5
58
330
1F
100
AcDbEntity
  8
OKPOURLACOUPE
100
AcDbCircle
 10
62.13752696781901
 20
13.81931828317417
 30
0.0000000000000442
 40
0.2
100
AcDbArc
 50
132.4362297885385
 51
222.4362297885356
  0
POLYLINE
  5
59
330
1F
100
AcDbEntity
  8
OKPOURLACOUPE
100
AcDb2dPolyline
 66
     1
 10
0.0
 20
0.0
 30
0.0000000000000464
  0
VERTEX
  5
5B
330
59
100
AcDbEntity
  8
OKPOURLACOUPE
100
AcDbVertex
100
AcDb2dVertex
 10
62.00257312791004
 20
13.96692404557461
 30
0.0000000000000464
  0
VERTEX
  5
5C
330
59
100
AcDbEntity
  8
OKPOURLACOUPE
100
AcDbVertex
100
AcDb2dVertex
 10
63.54984272027733
 20
15.38157053002475
 30
0.0000000000000154
  0
SEQEND
  5
5A
330
59
100
AcDbEntity
  8
OKPOURLACOUPE
  0
ARC
  5
5D
330
1F
100
AcDbEntity
  8
OKPOURLACOUPE
100
AcDbCircle
 10
63.68479656018627
 20
15.23396476762426
 30
0.000000000000011
 40
0.2
100
AcDbArc
 50
42.43622978853423
 51
132.4362297885187
  0
POLYLINE
  5
5E
330
1F
100
AcDbEntity
  8
OKPOURLACOUPE
100
AcDb2dPolyline
 66
     1
 10
0.0
 20
0.0
 30
0.000000000000008
  0
VERTEX
  5
60
330
5E
100
AcDbEntity
  8
OKPOURLACOUPE
100
AcDbVertex
100
AcDb2dVertex
 10
63.83240232258674
 20
15.36891860753325
 30
0.000000000000008
  0
VERTEX
  5
61
330
5E
100
AcDbEntity
  8
OKPOURLACOUPE
100
AcDbVertex
100
AcDb2dVertex
 10
64.68261151401336
 20
14.43900230441038
 30
-0.00000000000002
  0
SEQEND
  5
5F
330
5E
100
AcDbEntity
  8
OKPOURLACOUPE
  0
ARC
  5
62
330
1F
100
AcDbEntity
  8
OKPOURLACOUPE
100
AcDbCircle
 10
64.90402015761404
 20
14.64143306427385
 30
-0.00000000000002
 40
0.2999999999999972
100
AcDbArc
 50
222.4362297885349
 51
42.43622978853489
  0
POLYLINE
  5
63
330
1F
100
AcDbEntity
  8
OKPOURLACOUPE
100
AcDb2dPolyline
 66
     1
 10
0.0
 20
0.0
 30
-0.00000000000002
  0
VERTEX
  5
65
330
63
100
AcDbEntity
  8
OKPOURLACOUPE
100
AcDbVertex
100
AcDb2dVertex
 10
65.12542880121475
 20
14.84386382413736
 30
-0.00000000000002
  0
VERTEX
  5
66
330
63
100
AcDbEntity
  8
OKPOURLACOUPE
100
AcDbVertex
100
AcDb2dVertex
 10
66.52768354401906
 20
16.12592530327271
 30
-0.00000000000002
  0
SEQEND
  5
64
330
63
100
AcDbEntity
  8
OKPOURLACOUPE
  0
POLYLINE
  5
67
330
1F
100
AcDbEntity
  8
OKPOURLACOUPE
100
AcDb2dPolyline
 66
     1
 10
0.0
 20
0.0
 30
-0.00000000000002
  0
VERTEX
  5
69
330
67
100
AcDbEntity
  8
OKPOURLACOUPE
100
AcDbVertex
100
AcDb2dVertex
 10
66.52768354401906
 20
16.12592530327271
 30
-0.00000000000002
  0
VERTEX
  5
6A
330
67
100
AcDbEntity
  8
OKPOURLACOUPE
100
AcDbVertex
100
AcDb2dVertex
 10
67.85613540562292
 20
17.34050986245342
 30
-0.0000000000000097
  0
SEQEND
  5
68
330
67
100
AcDbEntity
  8
OKPOURLACOUPE
  0
ARC
  5
6B
330
1F
100
AcDbEntity
  8
OKPOURLACOUPE
100
AcDbCircle
 10
67.9910892455319
 20
17.19290410005297
 30
-0.0000000000000103
 40
0.2
100
AcDbArc
 50
42.43622978846495
 51
132.4362297885356
  0
POLYLINE
  5
6C
330
1F
100
AcDbEntity
  8
OKPOURLACOUPE
100
AcDb2dPolyline
 66
     1
 10
0.0
 20
0.0
 30
-0.0000000000000093
  0
VERTEX
  5
6E
330
6C
100
AcDbEntity
  8
OKPOURLACOUPE
100
AcDbVertex
100
AcDb2dVertex
 10
68.13869500793254
 20
17.32785793996177
 30
-0.0000000000000093
  0
VERTEX
  5
6F
330
6C
100
AcDbEntity
  8
OKPOURLACOUPE
100
AcDbVertex
100
AcDb2dVertex
 10
68.94025097248907
 20
16.45115610372793
 30
-0.0000000000000129
  0
SEQEND
  5
6D
330
6C
100
AcDbEntity
  8
OKPOURLACOUPE
  0
ARC
  5
70
330
1F
100
AcDbEntity
  8
OKPOURLACOUPE
100
AcDbCircle
 10
69.67827978449151
 20
17.12592530327271
 30
-0.000000000000012
 40
1.0
100
AcDbArc
 50
222.436229788522
 51
270.0000000000106
  0
POLYLINE
  5
71
330
1F
100
AcDbEntity
  8
OKPOURLACOUPE
100
AcDb2dPolyline
 66
     1
 10
0.0
 20
0.0
 30
-0.0000000000000142
  0
VERTEX
  5
73
330
71
100
AcDbEntity
  8
OKPOURLACOUPE
100
AcDbVertex
100
AcDb2dVertex
 10
69.67827978449169
 20
16.12592530327268
 30
-0.0000000000000142
  0
VERTEX
  5
74
330
71
100
AcDbEntity
  8
OKPOURLACOUPE
100
AcDbVertex
100
AcDb2dVertex
 10
104.8084492066794
 20
16.12592530327267
 30
-0.00000000000002
  0
SEQEND
  5
72
330
71
100
AcDbEntity
  8
OKPOURLACOUPE
  0
ARC
  5
75
330
1F
100
AcDbEntity
  8
OKPOURLACOUPE
100
AcDbCircle
 10
104.8084492066794
 20
26.12592530327263
 30
-0.00000000000002
 40
9.999999999999948
100
AcDbArc
 50
270.0
 51
354.8724595770706
  0
POLYLINE
  5
76
330
1F
100
AcDbEntity
  8
OKPOURLACOUPE
100
AcDb2dPolyline
 66
     1
 10
0.0
 20
0.0
 30
-0.00000000000002
  0
VERTEX
  5
78
330
76
100
AcDbEntity
  8
OKPOURLACOUPE
100
AcDbVertex
100
AcDb2dVertex
 10
114.7684314209968
 20
25.23219475636293
 30
-0.00000000000002
  0
VERTEX
  5
79
330
76
100
AcDbEntity
  8
OKPOURLACOUPE
100
AcDbVertex
100
AcDb2dVertex
 10
117.9081219740692
 20
60.22178101945727
 30
-0.0000000000000102
  0
SEQEND
  5
77
330
76
100
AcDbEntity
  8
OKPOURLACOUPE
  0
ARC
  5
7A
330
1F
100
AcDbEntity
  8
OKPOURLACOUPE
100
AcDbCircle
 10
116.9121237526374
 20
60.31115407414808
 30
-0.0000000000000027
 40
1.0
100
AcDbArc
 50
354.8724595770794
 51
42.43622978853157
  0
POLYLINE
  5
7B
330
1F
100
AcDbEntity
  8
OKPOURLACOUPE
100
AcDb2dPolyline
 66
     1
 10
0.0
 20
0.0
 30
-0.0000000000000075
  0
VERTEX
  5
7D
330
7B
100
AcDbEntity
  8
OKPOURLACOUPE
100
AcDbVertex
100
AcDb2dVertex
 10
117.6501525646397
 20
60.98592327369298
 30
-0.0000000000000075
  0
VERTEX
  5
7E
330
7B
100
AcDbEntity
  8
OKPOURLACOUPE
100
AcDbVertex
100
AcDb2dVertex
 10
116.8485966000824
 20
61.86262510992756
 30
-0.0000000000000012
  0
SEQEND
  5
7C
330
7B
100
AcDbEntity
  8
OKPOURLACOUPE
  0
ARC
  5
7F
330
1F
100
AcDbEntity
  8
OKPOURLACOUPE
100
AcDbCircle
 10
116.9962023624828
 20
61.99757894983655
 30
-0.0000000000000032
 40
0.2
100
AcDbArc
 50
132.4362297885616
 51
222.4362297885369
  0
POLYLINE
  5
80
330
1F
100
AcDbEntity
  8
OKPOURLACOUPE
100
AcDb2dPolyline
 66
     1
 10
0.0
 20
0.0
 30
-0.0000000000000024
  0
VERTEX
  5
82
330
80
100
AcDbEntity
  8
OKPOURLACOUPE
100
AcDbVertex
100
AcDb2dVertex
 10
116.8612485225738
 20
62.14518471223694
 30
-0.0000000000000024
  0
VERTEX
  5
83
330
80
100
AcDbEntity
  8
OKPOURLACOUPE
100
AcDbVertex
100
AcDb2dVertex
 10
117.7468830969768
 20
62.95490775169112
 30
-0.0000000000000141
  0
SEQEND
  5
81
330
80
100
AcDbEntity
  8
OKPOURLACOUPE
  0
ARC
  5
84
330
1F
100
AcDbEntity
  8
OKPOURLACOUPE
100
AcDbCircle
 10
117.968291740578
 20
63.15733851155422
 30
-0.00000000000002
 40
0.3000000000000007
100
AcDbArc
 50
222.4362297885351
 51
42.43622978859949
  0
POLYLINE
  5
85
330
1F
100
AcDbEntity
  8
OKPOURLACOUPE
100
AcDb2dPolyline
 66
     1
 10
0.0
 20
0.0
 30
-0.00000000000002
  0
VERTEX
  5
87
330
85
100
AcDbEntity
  8
OKPOURLACOUPE
100
AcDbVertex
100
AcDb2dVertex
 10
118.1897003841784
 20
63.35976927141795
 30
-0.00000000000002
  0
VERTEX
  5
88
330
85
100
AcDbEntity
  8
OKPOURLACOUPE
100
AcDbVertex
100
AcDb2dVertex
 10
117.3394911927516
 20
64.28968557454102
 30
0.000000000000008
  0
SEQEND
  5
86
330
85
100
AcDbEntity
  8
OKPOURLACOUPE
  0
ARC
  5
89
330
1F
100
AcDbEntity
  8
OKPOURLACOUPE
100
AcDbCircle
 10
117.487096955152
 20
64.42463941445003
 30
0.000000000000008
 40
0.2
100
AcDbArc
 50
132.43622978854
 51
222.4362297885457
  0
POLYLINE
  5
8A
330
1F
100
AcDbEntity
  8
OKPOURLACOUPE
100
AcDb2dPolyline
 66
     1
 10
0.0
 20
0.0
 30
0.0000000000000124
  0
VERTEX
  5
8C
330
8A
100
AcDbEntity
  8
OKPOURLACOUPE
100
AcDbVertex
100
AcDb2dVertex
 10
117.352143115243
 20
64.57224517685047
 30
0.0000000000000124
  0
VERTEX
  5
8D
330
8A
100
AcDbEntity
  8
OKPOURLACOUPE
100
AcDbVertex
100
AcDb2dVertex
 10
118.9020036204478
 20
65.98926049589485
 30
0.0000000000000124
  0
SEQEND
  5
8B
330
8A
100
AcDbEntity
  8
OKPOURLACOUPE
  0
ARC
  5
8E
330
1F
100
AcDbEntity
  8
OKPOURLACOUPE
100
AcDbCircle
 10
119.0369574603568
 20
65.8416547334944
 30
0.000000000000008
 40
0.2
100
AcDbArc
 50
42.43622978852547
 51
132.4362297885312
  0
POLYLINE
  5
8F
330
1F
100
AcDbEntity
  8
OKPOURLACOUPE
100
AcDb2dPolyline
 66
     1
 10
0.0
 20
0.0
 30
0.000000000000008
  0
VERTEX
  5
91
330
8F
100
AcDbEntity
  8
OKPOURLACOUPE
100
AcDbVertex
100
AcDb2dVertex
 10
119.1845632227572
 20
65.97660857340337
 30
0.000000000000008
  0
VERTEX
  5
92
330
8F
100
AcDbEntity
  8
OKPOURLACOUPE
100
AcDbVertex
100
AcDb2dVertex
 10
120.0347724141839
 20
65.04669227028052
 30
-0.00000000000002
  0
SEQEND
  5
90
330
8F
100
AcDbEntity
  8
OKPOURLACOUPE
  0
ARC
  5
93
330
1F
100
AcDbEntity
  8
OKPOURLACOUPE
100
AcDbCircle
 10
120.2561810577845
 20
65.249123030144
 30
-0.00000000000002
 40
0.2999999999999972
100
AcDbArc
 50
222.436229788538
 51
42.43622978853798
  0
POLYLINE
  5
94
330
1F
100
AcDbEntity
  8
OKPOURLACOUPE
100
AcDb2dPolyline
 66
     1
 10
0.0
 20
0.0
 30
-0.00000000000002
  0
VERTEX
  5
96
330
94
100
AcDbEntity
  8
OKPOURLACOUPE
100
AcDbVertex
100
AcDb2dVertex
 10
120.4775897013852
 20
65.45155379000748
 30
-0.00000000000002
  0
VERTEX
  5
97
330
94
100
AcDbEntity
  8
OKPOURLACOUPE
100
AcDbVertex
100
AcDb2dVertex
 10
121.499650641564
 20
66.38600950674233
 30
-0.00000000000002
  0
SEQEND
  5
95
330
94
100
AcDbEntity
  8
OKPOURLACOUPE
  0
ARC
  5
98
330
1F
100
AcDbEntity
  8
OKPOURLACOUPE
100
AcDbCircle
 10
121.634604481473
 20
66.23840374434195
 30
-0.0000000000000199
 40
0.2
100
AcDbArc
 50
354.8724595770296
 51
132.4362297885687
  0
POLYLINE
  5
99
330
1F
100
AcDbEntity
  8
OKPOURLACOUPE
100
AcDb2dPolyline
 66
     1
 10
0.0
 20
0.0
 30
-0.0000000000000199
  0
VERTEX
  5
9B
330
99
100
AcDbEntity
  8
OKPOURLACOUPE
100
AcDbVertex
100
AcDb2dVertex
 10
121.8338041257593
 20
66.22052913340363
 30
-0.0000000000000199
  0
VERTEX
  5
9C
330
99
100
AcDbEntity
  8
OKPOURLACOUPE
100
AcDbVertex
100
AcDb2dVertex
 10
117.9230288196568
 20
22.63775955295794
 30
-0.0000000000000093
  0
SEQEND
  5
9A
330
99
100
AcDbEntity
  8
OKPOURLACOUPE
  0
ARC
  5
9D
330
1F
100
AcDbEntity
  8
OKPOURLACOUPE
100
AcDbCircle
 10
118.9190270410886
 20
22.54838649826696
 30
-0.0000000000000013
 40
1.0
100
AcDbArc
 50
174.8724595770683
 51
222.4362297885341
  0
POLYLINE
  5
9E
330
1F
100
AcDbEntity
  8
OKPOURLACOUPE
100
AcDb2dPolyline
 66
     1
 10
0.0
 20
0.0
 30
-0.0000000000000067
  0
VERTEX
  5
A0
330
9E
100
AcDbEntity
  8
OKPOURLACOUPE
100
AcDbVertex
100
AcDb2dVertex
 10
118.1809982290863
 20
21.87361729872201
 30
-0.0000000000000067
  0
VERTEX
  5
A1
330
9E
100
AcDbEntity
  8
OKPOURLACOUPE
100
AcDbVertex
100
AcDb2dVertex
 10
118.4427388340074
 20
21.58733851208956
 30
0.0000000000000004
  0
SEQEND
  5
9F
330
9E
100
AcDbEntity
  8
OKPOURLACOUPE
  0
POLYLINE
  5
A2
330
1F
100
AcDbEntity
  8
OKPOURLACOUPE
100
AcDb2dPolyline
 66
     1
 10
0.0
 20
0.0
 30
0.0000000000000004
  0
VERTEX
  5
A4
330
A2
100
AcDbEntity
  8
OKPOURLACOUPE
100
AcDbVertex
100
AcDb2dVertex
 10
118.4427388340074
 20
21.58733851208956
 30
0.0000000000000004
  0
VERTEX
  5
A5
330
A2
100
AcDbEntity
  8
OKPOURLACOUPE
100
AcDbVertex
100
AcDb2dVertex
 10
118.9825541936434
 20
20.99691546248781
 30
0.0000000000000042
  0
SEQEND
  5
A3
330
A2
100
AcDbEntity
  8
OKPOURLACOUPE
  0
ARC
  5
A6
330
1F
100
AcDbEntity
  8
OKPOURLACOUPE
100
AcDbCircle
 10
118.8349484312429
 20
20.8619616225788
 30
0.0000000000000013
 40
0.2
100
AcDbArc
 50
312.4362297885471
 51
42.43622978853772
  0
POLYLINE
  5
A7
330
1F
100
AcDbEntity
  8
OKPOURLACOUPE
100
AcDb2dPolyline
 66
     1
 10
0.0
 20
0.0
 30
0.0000000000000023
  0
VERTEX
  5
A9
330
A7
100
AcDbEntity
  8
OKPOURLACOUPE
100
AcDbVertex
100
AcDb2dVertex
 10
118.9699022711519
 20
20.71435586017839
 30
0.0000000000000023
  0
VERTEX
  5
AA
330
A7
100
AcDbEntity
  8
OKPOURLACOUPE
100
AcDbVertex
100
AcDb2dVertex
 10
118.34257778095
 20
20.14080204056505
 30
-0.0000000000000098
  0
SEQEND
  5
A8
330
A7
100
AcDbEntity
  8
OKPOURLACOUPE
  0
POLYLINE
  5
AB
330
1F
100
AcDbEntity
  8
OKPOURLACOUPE
100
AcDb2dPolyline
 66
     1
 10
0.0
 20
0.0
 30
-0.0000000000000098
  0
VERTEX
  5
AD
330
AB
100
AcDbEntity
  8
OKPOURLACOUPE
100
AcDbVertex
100
AcDb2dVertex
 10
118.34257778095
 20
20.14080204056505
 30
-0.0000000000000098
  0
VERTEX
  5
AE
330
AB
100
AcDbEntity
  8
OKPOURLACOUPE
100
AcDbVertex
100
AcDb2dVertex
 10
118.0842676967493
 20
19.9046328207244
 30
-0.0000000000000135
  0
SEQEND
  5
AC
330
AB
100
AcDbEntity
  8
OKPOURLACOUPE
  0
ARC
  5
AF
330
1F
100
AcDbEntity
  8
OKPOURLACOUPE
100
AcDbCircle
 10
117.8628590531486
 20
19.70220206086084
 30
-0.00000000000002
 40
0.2999999999999972
100
AcDbArc
 50
42.43622978853747
 51
222.4362297885375
  0
POLYLINE
  5
B0
330
1F
100
AcDbEntity
  8
OKPOURLACOUPE
100
AcDb2dPolyline
 66
     1
 10
0.0
 20
0.0
 30
-0.00000000000002
  0
VERTEX
  5
B2
330
B0
100
AcDbEntity
  8
OKPOURLACOUPE
100
AcDbVertex
100
AcDb2dVertex
 10
117.6414504095479
 20
19.49977130099737
 30
-0.00000000000002
  0
VERTEX
  5
B3
330
B0
100
AcDbEntity
  8
OKPOURLACOUPE
100
AcDbVertex
100
AcDb2dVertex
 10
118.4916596009745
 20
18.56985499787454
 30
-0.000000000000048
  0
SEQEND
  5
B1
330
B0
100
AcDbEntity
  8
OKPOURLACOUPE
  0
ARC
  5
B4
330
1F
100
AcDbEntity
  8
OKPOURLACOUPE
100
AcDbCircle
 10
118.344053838574
 20
18.43490115796556
 30
-0.000000000000048
 40
0.1999999999999957
100
AcDbArc
 50
312.4362297884903
 51
42.43622978853622
  0
POLYLINE
  5
B5
330
1F
100
AcDbEntity
  8
OKPOURLACOUPE
100
AcDb2dPolyline
 66
     1
 10
0.0
 20
0.0
 30
-0.0000000000000056
  0
VERTEX
  5
B7
330
B5
100
AcDbEntity
  8
OKPOURLACOUPE
100
AcDbVertex
100
AcDb2dVertex
 10
23.00000000000001
 20
135.46
 30
-0.0000000000000056
  0
VERTEX
  5
B8
330
B5
100
AcDbEntity
  8
OKPOURLACOUPE
100
AcDbVertex
100
AcDb2dVertex
 10
23.00000000000001
 20
134.0
 30
0.0
  0
SEQEND
  5
B6
330
B5
100
AcDbEntity
  8
OKPOURLACOUPE
  0
ARC
  5
B9
330
1F
100
AcDbEntity
  8
OKPOURLACOUPE
100
AcDbCircle
 10
23.30000000000001
 20
134.0
 30
0.0
 40
0.2999999999999972
100
AcDbArc
 50
180.0
 51
0.0
  0
POLYLINE
  5
BA
330
1F
100
AcDbEntity
  8
OKPOURLACOUPE
100
AcDb2dPolyline
 66
     1
 10
0.0
 20
0.0
 30
0.0
  0
VERTEX
  5
BC
330
BA
100
AcDbEntity
  8
OKPOURLACOUPE
100
AcDbVertex
100
AcDb2dVertex
 10
23.60000000000001
 20
134.0
 30
0.0
  0
VERTEX
  5
BD
330
BA
100
AcDbEntity
  8
OKPOURLACOUPE
100
AcDbVertex
100
AcDb2dVertex
 10
27.40000000000001
 20
133.9999999999997
 30
0.0
  0
SEQEND
  5
BB
330
BA
100
AcDbEntity
  8
OKPOURLACOUPE
  0
ARC
  5
BE
330
1F
100
AcDbEntity
  8
OKPOURLACOUPE
100
AcDbCircle
 10
27.7
 20
133.9999999999994
 30
0.0
 40
0.2999999999999972
100
AcDbArc
 50
179.9999999999457
 51
0.0
  0
POLYLINE
  5
BF
330
1F
100
AcDbEntity
  8
OKPOURLACOUPE
100
AcDb2dPolyline
 66
     1
 10
0.0
 20
0.0
 30
0.0
  0
VERTEX
  5
C1
330
BF
100
AcDbEntity
  8
OKPOURLACOUPE
100
AcDbVertex
100
AcDb2dVertex
 10
28.00000000000001
 20
134.0
 30
0.0
  0
VERTEX
  5
C2
330
BF
100
AcDbEntity
  8
OKPOURLACOUPE
100
AcDbVertex
100
AcDb2dVertex
 10
28.00000000000001
 20
135.4599999999997
 30
-0.0000000000000056
  0
SEQEND
  5
C0
330
BF
100
AcDbEntity
  8
OKPOURLACOUPE
  0
ARC
  5
C3
330
1F
100
AcDbEntity
  8
OKPOURLACOUPE
100
AcDbCircle
 10
27.7
 20
135.4599999999994
 30
-0.0000000000000056
 40
0.2999999999999972
100
AcDbArc
 50
0.0000000000542815
 51
179.9999999999457
  0
POLYLINE
  5
C4
330
1F
100
AcDbEntity
  8
OKPOURLACOUPE
100
AcDb2dPolyline
 66
     1
 10
0.0
 20
0.0
 30
-0.0000000000000056
  0
VERTEX
  5
C6
330
C4
100
AcDbEntity
  8
OKPOURLACOUPE
100
AcDbVertex
100
AcDb2dVertex
 10
27.40000000000001
 20
135.4599999999997
 30
-0.0000000000000056
  0
VERTEX
  5
C7
330
C4
100
AcDbEntity
  8
OKPOURLACOUPE
100
AcDbVertex
100
AcDb2dVertex
 10
23.60000000000001
 20
135.46
 30
-0.0000000000000056
  0
SEQEND
  5
C5
330
C4
100
AcDbEntity
  8
OKPOURLACOUPE
  0
ARC
  5
C8
330
1F
100
AcDbEntity
  8
OKPOURLACOUPE
100
AcDbCircle
 10
23.3
 20
135.46
 30
-0.0000000000000056
 40
0.2999999999999829
100
AcDbArc
 50
359.9999999999945
 51
180.0000000000054
  0
POLYLINE
  5
C9
330
1F
100
AcDbEntity
  8
OKPOURLACOUPE
100
AcDb2dPolyline
 66
     1
 10
0.0
 20
0.0
 30
0.0
  0
VERTEX
  5
CB
330
C9
100
AcDbEntity
  8
OKPOURLACOUPE
100
AcDbVertex
100
AcDb2dVertex
 10
13.00000000000001
 20
169.0
 30
0.0
  0
VERTEX
  5
CC
330
C9
100
AcDbEntity
  8
OKPOURLACOUPE
100
AcDbVertex
100
AcDb2dVertex
 10
13.00000000000001
 20
134.0
 30
0.0
  0
SEQEND
  5
CA
330
C9
100
AcDbEntity
  8
OKPOURLACOUPE
  0
ARC
  5
CD
330
1F
100
AcDbEntity
  8
OKPOURLACOUPE
100
AcDbCircle
 10
18.00000000000001
 20
134.0
 30
0.0
 40
5.0
100
AcDbArc
 50
180.0
 51
270.0
  0
POLYLINE
  5
CE
330
1F
100
AcDbEntity
  8
OKPOURLACOUPE
100
AcDb2dPolyline
 66
     1
 10
0.0
 20
0.0
 30
0.0
  0
VERTEX
  5
D0
330
CE
100
AcDbEntity
  8
OKPOURLACOUPE
100
AcDbVertex
100
AcDb2dVertex
 10
18.00000000000001
 20
129.0
 30
0.0
  0
VERTEX
  5
D1
330
CE
100
AcDbEntity
  8
OKPOURLACOUPE
100
AcDbVertex
100
AcDb2dVertex
 10
108.0
 20
129.0
 30
0.0
  0
SEQEND
  5
CF
330
CE
100
AcDbEntity
  8
OKPOURLACOUPE
  0
ARC
  5
D2
330
1F
100
AcDbEntity
  8
OKPOURLACOUPE
100
AcDbCircle
 10
108.0
 20
134.0
 30
0.0000000000000284
 40
5.0
100
AcDbArc
 50
270.0
 51
0.0
  0
POLYLINE
  5
D3
330
1F
100
AcDbEntity
  8
OKPOURLACOUPE
100
AcDb2dPolyline
 66
     1
 10
0.0
 20
0.0
 30
0.0
  0
VERTEX
  5
D5
330
D3
100
AcDbEntity
  8
OKPOURLACOUPE
100
AcDbVertex
100
AcDb2dVertex
 10
113.0
 20
134.0
 30
0.0
  0
VERTEX
  5
D6
330
D3
100
AcDbEntity
  8
OKPOURLACOUPE
100
AcDbVertex
100
AcDb2dVertex
 10
113.0
 20
169.0
 30
0.0
  0
SEQEND
  5
D4
330
D3
100
AcDbEntity
  8
OKPOURLACOUPE
  0
ARC
  5
D7
330
1F
100
AcDbEntity
  8
OKPOURLACOUPE
100
AcDbCircle
 10
108.0
 20
169.0
 30
0.0
 40
5.0
100
AcDbArc
 50
0.0
 51
90.0
  0
POLYLINE
  5
D8
330
1F
100
AcDbEntity
  8
OKPOURLACOUPE
100
AcDb2dPolyline
 66
     1
 10
0.0
 20
0.0
 30
0.0
  0
VERTEX
  5
DA
330
D8
100
AcDbEntity
  8
OKPOURLACOUPE
100
AcDbVertex
100
AcDb2dVertex
 10
108.0
 20
174.0
 30
0.0
  0
VERTEX
  5
DB
330
D8
100
AcDbEntity
  8
OKPOURLACOUPE
100
AcDbVertex
100
AcDb2dVertex
 10
17.99999999999999
 20
174.0
 30
0.0
  0
SEQEND
  5
D9
330
D8
100
AcDbEntity
  8
OKPOURLACOUPE
  0
ARC
  5
DC
330
1F
100
AcDbEntity
  8
OKPOURLACOUPE
100
AcDbCircle
 10
18.00000000000001
 20
169.0
 30
0.0
 40
5.0
100
AcDbArc
 50
90.0
 51
179.9999999999997
  0
POLYLINE
  5
DD
330
1F
100
AcDbEntity
  8
OKPOURLACOUPE
100
AcDb2dPolyline
 66
     1
 10
0.0
 20
0.0
 30
0.0000000000000079
  0
VERTEX
  5
DF
330
DD
100
AcDbEntity
  8
OKPOURLACOUPE
100
AcDbVertex
100
AcDb2dVertex
 10
58.00000000000001
 20
169.0
 30
0.0000000000000079
  0
VERTEX
  5
E0
330
DD
100
AcDbEntity
  8
OKPOURLACOUPE
100
AcDbVertex
100
AcDb2dVertex
 10
58.00000000000001
 20
167.54
 30
0.000000000000027
  0
SEQEND
  5
DE
330
DD
100
AcDbEntity
  8
OKPOURLACOUPE
  0
ARC
  5
E1
330
1F
100
AcDbEntity
  8
OKPOURLACOUPE
100
AcDbCircle
 10
58.30000000000001
 20
167.54
 30
0.0000000000000268
 40
0.2999999999999972
100
AcDbArc
 50
180.0
 51
0.0
  0
POLYLINE
  5
E2
330
1F
100
AcDbEntity
  8
OKPOURLACOUPE
100
AcDb2dPolyline
 66
     1
 10
0.0
 20
0.0
 30
0.0000000000000266
  0
VERTEX
  5
E4
330
E2
100
AcDbEntity
  8
OKPOURLACOUPE
100
AcDbVertex
100
AcDb2dVertex
 10
58.60000000000001
 20
167.54
 30
0.0000000000000266
  0
VERTEX
  5
E5
330
E2
100
AcDbEntity
  8
OKPOURLACOUPE
100
AcDbVertex
100
AcDb2dVertex
 10
67.4
 20
167.5400000000002
 30
0.0000000000000116
  0
SEQEND
  5
E3
330
E2
100
AcDbEntity
  8
OKPOURLACOUPE
  0
ARC
  5
E6
330
1F
100
AcDbEntity
  8
OKPOURLACOUPE
100
AcDbCircle
 10
67.7
 20
167.5400000000005
 30
0.0000000000000114
 40
0.2999999999999972
100
AcDbArc
 50
180.0000000000488
 51
0.0
  0
POLYLINE
  5
E7
330
1F
100
AcDbEntity
  8
OKPOURLACOUPE
100
AcDb2dPolyline
 66
     1
 10
0.0
 20
0.0
 30
0.0000000000000112
  0
VERTEX
  5
E9
330
E7
100
AcDbEntity
  8
OKPOURLACOUPE
100
AcDbVertex
100
AcDb2dVertex
 10
68.00000000000001
 20
167.54
 30
0.0000000000000112
  0
VERTEX
  5
EA
330
E7
100
AcDbEntity
  8
OKPOURLACOUPE
100
AcDbVertex
100
AcDb2dVertex
 10
68.00000000000001
 20
169.0000000000003
 30
0.0
  0
SEQEND
  5
E8
330
E7
100
AcDbEntity
  8
OKPOURLACOUPE
  0
ARC
  5
EB
330
1F
100
AcDbEntity
  8
OKPOURLACOUPE
100
AcDbCircle
 10
67.7
 20
169.0000000000005
 30
0.0
 40
0.2999999999999972
100
AcDbArc
 50
359.9999999999512
 51
180.0000000000488
  0
POLYLINE
  5
EC
330
1F
100
AcDbEntity
  8
OKPOURLACOUPE
100
AcDb2dPolyline
 66
     1
 10
0.0
 20
0.0
 30
0.0
  0
VERTEX
  5
EE
330
EC
100
AcDbEntity
  8
OKPOURLACOUPE
100
AcDbVertex
100
AcDb2dVertex
 10
67.4
 20
169.0000000000003
 30
0.0
  0
VERTEX
  5
EF
330
EC
100
AcDbEntity
  8
OKPOURLACOUPE
100
AcDbVertex
100
AcDb2dVertex
 10
58.60000000000001
 20
169.0
 30
0.0000000000000079
  0
SEQEND
  5
ED
330
EC
100
AcDbEntity
  8
OKPOURLACOUPE
  0
ARC
  5
F0
330
1F
100
AcDbEntity
  8
OKPOURLACOUPE
100
AcDbCircle
 10
58.30000000000001
 20
169.0
 30
0.0000000000000079
 40
0.2999999999999972
100
AcDbArc
 50
0.0
 51
180.0
  0
POLYLINE
  5
F1
330
1F
100
AcDbEntity
  8
OKPOURLACOUPE
100
AcDb2dPolyline
 66
     1
 10
0.0
 20
0.0
 30
-0.0000000000000056
  0
VERTEX
  5
F3
330
F1
100
AcDbEntity
  8
OKPOURLACOUPE
100
AcDbVertex
100
AcDb2dVertex
 10
98.00000000000001
 20
135.46
 30
-0.0000000000000056
  0
VERTEX
  5
F4
330
F1
100
AcDbEntity
  8
OKPOURLACOUPE
100
AcDbVertex
100
AcDb2dVertex
 10
98.00000000000001
 20
134.0
 30
0.0
  0
SEQEND
  5
F2
330
F1
100
AcDbEntity
  8
OKPOURLACOUPE
  0
ARC
  5
F5
330
1F
100
AcDbEntity
  8
OKPOURLACOUPE
100
AcDbCircle
 10
98.30000000000001
 20
134.0
 30
0.0
 40
0.2999999999999972
100
AcDbArc
 50
180.0
 51
0.0
  0
POLYLINE
  5
F6
330
1F
100
AcDbEntity
  8
OKPOURLACOUPE
100
AcDb2dPolyline
 66
     1
 10
0.0
 20
0.0
 30
0.0
  0
VERTEX
  5
F8
330
F6
100
AcDbEntity
  8
OKPOURLACOUPE
100
AcDbVertex
100
AcDb2dVertex
 10
98.60000000000001
 20
134.0
 30
0.0
  0
VERTEX
  5
F9
330
F6
100
AcDbEntity
  8
OKPOURLACOUPE
100
AcDbVertex
100
AcDb2dVertex
 10
102.4
 20
133.9999999999997
 30
0.0
  0
SEQEND
  5
F7
330
F6
100
AcDbEntity
  8
OKPOURLACOUPE
  0
ARC
  5
FA
330
1F
100
AcDbEntity
  8
OKPOURLACOUPE
100
AcDbCircle
 10
102.7
 20
133.9999999999994
 30
0.0
 40
0.2999999999999972
100
AcDbArc
 50
179.9999999999457
 51
0.0
  0
POLYLINE
  5
FB
330
1F
100
AcDbEntity
  8
OKPOURLACOUPE
100
AcDb2dPolyline
 66
     1
 10
0.0
 20
0.0
 30
0.0
  0
VERTEX
  5
FD
330
FB
100
AcDbEntity
  8
OKPOURLACOUPE
100
AcDbVertex
100
AcDb2dVertex
 10
103.0
 20
134.0
 30
0.0
  0
VERTEX
  5
FE
330
FB
100
AcDbEntity
  8
OKPOURLACOUPE
100
AcDbVertex
100
AcDb2dVertex
 10
103.0
 20
135.4599999999997
 30
-0.0000000000000056
  0
SEQEND
  5
FC
330
FB
100
AcDbEntity
  8
OKPOURLACOUPE
  0
ARC
  5
FF
330
1F
100
AcDbEntity
  8
OKPOURLACOUPE
100
AcDbCircle
 10
102.7
 20
135.4599999999994
 30
-0.0000000000000056
 40
0.2999999999999972
100
AcDbArc
 50
0.0000000000542815
 51
179.9999999999457
  0
POLYLINE
  5
100
330
1F
100
AcDbEntity
  8
OKPOURLACOUPE
100
AcDb2dPolyline
 66
     1
 10
0.0
 20
0.0
 30
-0.0000000000000056
  0
VERTEX
  5
102
330
100
100
AcDbEntity
  8
OKPOURLACOUPE
100
AcDbVertex
100
AcDb2dVertex
 10
102.4
 20
135.4599999999997
 30
-0.0000000000000056
  0
VERTEX
  5
103
330
100
100
AcDbEntity
  8
OKPOURLACOUPE
100
AcDbVertex
100
AcDb2dVertex
 10
98.60000000000001
 20
135.46
 30
-0.0000000000000056
  0
SEQEND
  5
101
330
100
100
AcDbEntity
  8
OKPOURLACOUPE
  0
ARC
  5
104
330
1F
100
AcDbEntity
  8
OKPOURLACOUPE
100
AcDbCircle
 10
98.3
 20
135.46
 30
-0.0000000000000056
 40
0.2999999999999829
100
AcDbArc
 50
359.9999999999945
 51
180.0000000000054
  0
POLYLINE
  5
105
330
1F
100
AcDbEntity
  8
OKPOURLACOUPE
100
AcDb2dPolyline
 66
     1
 10
0.0
 20
0.0
 30
0.0000000000000213
  0
VERTEX
  5
107
330
105
100
AcDbEntity
  8
OKPOURLACOUPE
100
AcDbVertex
100
AcDb2dVertex
 10
106.6
 20
116.0000000000004
 30
0.0000000000000213
  0
VERTEX
  5
108
330
105
100
AcDbEntity
  8
OKPOURLACOUPE
100
AcDbVertex
100
AcDb2dVertex
 10
107.8
 20
116.0
 30
0.0000000000000305
  0
SEQEND
  5
106
330
105
100
AcDbEntity
  8
OKPOURLACOUPE
  0
ARC
  5
109
330
1F
100
AcDbEntity
  8
OKPOURLACOUPE
100
AcDbCircle
 10
107.8
 20
116.2
 30
0.0000000000000295
 40
0.2
100
AcDbArc
 50
270.0
 51
0.0000000000081422
  0
POLYLINE
  5
10A
330
1F
100
AcDbEntity
  8
OKPOURLACOUPE
100
AcDb2dPolyline
 66
     1
 10
0.0
 20
0.0
 30
0.0000000000000307
  0
VERTEX
  5
10C
330
10A
100
AcDbEntity
  8
OKPOURLACOUPE
100
AcDbVertex
100
AcDb2dVertex
 10
108.0
 20
116.2
 30
0.0000000000000307
  0
VERTEX
  5
10D
330
10A
100
AcDbEntity
  8
OKPOURLACOUPE
100
AcDbVertex
100
AcDb2dVertex
 10
108.0
 20
118.0
 30
0.0000000000000221
  0
SEQEND
  5
10B
330
10A
100
AcDbEntity
  8
OKPOURLACOUPE
  0
ARC
  5
10E
330
1F
100
AcDbEntity
  8
OKPOURLACOUPE
100
AcDbCircle
 10
107.0
 20
118.0
 30
0.0000000000000221
 40
1.0
100
AcDbArc
 50
0.0000000000016284
 51
90.0
  0
POLYLINE
  5
10F
330
1F
100
AcDbEntity
  8
OKPOURLACOUPE
100
AcDb2dPolyline
 66
     1
 10
0.0
 20
0.0
 30
0.0000000000000173
  0
VERTEX
  5
111
330
10F
100
AcDbEntity
  8
OKPOURLACOUPE
100
AcDbVertex
100
AcDb2dVertex
 10
107.0
 20
119.0
 30
0.0000000000000173
  0
VERTEX
  5
112
330
10F
100
AcDbEntity
  8
OKPOURLACOUPE
100
AcDbVertex
100
AcDb2dVertex
 10
100.0
 20
119.0
 30
0.0000000000000173
  0
SEQEND
  5
110
330
10F
100
AcDbEntity
  8
OKPOURLACOUPE
  0
ARC
  5
113
330
1F
100
AcDbEntity
  8
OKPOURLACOUPE
100
AcDbCircle
 10
100.0
 20
118.0
 30
0.000000000000011
 40
1.0
100
AcDbArc
 50
90.0
 51
180.0
  0
POLYLINE
  5
114
330
1F
100
AcDbEntity
  8
OKPOURLACOUPE
100
AcDb2dPolyline
 66
     1
 10
0.0
 20
0.0
 30
0.000000000000011
  0
VERTEX
  5
116
330
114
100
AcDbEntity
  8
OKPOURLACOUPE
100
AcDbVertex
100
AcDb2dVertex
 10
99.0
 20
118.0
 30
0.000000000000011
  0
VERTEX
  5
117
330
114
100
AcDbEntity
  8
OKPOURLACOUPE
100
AcDbVertex
100
AcDb2dVertex
 10
99.0
 20
116.2
 30
-0.0000000000000005
  0
SEQEND
  5
115
330
114
100
AcDbEntity
  8
OKPOURLACOUPE
  0
ARC
  5
118
330
1F
100
AcDbEntity
  8
OKPOURLACOUPE
100
AcDbCircle
 10
99.2
 20
116.2
 30
-0.0000000000000014
 40
0.2
100
AcDbArc
 50
180.0
 51
270.0
  0
POLYLINE
  5
119
330
1F
100
AcDbEntity
  8
OKPOURLACOUPE
100
AcDb2dPolyline
 66
     1
 10
0.0
 20
0.0
 30
-0.0000000000000027
  0
VERTEX
  5
11B
330
119
100
AcDbEntity
  8
OKPOURLACOUPE
100
AcDbVertex
100
AcDb2dVertex
 10
99.2
 20
116.0
 30
-0.0000000000000027
  0
VERTEX
  5
11C
330
119
100
AcDbEntity
  8
OKPOURLACOUPE
100
AcDbVertex
100
AcDb2dVertex
 10
101.0
 20
116.0
 30
-0.0000000000000111
  0
SEQEND
  5
11A
330
119
100
AcDbEntity
  8
OKPOURLACOUPE
  0
POLYLINE
  5
11D
330
1F
100
AcDbEntity
  8
OKPOURLACOUPE
100
AcDb2dPolyline
 66
     1
 10
0.0
 20
0.0
 30
-0.0000000000000111
  0
VERTEX
  5
11F
330
11D
100
AcDbEntity
  8
OKPOURLACOUPE
100
AcDbVertex
100
AcDb2dVertex
 10
101.0
 20
116.0
 30
-0.0000000000000111
  0
VERTEX
  5
120
330
11D
100
AcDbEntity
  8
OKPOURLACOUPE
100
AcDbVertex
100
AcDb2dVertex
 10
102.9
 20
116.0
 30
-0.0000000000000111
  0
SEQEND
  5
11E
330
11D
100
AcDbEntity
  8
OKPOURLACOUPE
  0
ARC
  5
121
330
1F
100
AcDbEntity
  8
OKPOURLACOUPE
100
AcDbCircle
 10
103.2
 20
116.0
 30
-0.0000000000000111
 40
0.2999999999999972
100
AcDbArc
 50
0.0
 51
180.0
  0
POLYLINE
  5
122
330
1F
100
AcDbEntity
  8
OKPOURLACOUPE
100
AcDb2dPolyline
 66
     1
 10
0.0
 20
0.0
 30
-0.0000000000000111
  0
VERTEX
  5
124
330
122
100
AcDbEntity
  8
OKPOURLACOUPE
100
AcDbVertex
100
AcDb2dVertex
 10
103.5
 20
116.0
 30
-0.0000000000000111
  0
VERTEX
  5
125
330
122
100
AcDbEntity
  8
OKPOURLACOUPE
100
AcDbVertex
100
AcDb2dVertex
 10
103.5
 20
114.74
 30
0.0000000000000091
  0
SEQEND
  5
123
330
122
100
AcDbEntity
  8
OKPOURLACOUPE
  0
ARC
  5
126
330
1F
100
AcDbEntity
  8
OKPOURLACOUPE
100
AcDbCircle
 10
103.7
 20
114.74
 30
0.0000000000000138
 40
0.2
100
AcDbArc
 50
179.9999999999919
 51
269.9999999999959
  0
POLYLINE
  5
127
330
1F
100
AcDbEntity
  8
OKPOURLACOUPE
100
AcDb2dPolyline
 66
     1
 10
0.0
 20
0.0
 30
0.000000000000017
  0
VERTEX
  5
129
330
127
100
AcDbEntity
  8
OKPOURLACOUPE
100
AcDbVertex
100
AcDb2dVertex
 10
103.7
 20
114.54
 30
0.000000000000017
  0
VERTEX
  5
12A
330
127
100
AcDbEntity
  8
OKPOURLACOUPE
100
AcDbVertex
100
AcDb2dVertex
 10
105.8
 20
114.54
 30
0.0000000000000664
  0
SEQEND
  5
128
330
127
100
AcDbEntity
  8
OKPOURLACOUPE
  0
ARC
  5
12B
330
1F
100
AcDbEntity
  8
OKPOURLACOUPE
100
AcDbCircle
 10
105.8
 20
114.74
 30
0.0000000000000593
 40
0.2
100
AcDbArc
 50
270.0
 51
0.0
  0
POLYLINE
  5
12C
330
1F
100
AcDbEntity
  8
OKPOURLACOUPE
100
AcDb2dPolyline
 66
     1
 10
0.0
 20
0.0
 30
0.000000000000064
  0
VERTEX
  5
12E
330
12C
100
AcDbEntity
  8
OKPOURLACOUPE
100
AcDbVertex
100
AcDb2dVertex
 10
106.0
 20
114.74
 30
0.000000000000064
  0
VERTEX
  5
12F
330
12C
100
AcDbEntity
  8
OKPOURLACOUPE
100
AcDbVertex
100
AcDb2dVertex
 10
106.0
 20
116.0
 30
0.0000000000000195
  0
SEQEND
  5
12D
330
12C
100
AcDbEntity
  8
OKPOURLACOUPE
  0
ARC
  5
130
330
1F
100
AcDbEntity
  8
OKPOURLACOUPE
100
AcDbCircle
 10
106.3
 20
116.0000000000008
 30
0.0000000000000204
 40
0.2999999999999972
100
AcDbArc
 50
359.999999999924
 51
180.0
  0
POLYLINE
  5
131
330
1F
100
AcDbEntity
  8
OKPOURLACOUPE
100
AcDb2dPolyline
 66
     1
 10
0.0
 20
0.0
 30
-0.0000000000000111
  0
VERTEX
  5
133
330
131
100
AcDbEntity
  8
OKPOURLACOUPE
100
AcDbVertex
100
AcDb2dVertex
 10
79.59999999999997
 20
118.0
 30
-0.0000000000000111
  0
VERTEX
  5
134
330
131
100
AcDbEntity
  8
OKPOURLACOUPE
100
AcDbVertex
100
AcDb2dVertex
 10
84.0
 20
118.0
 30
-0.0000000000000111
  0
SEQEND
  5
132
330
131
100
AcDbEntity
  8
OKPOURLACOUPE
  0
POLYLINE
  5
135
330
1F
100
AcDbEntity
  8
OKPOURLACOUPE
100
AcDb2dPolyline
 66
     1
 10
0.0
 20
0.0
 30
-0.0000000000000111
  0
VERTEX
  5
137
330
135
100
AcDbEntity
  8
OKPOURLACOUPE
100
AcDbVertex
100
AcDb2dVertex
 10
84.0
 20
118.0
 30
-0.0000000000000111
  0
VERTEX
  5
138
330
135
100
AcDbEntity
  8
OKPOURLACOUPE
100
AcDbVertex
100
AcDb2dVertex
 10
85.80000000000001
 20
118.0
 30
-0.0000000000000011
  0
SEQEND
  5
136
330
135
100
AcDbEntity
  8
OKPOURLACOUPE
  0
ARC
  5
139
330
1F
100
AcDbEntity
  8
OKPOURLACOUPE
100
AcDbCircle
 10
85.8
 20
117.8
 30
-0.0000000000000011
 40
0.2
100
AcDbArc
 50
359.9999999999919
 51
89.99999999999594
  0
POLYLINE
  5
13A
330
1F
100
AcDbEntity
  8
OKPOURLACOUPE
100
AcDb2dPolyline
 66
     1
 10
0.0
 20
0.0
 30
0.0
  0
VERTEX
  5
13C
330
13A
100
AcDbEntity
  8
OKPOURLACOUPE
100
AcDbVertex
100
AcDb2dVertex
 10
86.0
 20
117.8
 30
0.0
  0
VERTEX
  5
13D
330
13A
100
AcDbEntity
  8
OKPOURLACOUPE
100
AcDbVertex
100
AcDb2dVertex
 10
86.0
 20
116.0
 30
0.0
  0
SEQEND
  5
13B
330
13A
100
AcDbEntity
  8
OKPOURLACOUPE
  0
ARC
  5
13E
330
1F
100
AcDbEntity
  8
OKPOURLACOUPE
100
AcDbCircle
 10
85.0
 20
116.0
 30
0.0
 40
1.0
100
AcDbArc
 50
270.0
 51
0.0
  0
POLYLINE
  5
13F
330
1F
100
AcDbEntity
  8
OKPOURLACOUPE
100
AcDb2dPolyline
 66
     1
 10
0.0
 20
0.0
 30
0.0
  0
VERTEX
  5
141
330
13F
100
AcDbEntity
  8
OKPOURLACOUPE
100
AcDbVertex
100
AcDb2dVertex
 10
85.0
 20
115.0
 30
0.0
  0
VERTEX
  5
142
330
13F
100
AcDbEntity
  8
OKPOURLACOUPE
100
AcDbVertex
100
AcDb2dVertex
 10
73.0
 20
115.0
 30
0.0
  0
SEQEND
  5
140
330
13F
100
AcDbEntity
  8
OKPOURLACOUPE
  0
ARC
  5
143
330
1F
100
AcDbEntity
  8
OKPOURLACOUPE
100
AcDbCircle
 10
73.0
 20
116.0
 30
0.0000000000000089
 40
1.0
100
AcDbArc
 50
180.0000000000008
 51
270.0
  0
POLYLINE
  5
144
330
1F
100
AcDbEntity
  8
OKPOURLACOUPE
100
AcDb2dPolyline
 66
     1
 10
0.0
 20
0.0
 30
0.0000000000000084
  0
VERTEX
  5
146
330
144
100
AcDbEntity
  8
OKPOURLACOUPE
100
AcDbVertex
100
AcDb2dVertex
 10
72.0
 20
116.0
 30
0.0000000000000084
  0
VERTEX
  5
147
330
144
100
AcDbEntity
  8
OKPOURLACOUPE
100
AcDbVertex
100
AcDb2dVertex
 10
72.0
 20
117.8
 30
0.0000000000000244
  0
SEQEND
  5
145
330
144
100
AcDbEntity
  8
OKPOURLACOUPE
  0
ARC
  5
148
330
1F
100
AcDbEntity
  8
OKPOURLACOUPE
100
AcDbCircle
 10
72.2
 20
117.8
 30
0.0000000000000217
 40
0.2
100
AcDbArc
 50
89.99999999999594
 51
180.0000000000082
  0
POLYLINE
  5
149
330
1F
100
AcDbEntity
  8
OKPOURLACOUPE
100
AcDb2dPolyline
 66
     1
 10
0.0
 20
0.0
 30
0.0000000000000234
  0
VERTEX
  5
14B
330
149
100
AcDbEntity
  8
OKPOURLACOUPE
100
AcDbVertex
100
AcDb2dVertex
 10
72.20000000000002
 20
118.0
 30
0.0000000000000234
  0
VERTEX
  5
14C
330
149
100
AcDbEntity
  8
OKPOURLACOUPE
100
AcDbVertex
100
AcDb2dVertex
 10
73.40000000000002
 20
118.0
 30
0.0000000000000028
  0
SEQEND
  5
14A
330
149
100
AcDbEntity
  8
OKPOURLACOUPE
  0
ARC
  5
14D
330
1F
100
AcDbEntity
  8
OKPOURLACOUPE
100
AcDbCircle
 10
73.70000000000002
 20
118.0
 30
0.0000000000000007
 40
0.2999999999999829
100
AcDbArc
 50
180.0
 51
0.0
  0
POLYLINE
  5
14E
330
1F
100
AcDbEntity
  8
OKPOURLACOUPE
100
AcDb2dPolyline
 66
     1
 10
0.0
 20
0.0
 30
-0.0000000000000013
  0
VERTEX
  5
150
330
14E
100
AcDbEntity
  8
OKPOURLACOUPE
100
AcDbVertex
100
AcDb2dVertex
 10
74.0
 20
118.0
 30
-0.0000000000000013
  0
VERTEX
  5
151
330
14E
100
AcDbEntity
  8
OKPOURLACOUPE
100
AcDbVertex
100
AcDb2dVertex
 10
74.0
 20
119.26
 30
-0.0000000000000002
  0
SEQEND
  5
14F
330
14E
100
AcDbEntity
  8
OKPOURLACOUPE
  0
ARC
  5
152
330
1F
100
AcDbEntity
  8
OKPOURLACOUPE
100
AcDbCircle
 10
74.2
 20
119.26
 30
0.0000000000000021
 40
0.2
100
AcDbArc
 50
89.99999999999594
 51
179.9999999999919
  0
POLYLINE
  5
153
330
1F
100
AcDbEntity
  8
OKPOURLACOUPE
100
AcDb2dPolyline
 66
     1
 10
0.0
 20
0.0
 30
0.0000000000000023
  0
VERTEX
  5
155
330
153
100
AcDbEntity
  8
OKPOURLACOUPE
100
AcDbVertex
100
AcDb2dVertex
 10
74.20000000000002
 20
119.46
 30
0.0000000000000023
  0
VERTEX
  5
156
330
153
100
AcDbEntity
  8
OKPOURLACOUPE
100
AcDbVertex
100
AcDb2dVertex
 10
78.80000000000001
 20
119.46
 30
0.0000000000000546
  0
SEQEND
  5
154
330
153
100
AcDbEntity
  8
OKPOURLACOUPE
  0
ARC
  5
157
330
1F
100
AcDbEntity
  8
OKPOURLACOUPE
100
AcDbCircle
 10
78.8
 20
119.26
 30
0.0000000000000453
 40
0.2
100
AcDbArc
 50
0.0
 51
89.99999999999594
  0
POLYLINE
  5
158
330
1F
100
AcDbEntity
  8
OKPOURLACOUPE
100
AcDb2dPolyline
 66
     1
 10
0.0
 20
0.0
 30
0.0000000000000475
  0
VERTEX
  5
15A
330
158
100
AcDbEntity
  8
OKPOURLACOUPE
100
AcDbVertex
100
AcDb2dVertex
 10
79.0
 20
119.26
 30
0.0000000000000475
  0
VERTEX
  5
15B
330
158
100
AcDbEntity
  8
OKPOURLACOUPE
100
AcDbVertex
100
AcDb2dVertex
 10
79.0
 20
118.0000000000002
 30
-0.0000000000000111
  0
SEQEND
  5
159
330
158
100
AcDbEntity
  8
OKPOURLACOUPE
  0
ARC
  5
15C
330
1F
100
AcDbEntity
  8
OKPOURLACOUPE
100
AcDbCircle
 10
79.29999999999998
 20
118.0000000000005
 30
-0.0000000000000111
 40
0.2999999999999829
100
AcDbArc
 50
180.0000000000488
 51
359.9999999999077
  0
POLYLINE
  5
15D
330
1F
100
AcDbEntity
  8
OKPOURLACOUPE
100
AcDb2dPolyline
 66
     1
 10
0.0
 20
0.0
 30
0.0000000000000213
  0
VERTEX
  5
15F
330
15D
100
AcDbEntity
  8
OKPOURLACOUPE
100
AcDbVertex
100
AcDb2dVertex
 10
95.60000000000001
 20
116.0000000000004
 30
0.0000000000000213
  0
VERTEX
  5
160
330
15D
100
AcDbEntity
  8
OKPOURLACOUPE
100
AcDbVertex
100
AcDb2dVertex
 10
96.8
 20
116.0
 30
0.0000000000000305
  0
SEQEND
  5
15E
330
15D
100
AcDbEntity
  8
OKPOURLACOUPE
  0
ARC
  5
161
330
1F
100
AcDbEntity
  8
OKPOURLACOUPE
100
AcDbCircle
 10
96.8
 20
116.2
 30
0.0000000000000295
 40
0.2
100
AcDbArc
 50
270.0
 51
0.0000000000081422
  0
POLYLINE
  5
162
330
1F
100
AcDbEntity
  8
OKPOURLACOUPE
100
AcDb2dPolyline
 66
     1
 10
0.0
 20
0.0
 30
0.0000000000000307
  0
VERTEX
  5
164
330
162
100
AcDbEntity
  8
OKPOURLACOUPE
100
AcDbVertex
100
AcDb2dVertex
 10
97.0
 20
116.2
 30
0.0000000000000307
  0
VERTEX
  5
165
330
162
100
AcDbEntity
  8
OKPOURLACOUPE
100
AcDbVertex
100
AcDb2dVertex
 10
97.0
 20
118.0
 30
0.0000000000000221
  0
SEQEND
  5
163
330
162
100
AcDbEntity
  8
OKPOURLACOUPE
  0
ARC
  5
166
330
1F
100
AcDbEntity
  8
OKPOURLACOUPE
100
AcDbCircle
 10
96.0
 20
118.0
 30
0.0000000000000221
 40
1.0
100
AcDbArc
 50
0.0000000000016284
 51
90.0
  0
POLYLINE
  5
167
330
1F
100
AcDbEntity
  8
OKPOURLACOUPE
100
AcDb2dPolyline
 66
     1
 10
0.0
 20
0.0
 30
0.0000000000000173
  0
VERTEX
  5
169
330
167
100
AcDbEntity
  8
OKPOURLACOUPE
100
AcDbVertex
100
AcDb2dVertex
 10
96.0
 20
119.0
 30
0.0000000000000173
  0
VERTEX
  5
16A
330
167
100
AcDbEntity
  8
OKPOURLACOUPE
100
AcDbVertex
100
AcDb2dVertex
 10
89.0
 20
119.0
 30
0.0000000000000173
  0
SEQEND
  5
168
330
167
100
AcDbEntity
  8
OKPOURLACOUPE
  0
ARC
  5
16B
330
1F
100
AcDbEntity
  8
OKPOURLACOUPE
100
AcDbCircle
 10
89.0
 20
118.0
 30
0.000000000000011
 40
1.0
100
AcDbArc
 50
90.0
 51
180.0
  0
POLYLINE
  5
16C
330
1F
100
AcDbEntity
  8
OKPOURLACOUPE
100
AcDb2dPolyline
 66
     1
 10
0.0
 20
0.0
 30
0.000000000000011
  0
VERTEX
  5
16E
330
16C
100
AcDbEntity
  8
OKPOURLACOUPE
100
AcDbVertex
100
AcDb2dVertex
 10
88.0
 20
118.0
 30
0.000000000000011
  0
VERTEX
  5
16F
330
16C
100
AcDbEntity
  8
OKPOURLACOUPE
100
AcDbVertex
100
AcDb2dVertex
 10
88.0
 20
116.2
 30
-0.0000000000000005
  0
SEQEND
  5
16D
330
16C
100
AcDbEntity
  8
OKPOURLACOUPE
  0
ARC
  5
170
330
1F
100
AcDbEntity
  8
OKPOURLACOUPE
100
AcDbCircle
 10
88.2
 20
116.2
 30
-0.0000000000000014
 40
0.2
100
AcDbArc
 50
180.0
 51
270.0
  0
POLYLINE
  5
171
330
1F
100
AcDbEntity
  8
OKPOURLACOUPE
100
AcDb2dPolyline
 66
     1
 10
0.0
 20
0.0
 30
-0.0000000000000027
  0
VERTEX
  5
173
330
171
100
AcDbEntity
  8
OKPOURLACOUPE
100
AcDbVertex
100
AcDb2dVertex
 10
88.2
 20
116.0
 30
-0.0000000000000027
  0
VERTEX
  5
174
330
171
100
AcDbEntity
  8
OKPOURLACOUPE
100
AcDbVertex
100
AcDb2dVertex
 10
90.0
 20
116.0
 30
-0.0000000000000111
  0
SEQEND
  5
172
330
171
100
AcDbEntity
  8
OKPOURLACOUPE
  0
POLYLINE
  5
175
330
1F
100
AcDbEntity
  8
OKPOURLACOUPE
100
AcDb2dPolyline
 66
     1
 10
0.0
 20
0.0
 30
-0.0000000000000111
  0
VERTEX
  5
177
330
175
100
AcDbEntity
  8
OKPOURLACOUPE
100
AcDbVertex
100
AcDb2dVertex
 10
90.0
 20
116.0
 30
-0.0000000000000111
  0
VERTEX
  5
178
330
175
100
AcDbEntity
  8
OKPOURLACOUPE
100
AcDbVertex
100
AcDb2dVertex
 10
91.9
 20
116.0
 30
-0.0000000000000111
  0
SEQEND
  5
176
330
175
100
AcDbEntity
  8
OKPOURLACOUPE
  0
ARC
  5
179
330
1F
100
AcDbEntity
  8
OKPOURLACOUPE
100
AcDbCircle
 10
92.2
 20
116.0
 30
-0.0000000000000111
 40
0.2999999999999972
100
AcDbArc
 50
0.0
 51
180.0
  0
POLYLINE
  5
17A
330
1F
100
AcDbEntity
  8
OKPOURLACOUPE
100
AcDb2dPolyline
 66
     1
 10
0.0
 20
0.0
 30
-0.0000000000000111
  0
VERTEX
  5
17C
330
17A
100
AcDbEntity
  8
OKPOURLACOUPE
100
AcDbVertex
100
AcDb2dVertex
 10
92.5
 20
116.0
 30
-0.0000000000000111
  0
VERTEX
  5
17D
330
17A
100
AcDbEntity
  8
OKPOURLACOUPE
100
AcDbVertex
100
AcDb2dVertex
 10
92.5
 20
114.74
 30
0.0000000000000091
  0
SEQEND
  5
17B
330
17A
100
AcDbEntity
  8
OKPOURLACOUPE
  0
ARC
  5
17E
330
1F
100
AcDbEntity
  8
OKPOURLACOUPE
100
AcDbCircle
 10
92.7
 20
114.74
 30
0.0000000000000138
 40
0.2
100
AcDbArc
 50
179.9999999999919
 51
269.9999999999959
  0
POLYLINE
  5
17F
330
1F
100
AcDbEntity
  8
OKPOURLACOUPE
100
AcDb2dPolyline
 66
     1
 10
0.0
 20
0.0
 30
0.000000000000017
  0
VERTEX
  5
181
330
17F
100
AcDbEntity
  8
OKPOURLACOUPE
100
AcDbVertex
100
AcDb2dVertex
 10
92.69999999999999
 20
114.54
 30
0.000000000000017
  0
VERTEX
  5
182
330
17F
100
AcDbEntity
  8
OKPOURLACOUPE
100
AcDbVertex
100
AcDb2dVertex
 10
94.8
 20
114.54
 30
0.0000000000000664
  0
SEQEND
  5
180
330
17F
100
AcDbEntity
  8
OKPOURLACOUPE
  0
ARC
  5
183
330
1F
100
AcDbEntity
  8
OKPOURLACOUPE
100
AcDbCircle
 10
94.8
 20
114.74
 30
0.0000000000000593
 40
0.2
100
AcDbArc
 50
270.0
 51
0.0
  0
POLYLINE
  5
184
330
1F
100
AcDbEntity
  8
OKPOURLACOUPE
100
AcDb2dPolyline
 66
     1
 10
0.0
 20
0.0
 30
0.000000000000064
  0
VERTEX
  5
186
330
184
100
AcDbEntity
  8
OKPOURLACOUPE
100
AcDbVertex
100
AcDb2dVertex
 10
95.0
 20
114.74
 30
0.000000000000064
  0
VERTEX
  5
187
330
184
100
AcDbEntity
  8
OKPOURLACOUPE
100
AcDbVertex
100
AcDb2dVertex
 10
95.0
 20
116.0
 30
0.0000000000000195
  0
SEQEND
  5
185
330
184
100
AcDbEntity
  8
OKPOURLACOUPE
  0
ARC
  5
188
330
1F
100
AcDbEntity
  8
OKPOURLACOUPE
100
AcDbCircle
 10
95.30000000000001
 20
116.0000000000008
 30
0.0000000000000204
 40
0.2999999999999972
100
AcDbArc
 50
359.999999999924
 51
180.0
  0
POLYLINE
  5
189
330
1F
100
AcDbEntity
  8
OKPOURLACOUPE
100
AcDb2dPolyline
 66
     1
 10
0.0
 20
0.0
 30
-0.0000000000000524
  0
VERTEX
  5
18B
330
189
100
AcDbEntity
  8
OKPOURLACOUPE
100
AcDbVertex
100
AcDb2dVertex
 10
118.4790076784829
 20
119.712704604435
 30
-0.0000000000000524
  0
VERTEX
  5
18C
330
189
100
AcDbEntity
  8
OKPOURLACOUPE
100
AcDbVertex
100
AcDb2dVertex
 10
115.0840751432726
 20
122.8166429223417
 30
-0.0000000000000524
  0
SEQEND
  5
18A
330
189
100
AcDbEntity
  8
OKPOURLACOUPE
  0
ARC
  5
18D
330
1F
100
AcDbEntity
  8
OKPOURLACOUPE
100
AcDbCircle
 10
114.9491213033637
 20
122.6690371599412
 30
-0.000000000000048
 40
0.2
100
AcDbArc
 50
47.56377021149753
 51
137.5637702114543
  0
POLYLINE
  5
18E
330
1F
100
AcDbEntity
  8
OKPOURLACOUPE
100
AcDb2dPolyline
 66
     1
 10
0.0
 20
0.0
 30
-0.000000000000048
  0
VERTEX
  5
190
330
18E
100
AcDbEntity
  8
OKPOURLACOUPE
100
AcDbVertex
100
AcDb2dVertex
 10
114.8015155409632
 20
122.8039909998502
 30
-0.000000000000048
  0
VERTEX
  5
191
330
18E
100
AcDbEntity
  8
OKPOURLACOUPE
100
AcDbVertex
100
AcDb2dVertex
 10
113.9513063495366
 20
121.8740746967273
 30
-0.00000000000002
  0
SEQEND
  5
18F
330
18E
100
AcDbEntity
  8
OKPOURLACOUPE
  0
ARC
  5
192
330
1F
100
AcDbEntity
  8
OKPOURLACOUPE
100
AcDbCircle
 10
113.7298977059359
 20
122.0765054565908
 30
-0.00000000000002
 40
0.2999999999999972
100
AcDbArc
 50
137.5637702114659
 51
317.5637702114659
  0
POLYLINE
  5
193
330
1F
100
AcDbEntity
  8
OKPOURLACOUPE
100
AcDb2dPolyline
 66
     1
 10
0.0
 20
0.0
 30
-0.00000000000002
  0
VERTEX
  5
195
330
193
100
AcDbEntity
  8
OKPOURLACOUPE
100
AcDbVertex
100
AcDb2dVertex
 10
113.5084890623352
 20
122.2789362164543
 30
-0.00000000000002
  0
VERTEX
  5
196
330
193
100
AcDbEntity
  8
OKPOURLACOUPE
100
AcDbVertex
100
AcDb2dVertex
 10
110.2611622895252
 20
125.247920694452
 30
-0.00000000000002
  0
SEQEND
  5
194
330
193
100
AcDbEntity
  8
OKPOURLACOUPE
  0
POLYLINE
  5
197
330
1F
100
AcDbEntity
  8
OKPOURLACOUPE
100
AcDb2dPolyline
 66
     1
 10
0.0
 20
0.0
 30
-0.00000000000002
  0
VERTEX
  5
199
330
197
100
AcDbEntity
  8
OKPOURLACOUPE
100
AcDbVertex
100
AcDb2dVertex
 10
110.2611622895252
 20
125.247920694452
 30
-0.00000000000002
  0
VERTEX
  5
19A
330
197
100
AcDbEntity
  8
OKPOURLACOUPE
100
AcDbVertex
100
AcDb2dVertex
 10
109.5231334775229
 20
125.9226898939969
 30
-0.0000000000000111
  0
SEQEND
  5
198
330
197
100
AcDbEntity
  8
OKPOURLACOUPE
  0
POLYLINE
  5
19B
330
1F
100
AcDbEntity
  8
OKPOURLACOUPE
100
AcDb2dPolyline
 66
     1
 10
0.0
 20
0.0
 30
-0.0000000000000111
  0
VERTEX
  5
19D
330
19B
100
AcDbEntity
  8
OKPOURLACOUPE
100
AcDbVertex
100
AcDb2dVertex
 10
109.5231334775229
 20
125.9226898939969
 30
-0.0000000000000111
  0
VERTEX
  5
19E
330
19B
100
AcDbEntity
  8
OKPOURLACOUPE
100
AcDbVertex
100
AcDb2dVertex
 10
108.932710427921
 20
126.462505253633
 30
0.0000000000000009
  0
SEQEND
  5
19C
330
19B
100
AcDbEntity
  8
OKPOURLACOUPE
  0
ARC
  5
19F
330
1F
100
AcDbEntity
  8
OKPOURLACOUPE
100
AcDbCircle
 10
108.797756588012
 20
126.3148994912326
 30
0.0000000000000018
 40
0.2
100
AcDbArc
 50
47.56377021146578
 51
137.5637702114658
  0
POLYLINE
  5
1A0
330
1F
100
AcDbEntity
  8
OKPOURLACOUPE
100
AcDb2dPolyline
 66
     1
 10
0.0
 20
0.0
 30
0.0000000000000047
  0
VERTEX
  5
1A2
330
1A0
100
AcDbEntity
  8
OKPOURLACOUPE
100
AcDbVertex
100
AcDb2dVertex
 10
108.6501508256115
 20
126.4498533311416
 30
0.0000000000000047
  0
VERTEX
  5
1A3
330
1A0
100
AcDbEntity
  8
OKPOURLACOUPE
100
AcDbVertex
100
AcDb2dVertex
 10
108.1103354659756
 20
125.8594302815396
 30
0.0000000000000084
  0
SEQEND
  5
1A1
330
1A0
100
AcDbEntity
  8
OKPOURLACOUPE
  0
POLYLINE
  5
1A4
330
1F
100
AcDbEntity
  8
OKPOURLACOUPE
100
AcDb2dPolyline
 66
     1
 10
0.0
 20
0.0
 30
0.0000000000000084
  0
VERTEX
  5
1A6
330
1A4
100
AcDbEntity
  8
OKPOURLACOUPE
100
AcDbVertex
100
AcDb2dVertex
 10
108.1103354659756
 20
125.8594302815396
 30
0.0000000000000084
  0
VERTEX
  5
1A7
330
1A4
100
AcDbEntity
  8
OKPOURLACOUPE
100
AcDbVertex
100
AcDb2dVertex
 10
107.8485948610545
 20
125.5731514949071
 30
-0.0000000000000044
  0
SEQEND
  5
1A5
330
1A4
100
AcDbEntity
  8
OKPOURLACOUPE
  0
ARC
  5
1A8
330
1F
100
AcDbEntity
  8
OKPOURLACOUPE
100
AcDbCircle
 10
107.1105660490522
 20
126.247920694452
 30
-0.0000000000000022
 40
1.0
100
AcDbArc
 50
270.0
 51
317.5637702114612
  0
POLYLINE
  5
1A9
330
1F
100
AcDbEntity
  8
OKPOURLACOUPE
100
AcDb2dPolyline
 66
     1
 10
0.0
 20
0.0
 30
-0.00000000000002
  0
VERTEX
  5
1AB
330
1A9
100
AcDbEntity
  8
OKPOURLACOUPE
100
AcDbVertex
100
AcDb2dVertex
 10
107.1105660490522
 20
125.247920694452
 30
-0.00000000000002
  0
VERTEX
  5
1AC
330
1A9
100
AcDbEntity
  8
OKPOURLACOUPE
100
AcDbVertex
100
AcDb2dVertex
 10
64.38978947686955
 20
125.2479206944519
 30
-0.00000000000002
  0
SEQEND
  5
1AA
330
1A9
100
AcDbEntity
  8
OKPOURLACOUPE
  0
POLYLINE
  5
1AD
330
1F
100
AcDbEntity
  8
OKPOURLACOUPE
100
AcDb2dPolyline
 66
     1
 10
0.0
 20
0.0
 30
-0.00000000000002
  0
VERTEX
  5
1AF
330
1AD
100
AcDbEntity
  8
OKPOURLACOUPE
100
AcDbVertex
100
AcDb2dVertex
 10
64.38978947686955
 20
125.2479206944519
 30
-0.00000000000002
  0
VERTEX
  5
1B0
330
1AD
100
AcDbEntity
  8
OKPOURLACOUPE
100
AcDbVertex
100
AcDb2dVertex
 10
62.92808279657883
 20
125.2456863053559
 30
0.0000000000000302
  0
SEQEND
  5
1AE
330
1AD
100
AcDbEntity
  8
OKPOURLACOUPE
  0
ARC
  5
1B1
330
1F
100
AcDbEntity
  8
OKPOURLACOUPE
100
AcDbCircle
 10
62.92838851954166
 20
125.0456865390224
 30
0.0000000000000269
 40
0.2
100
AcDbArc
 50
90.08758321145415
 51
137.5637702115307
  0
POLYLINE
  5
1B2
330
1F
100
AcDbEntity
  8
OKPOURLACOUPE
100
AcDb2dPolyline
 66
     1
 10
0.0
 20
0.0
 30
0.0000000000000342
  0
VERTEX
  5
1B4
330
1B2
100
AcDbEntity
  8
OKPOURLACOUPE
100
AcDbVertex
100
AcDb2dVertex
 10
62.78078275714104
 20
125.1806403789312
 30
0.0000000000000342
  0
VERTEX
  5
1B5
330
1B2
100
AcDbEntity
  8
OKPOURLACOUPE
100
AcDbVertex
100
AcDb2dVertex
 10
61.98992120541858
 20
124.3156355567348
 30
0.0000000000000471
  0
SEQEND
  5
1B3
330
1B2
100
AcDbEntity
  8
OKPOURLACOUPE
  0
ARC
  5
1B6
330
1F
100
AcDbEntity
  8
OKPOURLACOUPE
100
AcDbCircle
 10
62.13752696781903
 20
124.1806817168258
 30
0.0000000000000442
 40
0.2
100
AcDbArc
 50
137.5637702114644
 51
227.5637702114588
  0
POLYLINE
  5
1B7
330
1F
100
AcDbEntity
  8
OKPOURLACOUPE
100
AcDb2dPolyline
 66
     1
 10
0.0
 20
0.0
 30
0.0000000000000464
  0
VERTEX
  5
1B9
330
1B7
100
AcDbEntity
  8
OKPOURLACOUPE
100
AcDbVertex
100
AcDb2dVertex
 10
62.00257312791005
 20
124.0330759544254
 30
0.0000000000000464
  0
VERTEX
  5
1BA
330
1B7
100
AcDbEntity
  8
OKPOURLACOUPE
100
AcDbVertex
100
AcDb2dVertex
 10
63.54984272027734
 20
122.6184294699753
 30
0.0000000000000154
  0
SEQEND
  5
1B8
330
1B7
100
AcDbEntity
  8
OKPOURLACOUPE
  0
ARC
  5
1BB
330
1F
100
AcDbEntity
  8
OKPOURLACOUPE
100
AcDbCircle
 10
63.68479656018629
 20
122.7660352323757
 30
0.000000000000011
 40
0.2
100
AcDbArc
 50
227.5637702114803
 51
317.5637702114658
  0
POLYLINE
  5
1BC
330
1F
100
AcDbEntity
  8
OKPOURLACOUPE
100
AcDb2dPolyline
 66
     1
 10
0.0
 20
0.0
 30
0.000000000000008
  0
VERTEX
  5
1BE
330
1BC
100
AcDbEntity
  8
OKPOURLACOUPE
100
AcDbVertex
100
AcDb2dVertex
 10
63.83240232258676
 20
122.6310813924668
 30
0.000000000000008
  0
VERTEX
  5
1BF
330
1BC
100
AcDbEntity
  8
OKPOURLACOUPE
100
AcDbVertex
100
AcDb2dVertex
 10
64.68261151401337
 20
123.5609976955896
 30
-0.00000000000002
  0
SEQEND
  5
1BD
330
1BC
100
AcDbEntity
  8
OKPOURLACOUPE
  0
ARC
  5
1C0
330
1F
100
AcDbEntity
  8
OKPOURLACOUPE
100
AcDbCircle
 10
64.90402015761406
 20
123.3585669357261
 30
-0.00000000000002
 40
0.2999999999999972
100
AcDbArc
 50
317.5637702114659
 51
137.5637702114659
  0
POLYLINE
  5
1C1
330
1F
100
AcDbEntity
  8
OKPOURLACOUPE
100
AcDb2dPolyline
 66
     1
 10
0.0
 20
0.0
 30
-0.00000000000002
  0
VERTEX
  5
1C3
330
1C1
100
AcDbEntity
  8
OKPOURLACOUPE
100
AcDbVertex
100
AcDb2dVertex
 10
65.12542880121477
 20
123.1561361758626
 30
-0.00000000000002
  0
VERTEX
  5
1C4
330
1C1
100
AcDbEntity
  8
OKPOURLACOUPE
100
AcDbVertex
100
AcDb2dVertex
 10
66.52768354401907
 20
121.8740746967273
 30
-0.00000000000002
  0
SEQEND
  5
1C2
330
1C1
100
AcDbEntity
  8
OKPOURLACOUPE
  0
POLYLINE
  5
1C5
330
1F
100
AcDbEntity
  8
OKPOURLACOUPE
100
AcDb2dPolyline
 66
     1
 10
0.0
 20
0.0
 30
-0.00000000000002
  0
VERTEX
  5
1C7
330
1C5
100
AcDbEntity
  8
OKPOURLACOUPE
100
AcDbVertex
100
AcDb2dVertex
 10
66.52768354401907
 20
121.8740746967273
 30
-0.00000000000002
  0
VERTEX
  5
1C8
330
1C5
100
AcDbEntity
  8
OKPOURLACOUPE
100
AcDbVertex
100
AcDb2dVertex
 10
67.85613540562294
 20
120.6594901375466
 30
-0.0000000000000097
  0
SEQEND
  5
1C6
330
1C5
100
AcDbEntity
  8
OKPOURLACOUPE
  0
ARC
  5
1C9
330
1F
100
AcDbEntity
  8
OKPOURLACOUPE
100
AcDbCircle
 10
67.99108924553191
 20
120.807095899947
 30
-0.0000000000000103
 40
0.2
100
AcDbArc
 50
227.5637702114631
 51
317.5637702115351
  0
POLYLINE
  5
1CA
330
1F
100
AcDbEntity
  8
OKPOURLACOUPE
100
AcDb2dPolyline
 66
     1
 10
0.0
 20
0.0
 30
-0.0000000000000093
  0
VERTEX
  5
1CC
330
1CA
100
AcDbEntity
  8
OKPOURLACOUPE
100
AcDbVertex
100
AcDb2dVertex
 10
68.13869500793255
 20
120.6721420600382
 30
-0.0000000000000093
  0
VERTEX
  5
1CD
330
1CA
100
AcDbEntity
  8
OKPOURLACOUPE
100
AcDbVertex
100
AcDb2dVertex
 10
68.94025097248908
 20
121.5488438962721
 30
-0.0000000000000129
  0
SEQEND
  5
1CB
330
1CA
100
AcDbEntity
  8
OKPOURLACOUPE
  0
ARC
  5
1CE
330
1F
100
AcDbEntity
  8
OKPOURLACOUPE
100
AcDbCircle
 10
69.67827978449152
 20
120.8740746967273
 30
-0.000000000000012
 40
1.0
100
AcDbArc
 50
89.99999999998941
 51
137.5637702114779
  0
POLYLINE
  5
1CF
330
1F
100
AcDbEntity
  8
OKPOURLACOUPE
100
AcDb2dPolyline
 66
     1
 10
0.0
 20
0.0
 30
-0.0000000000000142
  0
VERTEX
  5
1D1
330
1CF
100
AcDbEntity
  8
OKPOURLACOUPE
100
AcDbVertex
100
AcDb2dVertex
 10
69.6782797844917
 20
121.8740746967273
 30
-0.0000000000000142
  0
VERTEX
  5
1D2
330
1CF
100
AcDbEntity
  8
OKPOURLACOUPE
100
AcDbVertex
100
AcDb2dVertex
 10
104.8084492066794
 20
121.8740746967273
 30
-0.00000000000002
  0
SEQEND
  5
1D0
330
1CF
100
AcDbEntity
  8
OKPOURLACOUPE
  0
ARC
  5
1D3
330
1F
100
AcDbEntity
  8
OKPOURLACOUPE
100
AcDbCircle
 10
104.8084492066794
 20
111.8740746967274
 30
-0.00000000000002
 40
9.999999999999948
100
AcDbArc
 50
5.127540422929457
 51
90.0
  0
POLYLINE
  5
1D4
330
1F
100
AcDbEntity
  8
OKPOURLACOUPE
100
AcDb2dPolyline
 66
     1
 10
0.0
 20
0.0
 30
-0.00000000000002
  0
VERTEX
  5
1D6
330
1D4
100
AcDbEntity
  8
OKPOURLACOUPE
100
AcDbVertex
100
AcDb2dVertex
 10
114.7684314209968
 20
112.7678052436371
 30
-0.00000000000002
  0
VERTEX
  5
1D7
330
1D4
100
AcDbEntity
  8
OKPOURLACOUPE
100
AcDbVertex
100
AcDb2dVertex
 10
117.9081219740692
 20
77.77821898054273
 30
-0.0000000000000102
  0
SEQEND
  5
1D5
330
1D4
100
AcDbEntity
  8
OKPOURLACOUPE
  0
ARC
  5
1D8
330
1F
100
AcDbEntity
  8
OKPOURLACOUPE
100
AcDbCircle
 10
116.9121237526374
 20
77.68884592585192
 30
-0.0000000000000027
 40
1.0
100
AcDbArc
 50
317.5637702114682
 51
5.127540422920602
  0
POLYLINE
  5
1D9
330
1F
100
AcDbEntity
  8
OKPOURLACOUPE
100
AcDb2dPolyline
 66
     1
 10
0.0
 20
0.0
 30
-0.0000000000000075
  0
VERTEX
  5
1DB
330
1D9
100
AcDbEntity
  8
OKPOURLACOUPE
100
AcDbVertex
100
AcDb2dVertex
 10
117.6501525646397
 20
77.01407672630702
 30
-0.0000000000000075
  0
VERTEX
  5
1DC
330
1D9
100
AcDbEntity
  8
OKPOURLACOUPE
100
AcDbVertex
100
AcDb2dVertex
 10
116.8485966000824
 20
76.13737489007244
 30
-0.0000000000000012
  0
SEQEND
  5
1DA
330
1D9
100
AcDbEntity
  8
OKPOURLACOUPE
  0
ARC
  5
1DD
330
1F
100
AcDbEntity
  8
OKPOURLACOUPE
100
AcDbCircle
 10
116.9962023624829
 20
76.00242105016345
 30
-0.0000000000000032
 40
0.2
100
AcDbArc
 50
137.563770211463
 51
227.563770211437
  0
POLYLINE
  5
1DE
330
1F
100
AcDbEntity
  8
OKPOURLACOUPE
100
AcDb2dPolyline
 66
     1
 10
0.0
 20
0.0
 30
-0.0000000000000024
  0
VERTEX
  5
1E0
330
1DE
100
AcDbEntity
  8
OKPOURLACOUPE
100
AcDbVertex
100
AcDb2dVertex
 10
116.8612485225738
 20
75.85481528776306
 30
-0.0000000000000024
  0
VERTEX
  5
1E1
330
1DE
100
AcDbEntity
  8
OKPOURLACOUPE
100
AcDbVertex
100
AcDb2dVertex
 10
117.7468830969768
 20
75.04509224830889
 30
-0.0000000000000141
  0
SEQEND
  5
1DF
330
1DE
100
AcDbEntity
  8
OKPOURLACOUPE
  0
ARC
  5
1E2
330
1F
100
AcDbEntity
  8
OKPOURLACOUPE
100
AcDbCircle
 10
117.968291740578
 20
74.84266148844578
 30
-0.00000000000002
 40
0.3000000000000007
100
AcDbArc
 50
317.5637702113985
 51
137.5637702114639
  0
POLYLINE
  5
1E3
330
1F
100
AcDbEntity
  8
OKPOURLACOUPE
100
AcDb2dPolyline
 66
     1
 10
0.0
 20
0.0
 30
-0.00000000000002
  0
VERTEX
  5
1E5
330
1E3
100
AcDbEntity
  8
OKPOURLACOUPE
100
AcDbVertex
100
AcDb2dVertex
 10
118.1897003841784
 20
74.64023072858205
 30
-0.00000000000002
  0
VERTEX
  5
1E6
330
1E3
100
AcDbEntity
  8
OKPOURLACOUPE
100
AcDbVertex
100
AcDb2dVertex
 10
117.3394911927516
 20
73.71031442545898
 30
0.000000000000008
  0
SEQEND
  5
1E4
330
1E3
100
AcDbEntity
  8
OKPOURLACOUPE
  0
ARC
  5
1E7
330
1F
100
AcDbEntity
  8
OKPOURLACOUPE
100
AcDbCircle
 10
117.487096955152
 20
73.57536058554997
 30
0.000000000000008
 40
0.2
100
AcDbArc
 50
137.5637702114543
 51
227.56377021146
  0
POLYLINE
  5
1E8
330
1F
100
AcDbEntity
  8
OKPOURLACOUPE
100
AcDb2dPolyline
 66
     1
 10
0.0
 20
0.0
 30
0.0000000000000124
  0
VERTEX
  5
1EA
330
1E8
100
AcDbEntity
  8
OKPOURLACOUPE
100
AcDbVertex
100
AcDb2dVertex
 10
117.352143115243
 20
73.42775482314953
 30
0.0000000000000124
  0
VERTEX
  5
1EB
330
1E8
100
AcDbEntity
  8
OKPOURLACOUPE
100
AcDbVertex
100
AcDb2dVertex
 10
118.9020036204478
 20
72.01073950410515
 30
0.0000000000000124
  0
SEQEND
  5
1E9
330
1E8
100
AcDbEntity
  8
OKPOURLACOUPE
  0
ARC
  5
1EC
330
1F
100
AcDbEntity
  8
OKPOURLACOUPE
100
AcDbCircle
 10
119.0369574603568
 20
72.1583452665056
 30
0.000000000000008
 40
0.2
100
AcDbArc
 50
227.5637702114688
 51
317.5637702114745
  0
POLYLINE
  5
1ED
330
1F
100
AcDbEntity
  8
OKPOURLACOUPE
100
AcDb2dPolyline
 66
     1
 10
0.0
 20
0.0
 30
0.000000000000008
  0
VERTEX
  5
1EF
330
1ED
100
AcDbEntity
  8
OKPOURLACOUPE
100
AcDbVertex
100
AcDb2dVertex
 10
119.1845632227573
 20
72.02339142659663
 30
0.000000000000008
  0
VERTEX
  5
1F0
330
1ED
100
AcDbEntity
  8
OKPOURLACOUPE
100
AcDbVertex
100
AcDb2dVertex
 10
120.0347724141839
 20
72.95330772971948
 30
-0.00000000000002
  0
SEQEND
  5
1EE
330
1ED
100
AcDbEntity
  8
OKPOURLACOUPE
  0
ARC
  5
1F1
330
1F
100
AcDbEntity
  8
OKPOURLACOUPE
100
AcDbCircle
 10
120.2561810577846
 20
72.750876969856
 30
-0.00000000000002
 40
0.2999999999999972
100
AcDbArc
 50
317.563770211462
 51
137.563770211462
  0
POLYLINE
  5
1F2
330
1F
100
AcDbEntity
  8
OKPOURLACOUPE
100
AcDb2dPolyline
 66
     1
 10
0.0
 20
0.0
 30
-0.00000000000002
  0
VERTEX
  5
1F4
330
1F2
100
AcDbEntity
  8
OKPOURLACOUPE
100
AcDbVertex
100
AcDb2dVertex
 10
120.4775897013852
 20
72.54844620999252
 30
-0.00000000000002
  0
VERTEX
  5
1F5
330
1F2
100
AcDbEntity
  8
OKPOURLACOUPE
100
AcDbVertex
100
AcDb2dVertex
 10
121.499650641564
 20
71.61399049325767
 30
-0.00000000000002
  0
SEQEND
  5
1F3
330
1F2
100
AcDbEntity
  8
OKPOURLACOUPE
  0
ARC
  5
1F6
330
1F
100
AcDbEntity
  8
OKPOURLACOUPE
100
AcDbCircle
 10
121.634604481473
 20
71.76159625565805
 30
-0.0000000000000199
 40
0.2
100
AcDbArc
 50
227.5637702114312
 51
5.127540422970436
  0
POLYLINE
  5
1F7
330
1F
100
AcDbEntity
  8
OKPOURLACOUPE
100
AcDb2dPolyline
 66
     1
 10
0.0
 20
0.0
 30
-0.0000000000000199
  0
VERTEX
  5
1F9
330
1F7
100
AcDbEntity
  8
OKPOURLACOUPE
100
AcDbVertex
100
AcDb2dVertex
 10
121.8338041257594
 20
71.77947086659637
 30
-0.0000000000000199
  0
VERTEX
  5
1FA
330
1F7
100
AcDbEntity
  8
OKPOURLACOUPE
100
AcDbVertex
100
AcDb2dVertex
 10
117.9230288196569
 20
115.3622404470421
 30
-0.0000000000000093
  0
SEQEND
  5
1F8
330
1F7
100
AcDbEntity
  8
OKPOURLACOUPE
  0
ARC
  5
1FB
330
1F
100
AcDbEntity
  8
OKPOURLACOUPE
100
AcDbCircle
 10
118.9190270410886
 20
115.451613501733
 30
-0.0000000000000013
 40
1.0
100
AcDbArc
 50
137.5637702114658
 51
185.1275404229321
  0
POLYLINE
  5
1FC
330
1F
100
AcDbEntity
  8
OKPOURLACOUPE
100
AcDb2dPolyline
 66
     1
 10
0.0
 20
0.0
 30
-0.0000000000000067
  0
VERTEX
  5
1FE
330
1FC
100
AcDbEntity
  8
OKPOURLACOUPE
100
AcDbVertex
100
AcDb2dVertex
 10
118.1809982290863
 20
116.126382701278
 30
-0.0000000000000067
  0
VERTEX
  5
1FF
330
1FC
100
AcDbEntity
  8
OKPOURLACOUPE
100
AcDbVertex
100
AcDb2dVertex
 10
118.4427388340074
 20
116.4126614879104
 30
0.0000000000000004
  0
SEQEND
  5
1FD
330
1FC
100
AcDbEntity
  8
OKPOURLACOUPE
  0
POLYLINE
  5
200
330
1F
100
AcDbEntity
  8
OKPOURLACOUPE
100
AcDb2dPolyline
 66
     1
 10
0.0
 20
0.0
 30
0.0000000000000004
  0
VERTEX
  5
202
330
200
100
AcDbEntity
  8
OKPOURLACOUPE
100
AcDbVertex
100
AcDb2dVertex
 10
118.4427388340074
 20
116.4126614879104
 30
0.0000000000000004
  0
VERTEX
  5
203
330
200
100
AcDbEntity
  8
OKPOURLACOUPE
100
AcDbVertex
100
AcDb2dVertex
 10
118.9825541936434
 20
117.0030845375122
 30
0.0000000000000042
  0
SEQEND
  5
201
330
200
100
AcDbEntity
  8
OKPOURLACOUPE
  0
ARC
  5
204
330
1F
100
AcDbEntity
  8
OKPOURLACOUPE
100
AcDbCircle
 10
118.8349484312429
 20
117.1380383774212
 30
0.0000000000000013
 40
0.2
100
AcDbArc
 50
317.563770211463
 51
47.56377021145153
  0
POLYLINE
  5
205
330
1F
100
AcDbEntity
  8
OKPOURLACOUPE
100
AcDb2dPolyline
 66
     1
 10
0.0
 20
0.0
 30
0.0000000000000023
  0
VERTEX
  5
207
330
205
100
AcDbEntity
  8
OKPOURLACOUPE
100
AcDbVertex
100
AcDb2dVertex
 10
118.9699022711519
 20
117.2856441398216
 30
0.0000000000000023
  0
VERTEX
  5
208
330
205
100
AcDbEntity
  8
OKPOURLACOUPE
100
AcDbVertex
100
AcDb2dVertex
 10
118.34257778095
 20
117.859197959435
 30
-0.0000000000000098
  0
SEQEND
  5
206
330
205
100
AcDbEntity
  8
OKPOURLACOUPE
  0
POLYLINE
  5
209
330
1F
100
AcDbEntity
  8
OKPOURLACOUPE
100
AcDb2dPolyline
 66
     1
 10
0.0
 20
0.0
 30
-0.0000000000000098
  0
VERTEX
  5
20B
330
209
100
AcDbEntity
  8
OKPOURLACOUPE
100
AcDbVertex
100
AcDb2dVertex
 10
118.34257778095
 20
117.859197959435
 30
-0.0000000000000098
  0
VERTEX
  5
20C
330
209
100
AcDbEntity
  8
OKPOURLACOUPE
100
AcDbVertex
100
AcDb2dVertex
 10
118.0842676967493
 20
118.0953671792756
 30
-0.0000000000000135
  0
SEQEND
  5
20A
330
209
100
AcDbEntity
  8
OKPOURLACOUPE
  0
ARC
  5
20D
330
1F
100
AcDbEntity
  8
OKPOURLACOUPE
100
AcDbCircle
 10
117.8628590531486
 20
118.2977979391392
 30
-0.00000000000002
 40
0.2999999999999972
100
AcDbArc
 50
137.563770211462
 51
317.563770211462
  0
POLYLINE
  5
20E
330
1F
100
AcDbEntity
  8
OKPOURLACOUPE
100
AcDb2dPolyline
 66
     1
 10
0.0
 20
0.0
 30
-0.00000000000002
  0
VERTEX
  5
210
330
20E
100
AcDbEntity
  8
OKPOURLACOUPE
100
AcDbVertex
100
AcDb2dVertex
 10
117.6414504095479
 20
118.5002286990026
 30
-0.00000000000002
  0
VERTEX
  5
211
330
20E
100
AcDbEntity
  8
OKPOURLACOUPE
100
AcDbVertex
100
AcDb2dVertex
 10
118.4916596009745
 20
119.4301450021255
 30
-0.000000000000048
  0
SEQEND
  5
20F
330
20E
100
AcDbEntity
  8
OKPOURLACOUPE
  0
ARC
  5
212
330
1F
100
AcDbEntity
  8
OKPOURLACOUPE
100
AcDbCircle
 10
118.3440538385741
 20
119.5650988420344
 30
-0.000000000000048
 40
0.1999999999999957
100
AcDbArc
 50
317.563770211463
 51
47.56377021150904
  0
POLYLINE
  5
213
330
1F
100
AcDbEntity
  8
OKPOURLACOUPE
100
AcDb2dPolyline
 66
     1
 10
0.0
 20
0.0
 30
0.0
  0
VERTEX
  5
215
330
213
100
AcDbEntity
  8
OKPOURLACOUPE
100
AcDbVertex
100
AcDb2dVertex
 10
13.00000000000001
 20
108.0
 30
0.0
  0
VERTEX
  5
216
330
213
100
AcDbEntity
  8
OKPOURLACOUPE
100
AcDbVertex
100
AcDb2dVertex
 10
13.00000000000001
 20
73.0
 30
0.0
  0
SEQEND
  5
214
330
213
100
AcDbEntity
  8
OKPOURLACOUPE
  0
ARC
  5
217
330
1F
100
AcDbEntity
  8
OKPOURLACOUPE
100
AcDbCircle
 10
18.00000000000001
 20
73.0
 30
0.0
 40
5.0
100
AcDbArc
 50
180.0
 51
270.0
  0
POLYLINE
  5
218
330
1F
100
AcDbEntity
  8
OKPOURLACOUPE
100
AcDb2dPolyline
 66
     1
 10
0.0
 20
0.0
 30
0.0
  0
VERTEX
  5
21A
330
218
100
AcDbEntity
  8
OKPOURLACOUPE
100
AcDbVertex
100
AcDb2dVertex
 10
18.00000000000001
 20
68.0
 30
0.0
  0
VERTEX
  5
21B
330
218
100
AcDbEntity
  8
OKPOURLACOUPE
100
AcDbVertex
100
AcDb2dVertex
 10
108.0
 20
68.0
 30
0.0
  0
SEQEND
  5
219
330
218
100
AcDbEntity
  8
OKPOURLACOUPE
  0
ARC
  5
21C
330
1F
100
AcDbEntity
  8
OKPOURLACOUPE
100
AcDbCircle
 10
108.0
 20
73.0
 30
0.0000000000000284
 40
5.0
100
AcDbArc
 50
270.0
 51
0.0
  0
POLYLINE
  5
21D
330
1F
100
AcDbEntity
  8
OKPOURLACOUPE
100
AcDb2dPolyline
 66
     1
 10
0.0
 20
0.0
 30
0.0
  0
VERTEX
  5
21F
330
21D
100
AcDbEntity
  8
OKPOURLACOUPE
100
AcDbVertex
100
AcDb2dVertex
 10
113.0
 20
73.0
 30
0.0
  0
VERTEX
  5
220
330
21D
100
AcDbEntity
  8
OKPOURLACOUPE
100
AcDbVertex
100
AcDb2dVertex
 10
113.0
 20
108.0
 30
0.0
  0
SEQEND
  5
21E
330
21D
100
AcDbEntity
  8
OKPOURLACOUPE
  0
ARC
  5
221
330
1F
100
AcDbEntity
  8
OKPOURLACOUPE
100
AcDbCircle
 10
108.0
 20
108.0
 30
0.0
 40
5.0
100
AcDbArc
 50
0.0
 51
90.0
  0
POLYLINE
  5
222
330
1F
100
AcDbEntity
  8
OKPOURLACOUPE
100
AcDb2dPolyline
 66
     1
 10
0.0
 20
0.0
 30
0.0
  0
VERTEX
  5
224
330
222
100
AcDbEntity
  8
OKPOURLACOUPE
100
AcDbVertex
100
AcDb2dVertex
 10
108.0
 20
113.0
 30
0.0
  0
VERTEX
  5
225
330
222
100
AcDbEntity
  8
OKPOURLACOUPE
100
AcDbVertex
100
AcDb2dVertex
 10
17.99999999999999
 20
113.0
 30
0.0
  0
SEQEND
  5
223
330
222
100
AcDbEntity
  8
OKPOURLACOUPE
  0
ARC
  5
226
330
1F
100
AcDbEntity
  8
OKPOURLACOUPE
100
AcDbCircle
 10
18.00000000000001
 20
108.0
 30
0.0
 40
5.0
100
AcDbArc
 50
90.0
 51
179.9999999999997
  0
POLYLINE
  5
227
330
1F
100
AcDbEntity
  8
OKPOURLACOUPE
100
AcDb2dPolyline
 66
     1
 10
0.0
 20
0.0
 30
0.0000000000000079
  0
VERTEX
  5
229
330
227
100
AcDbEntity
  8
OKPOURLACOUPE
100
AcDbVertex
100
AcDb2dVertex
 10
58.00000000000001
 20
108.0
 30
0.0000000000000079
  0
VERTEX
  5
22A
330
227
100
AcDbEntity
  8
OKPOURLACOUPE
100
AcDbVertex
100
AcDb2dVertex
 10
58.00000000000001
 20
106.54
 30
0.000000000000027
  0
SEQEND
  5
228
330
227
100
AcDbEntity
  8
OKPOURLACOUPE
  0
ARC
  5
22B
330
1F
100
AcDbEntity
  8
OKPOURLACOUPE
100
AcDbCircle
 10
58.30000000000001
 20
106.54
 30
0.0000000000000268
 40
0.2999999999999972
100
AcDbArc
 50
180.0
 51
0.0
  0
POLYLINE
  5
22C
330
1F
100
AcDbEntity
  8
OKPOURLACOUPE
100
AcDb2dPolyline
 66
     1
 10
0.0
 20
0.0
 30
0.0000000000000266
  0
VERTEX
  5
22E
330
22C
100
AcDbEntity
  8
OKPOURLACOUPE
100
AcDbVertex
100
AcDb2dVertex
 10
58.60000000000001
 20
106.54
 30
0.0000000000000266
  0
VERTEX
  5
22F
330
22C
100
AcDbEntity
  8
OKPOURLACOUPE
100
AcDbVertex
100
AcDb2dVertex
 10
67.4
 20
106.5400000000002
 30
0.0000000000000116
  0
SEQEND
  5
22D
330
22C
100
AcDbEntity
  8
OKPOURLACOUPE
  0
ARC
  5
230
330
1F
100
AcDbEntity
  8
OKPOURLACOUPE
100
AcDbCircle
 10
67.7
 20
106.5400000000005
 30
0.0000000000000114
 40
0.2999999999999972
100
AcDbArc
 50
180.0000000000488
 51
0.0
  0
POLYLINE
  5
231
330
1F
100
AcDbEntity
  8
OKPOURLACOUPE
100
AcDb2dPolyline
 66
     1
 10
0.0
 20
0.0
 30
0.0000000000000112
  0
VERTEX
  5
233
330
231
100
AcDbEntity
  8
OKPOURLACOUPE
100
AcDbVertex
100
AcDb2dVertex
 10
68.00000000000001
 20
106.54
 30
0.0000000000000112
  0
VERTEX
  5
234
330
231
100
AcDbEntity
  8
OKPOURLACOUPE
100
AcDbVertex
100
AcDb2dVertex
 10
68.00000000000001
 20
108.0000000000003
 30
0.0
  0
SEQEND
  5
232
330
231
100
AcDbEntity
  8
OKPOURLACOUPE
  0
ARC
  5
235
330
1F
100
AcDbEntity
  8
OKPOURLACOUPE
100
AcDbCircle
 10
67.7
 20
108.0000000000005
 30
0.0
 40
0.2999999999999972
100
AcDbArc
 50
359.9999999999512
 51
180.0000000000488
  0
POLYLINE
  5
236
330
1F
100
AcDbEntity
  8
OKPOURLACOUPE
100
AcDb2dPolyline
 66
     1
 10
0.0
 20
0.0
 30
0.0
  0
VERTEX
  5
238
330
236
100
AcDbEntity
  8
OKPOURLACOUPE
100
AcDbVertex
100
AcDb2dVertex
 10
67.4
 20
108.0000000000003
 30
0.0
  0
VERTEX
  5
239
330
236
100
AcDbEntity
  8
OKPOURLACOUPE
100
AcDbVertex
100
AcDb2dVertex
 10
58.60000000000001
 20
108.0
 30
0.0000000000000079
  0
SEQEND
  5
237
330
236
100
AcDbEntity
  8
OKPOURLACOUPE
  0
ARC
  5
23A
330
1F
100
AcDbEntity
  8
OKPOURLACOUPE
100
AcDbCircle
 10
58.30000000000001
 20
108.0
 30
0.0000000000000079
 40
0.2999999999999972
100
AcDbArc
 50
0.0
 51
180.0
  0
POLYLINE
  5
23B
330
1F
100
AcDbEntity
  8
OKPOURLACOUPE
100
AcDb2dPolyline
 66
     1
 10
0.0
 20
0.0
 30
-0.0000000000000524
  0
VERTEX
  5
23D
330
23B
100
AcDbEntity
  8
OKPOURLACOUPE
100
AcDbVertex
100
AcDb2dVertex
 10
5.520992321517113
 20
113.712704604435
 30
-0.0000000000000524
  0
VERTEX
  5
23E
330
23B
100
AcDbEntity
  8
OKPOURLACOUPE
100
AcDbVertex
100
AcDb2dVertex
 10
8.915924856727443
 20
116.8166429223417
 30
-0.0000000000000524
  0
SEQEND
  5
23C
330
23B
100
AcDbEntity
  8
OKPOURLACOUPE
  0
ARC
  5
23F
330
1F
100
AcDbEntity
  8
OKPOURLACOUPE
100
AcDbCircle
 10
9.05087869663636
 20
116.6690371599412
 30
-0.000000000000048
 40
0.2
100
AcDbArc
 50
42.43622978854744
 51
132.4362297885032
  0
POLYLINE
  5
240
330
1F
100
AcDbEntity
  8
OKPOURLACOUPE
100
AcDb2dPolyline
 66
     1
 10
0.0
 20
0.0
 30
-0.000000000000048
  0
VERTEX
  5
242
330
240
100
AcDbEntity
  8
OKPOURLACOUPE
100
AcDbVertex
100
AcDb2dVertex
 10
9.198484459036806
 20
116.8039909998502
 30
-0.000000000000048
  0
VERTEX
  5
243
330
240
100
AcDbEntity
  8
OKPOURLACOUPE
100
AcDbVertex
100
AcDb2dVertex
 10
10.04869365046348
 20
115.8740746967273
 30
-0.00000000000002
  0
SEQEND
  5
241
330
240
100
AcDbEntity
  8
OKPOURLACOUPE
  0
ARC
  5
244
330
1F
100
AcDbEntity
  8
OKPOURLACOUPE
100
AcDbCircle
 10
10.27010229406416
 20
116.0765054565908
 30
-0.00000000000002
 40
0.2999999999999972
100
AcDbArc
 50
222.4362297885346
 51
42.4362297885346
  0
POLYLINE
  5
245
330
1F
100
AcDbEntity
  8
OKPOURLACOUPE
100
AcDb2dPolyline
 66
     1
 10
0.0
 20
0.0
 30
-0.00000000000002
  0
VERTEX
  5
247
330
245
100
AcDbEntity
  8
OKPOURLACOUPE
100
AcDbVertex
100
AcDb2dVertex
 10
10.49151093766484
 20
116.2789362164543
 30
-0.00000000000002
  0
VERTEX
  5
248
330
245
100
AcDbEntity
  8
OKPOURLACOUPE
100
AcDbVertex
100
AcDb2dVertex
 10
13.73883771047487
 20
119.247920694452
 30
-0.00000000000002
  0
SEQEND
  5
246
330
245
100
AcDbEntity
  8
OKPOURLACOUPE
  0
POLYLINE
  5
249
330
1F
100
AcDbEntity
  8
OKPOURLACOUPE
100
AcDb2dPolyline
 66
     1
 10
0.0
 20
0.0
 30
-0.00000000000002
  0
VERTEX
  5
24B
330
249
100
AcDbEntity
  8
OKPOURLACOUPE
100
AcDbVertex
100
AcDb2dVertex
 10
13.73883771047487
 20
119.247920694452
 30
-0.00000000000002
  0
VERTEX
  5
24C
330
249
100
AcDbEntity
  8
OKPOURLACOUPE
100
AcDbVertex
100
AcDb2dVertex
 10
14.4768665224771
 20
119.9226898939969
 30
-0.0000000000000111
  0
SEQEND
  5
24A
330
249
100
AcDbEntity
  8
OKPOURLACOUPE
  0
POLYLINE
  5
24D
330
1F
100
AcDbEntity
  8
OKPOURLACOUPE
100
AcDb2dPolyline
 66
     1
 10
0.0
 20
0.0
 30
-0.0000000000000111
  0
VERTEX
  5
24F
330
24D
100
AcDbEntity
  8
OKPOURLACOUPE
100
AcDbVertex
100
AcDb2dVertex
 10
14.4768665224771
 20
119.9226898939969
 30
-0.0000000000000111
  0
VERTEX
  5
250
330
24D
100
AcDbEntity
  8
OKPOURLACOUPE
100
AcDbVertex
100
AcDb2dVertex
 10
15.06728957207908
 20
120.462505253633
 30
0.0000000000000009
  0
SEQEND
  5
24E
330
24D
100
AcDbEntity
  8
OKPOURLACOUPE
  0
ARC
  5
251
330
1F
100
AcDbEntity
  8
OKPOURLACOUPE
100
AcDbCircle
 10
15.20224341198805
 20
120.3148994912326
 30
0.0000000000000018
 40
0.2
100
AcDbArc
 50
42.43622978853388
 51
132.4362297885335
  0
POLYLINE
  5
252
330
1F
100
AcDbEntity
  8
OKPOURLACOUPE
100
AcDb2dPolyline
 66
     1
 10
0.0
 20
0.0
 30
0.0000000000000047
  0
VERTEX
  5
254
330
252
100
AcDbEntity
  8
OKPOURLACOUPE
100
AcDbVertex
100
AcDb2dVertex
 10
15.34984917438852
 20
120.4498533311416
 30
0.0000000000000047
  0
VERTEX
  5
255
330
252
100
AcDbEntity
  8
OKPOURLACOUPE
100
AcDbVertex
100
AcDb2dVertex
 10
15.88966453402439
 20
119.8594302815396
 30
0.0000000000000084
  0
SEQEND
  5
253
330
252
100
AcDbEntity
  8
OKPOURLACOUPE
  0
POLYLINE
  5
256
330
1F
100
AcDbEntity
  8
OKPOURLACOUPE
100
AcDb2dPolyline
 66
     1
 10
0.0
 20
0.0
 30
0.0000000000000084
  0
VERTEX
  5
258
330
256
100
AcDbEntity
  8
OKPOURLACOUPE
100
AcDbVertex
100
AcDb2dVertex
 10
15.88966453402439
 20
119.8594302815396
 30
0.0000000000000084
  0
VERTEX
  5
259
330
256
100
AcDbEntity
  8
OKPOURLACOUPE
100
AcDbVertex
100
AcDb2dVertex
 10
16.15140513894558
 20
119.573151494907
 30
-0.0000000000000044
  0
SEQEND
  5
257
330
256
100
AcDbEntity
  8
OKPOURLACOUPE
  0
ARC
  5
25A
330
1F
100
AcDbEntity
  8
OKPOURLACOUPE
100
AcDbCircle
 10
16.88943395094783
 20
120.247920694452
 30
-0.0000000000000022
 40
1.0
100
AcDbArc
 50
222.4362297885386
 51
270.0
  0
POLYLINE
  5
25B
330
1F
100
AcDbEntity
  8
OKPOURLACOUPE
100
AcDb2dPolyline
 66
     1
 10
0.0
 20
0.0
 30
-0.00000000000002
  0
VERTEX
  5
25D
330
25B
100
AcDbEntity
  8
OKPOURLACOUPE
100
AcDbVertex
100
AcDb2dVertex
 10
16.8894339509478
 20
119.247920694452
 30
-0.00000000000002
  0
VERTEX
  5
25E
330
25B
100
AcDbEntity
  8
OKPOURLACOUPE
100
AcDbVertex
100
AcDb2dVertex
 10
59.61021052313048
 20
119.2479206944519
 30
-0.00000000000002
  0
SEQEND
  5
25C
330
25B
100
AcDbEntity
  8
OKPOURLACOUPE
  0
POLYLINE
  5
25F
330
1F
100
AcDbEntity
  8
OKPOURLACOUPE
100
AcDb2dPolyline
 66
     1
 10
0.0
 20
0.0
 30
-0.00000000000002
  0
VERTEX
  5
261
330
25F
100
AcDbEntity
  8
OKPOURLACOUPE
100
AcDbVertex
100
AcDb2dVertex
 10
59.61021052313048
 20
119.2479206944519
 30
-0.00000000000002
  0
VERTEX
  5
262
330
25F
100
AcDbEntity
  8
OKPOURLACOUPE
100
AcDbVertex
100
AcDb2dVertex
 10
61.07191720342119
 20
119.2456863053559
 30
0.0000000000000302
  0
SEQEND
  5
260
330
25F
100
AcDbEntity
  8
OKPOURLACOUPE
  0
ARC
  5
263
330
1F
100
AcDbEntity
  8
OKPOURLACOUPE
100
AcDbCircle
 10
61.07161148045837
 20
119.0456865390224
 30
0.0000000000000269
 40
0.2
100
AcDbArc
 50
42.43622978846933
 51
89.91241678854587
  0
POLYLINE
  5
264
330
1F
100
AcDbEntity
  8
OKPOURLACOUPE
100
AcDb2dPolyline
 66
     1
 10
0.0
 20
0.0
 30
0.0000000000000342
  0
VERTEX
  5
266
330
264
100
AcDbEntity
  8
OKPOURLACOUPE
100
AcDbVertex
100
AcDb2dVertex
 10
61.21921724285899
 20
119.1806403789312
 30
0.0000000000000342
  0
VERTEX
  5
267
330
264
100
AcDbEntity
  8
OKPOURLACOUPE
100
AcDbVertex
100
AcDb2dVertex
 10
62.01007879458145
 20
118.3156355567348
 30
0.0000000000000471
  0
SEQEND
  5
265
330
264
100
AcDbEntity
  8
OKPOURLACOUPE
  0
ARC
  5
268
330
1F
100
AcDbEntity
  8
OKPOURLACOUPE
100
AcDbCircle
 10
61.862473032181
 20
118.1806817168258
 30
0.0000000000000442
 40
0.2
100
AcDbArc
 50
312.4362297885385
 51
42.4362297885356
  0
POLYLINE
  5
269
330
1F
100
AcDbEntity
  8
OKPOURLACOUPE
100
AcDb2dPolyline
 66
     1
 10
0.0
 20
0.0
 30
0.0000000000000464
  0
VERTEX
  5
26B
330
269
100
AcDbEntity
  8
OKPOURLACOUPE
100
AcDbVertex
100
AcDb2dVertex
 10
61.99742687208997
 20
118.0330759544254
 30
0.0000000000000464
  0
VERTEX
  5
26C
330
269
100
AcDbEntity
  8
OKPOURLACOUPE
100
AcDbVertex
100
AcDb2dVertex
 10
60.45015727972269
 20
116.6184294699753
 30
0.0000000000000154
  0
SEQEND
  5
26A
330
269
100
AcDbEntity
  8
OKPOURLACOUPE
  0
ARC
  5
26D
330
1F
100
AcDbEntity
  8
OKPOURLACOUPE
100
AcDbCircle
 10
60.31520343981374
 20
116.7660352323757
 30
0.000000000000011
 40
0.2
100
AcDbArc
 50
222.4362297885342
 51
312.4362297885197
  0
POLYLINE
  5
26E
330
1F
100
AcDbEntity
  8
OKPOURLACOUPE
100
AcDb2dPolyline
 66
     1
 10
0.0
 20
0.0
 30
0.000000000000008
  0
VERTEX
  5
270
330
26E
100
AcDbEntity
  8
OKPOURLACOUPE
100
AcDbVertex
100
AcDb2dVertex
 10
60.16759767741327
 20
116.6310813924668
 30
0.000000000000008
  0
VERTEX
  5
271
330
26E
100
AcDbEntity
  8
OKPOURLACOUPE
100
AcDbVertex
100
AcDb2dVertex
 10
59.31738848598665
 20
117.5609976955896
 30
-0.00000000000002
  0
SEQEND
  5
26F
330
26E
100
AcDbEntity
  8
OKPOURLACOUPE
  0
ARC
  5
272
330
1F
100
AcDbEntity
  8
OKPOURLACOUPE
100
AcDbCircle
 10
59.09597984238597
 20
117.3585669357261
 30
-0.00000000000002
 40
0.2999999999999972
100
AcDbArc
 50
42.43622978853414
 51
222.4362297885341
  0
POLYLINE
  5
273
330
1F
100
AcDbEntity
  8
OKPOURLACOUPE
100
AcDb2dPolyline
 66
     1
 10
0.0
 20
0.0
 30
-0.00000000000002
  0
VERTEX
  5
275
330
273
100
AcDbEntity
  8
OKPOURLACOUPE
100
AcDbVertex
100
AcDb2dVertex
 10
58.87457119878526
 20
117.1561361758626
 30
-0.00000000000002
  0
VERTEX
  5
276
330
273
100
AcDbEntity
  8
OKPOURLACOUPE
100
AcDbVertex
100
AcDb2dVertex
 10
57.47231645598096
 20
115.8740746967273
 30
-0.00000000000002
  0
SEQEND
  5
274
330
273
100
AcDbEntity
  8
OKPOURLACOUPE
  0
POLYLINE
  5
277
330
1F
100
AcDbEntity
  8
OKPOURLACOUPE
100
AcDb2dPolyline
 66
     1
 10
0.0
 20
0.0
 30
-0.00000000000002
  0
VERTEX
  5
279
330
277
100
AcDbEntity
  8
OKPOURLACOUPE
100
AcDbVertex
100
AcDb2dVertex
 10
57.47231645598096
 20
115.8740746967273
 30
-0.00000000000002
  0
VERTEX
  5
27A
330
277
100
AcDbEntity
  8
OKPOURLACOUPE
100
AcDbVertex
100
AcDb2dVertex
 10
56.14386459437709
 20
114.6594901375466
 30
-0.0000000000000097
  0
SEQEND
  5
278
330
277
100
AcDbEntity
  8
OKPOURLACOUPE
  0
ARC
  5
27B
330
1F
100
AcDbEntity
  8
OKPOURLACOUPE
100
AcDbCircle
 10
56.00891075446812
 20
114.807095899947
 30
-0.0000000000000103
 40
0.2
100
AcDbArc
 50
222.4362297884636
 51
312.436229788537
  0
POLYLINE
  5
27C
330
1F
100
AcDbEntity
  8
OKPOURLACOUPE
100
AcDb2dPolyline
 66
     1
 10
0.0
 20
0.0
 30
-0.0000000000000093
  0
VERTEX
  5
27E
330
27C
100
AcDbEntity
  8
OKPOURLACOUPE
100
AcDbVertex
100
AcDb2dVertex
 10
55.86130499206747
 20
114.6721420600382
 30
-0.0000000000000093
  0
VERTEX
  5
27F
330
27C
100
AcDbEntity
  8
OKPOURLACOUPE
100
AcDbVertex
100
AcDb2dVertex
 10
55.05974902751095
 20
115.5488438962721
 30
-0.0000000000000129
  0
SEQEND
  5
27D
330
27C
100
AcDbEntity
  8
OKPOURLACOUPE
  0
ARC
  5
280
330
1F
100
AcDbEntity
  8
OKPOURLACOUPE
100
AcDbCircle
 10
54.32172021550851
 20
114.8740746967273
 30
-0.000000000000012
 40
1.0
100
AcDbArc
 50
42.43622978852207
 51
90.0000000000114
  0
POLYLINE
  5
281
330
1F
100
AcDbEntity
  8
OKPOURLACOUPE
100
AcDb2dPolyline
 66
     1
 10
0.0
 20
0.0
 30
-0.0000000000000142
  0
VERTEX
  5
283
330
281
100
AcDbEntity
  8
OKPOURLACOUPE
100
AcDbVertex
100
AcDb2dVertex
 10
54.32172021550832
 20
115.8740746967273
 30
-0.0000000000000142
  0
VERTEX
  5
284
330
281
100
AcDbEntity
  8
OKPOURLACOUPE
100
AcDbVertex
100
AcDb2dVertex
 10
19.19155079332062
 20
115.8740746967273
 30
-0.00000000000002
  0
SEQEND
  5
282
330
281
100
AcDbEntity
  8
OKPOURLACOUPE
  0
ARC
  5
285
330
1F
100
AcDbEntity
  8
OKPOURLACOUPE
100
AcDbCircle
 10
19.19155079332059
 20
105.8740746967274
 30
-0.00000000000002
 40
9.999999999999948
100
AcDbArc
 50
90.0
 51
174.8724595770705
  0
POLYLINE
  5
286
330
1F
100
AcDbEntity
  8
OKPOURLACOUPE
100
AcDb2dPolyline
 66
     1
 10
0.0
 20
0.0
 30
-0.00000000000002
  0
VERTEX
  5
288
330
286
100
AcDbEntity
  8
OKPOURLACOUPE
100
AcDbVertex
100
AcDb2dVertex
 10
9.231568579003195
 20
106.7678052436371
 30
-0.00000000000002
  0
VERTEX
  5
289
330
286
100
AcDbEntity
  8
OKPOURLACOUPE
100
AcDbVertex
100
AcDb2dVertex
 10
6.091878025930825
 20
71.77821898054273
 30
-0.0000000000000102
  0
SEQEND
  5
287
330
286
100
AcDbEntity
  8
OKPOURLACOUPE
  0
ARC
  5
28A
330
1F
100
AcDbEntity
  8
OKPOURLACOUPE
100
AcDbCircle
 10
7.087876247362615
 20
71.68884592585192
 30
-0.0000000000000027
 40
1.0
100
AcDbArc
 50
174.8724595770794
 51
222.4362297885319
  0
POLYLINE
  5
28B
330
1F
100
AcDbEntity
  8
OKPOURLACOUPE
100
AcDb2dPolyline
 66
     1
 10
0.0
 20
0.0
 30
-0.0000000000000075
  0
VERTEX
  5
28D
330
28B
100
AcDbEntity
  8
OKPOURLACOUPE
100
AcDbVertex
100
AcDb2dVertex
 10
6.349847435360303
 20
71.01407672630702
 30
-0.0000000000000075
  0
VERTEX
  5
28E
330
28B
100
AcDbEntity
  8
OKPOURLACOUPE
100
AcDbVertex
100
AcDb2dVertex
 10
7.151403399917612
 20
70.13737489007244
 30
-0.0000000000000012
  0
SEQEND
  5
28C
330
28B
100
AcDbEntity
  8
OKPOURLACOUPE
  0
ARC
  5
28F
330
1F
100
AcDbEntity
  8
OKPOURLACOUPE
100
AcDbCircle
 10
7.003797637517167
 20
70.00242105016345
 30
-0.0000000000000032
 40
0.2
100
AcDbArc
 50
312.4362297885625
 51
42.43622978853594
  0
POLYLINE
  5
290
330
1F
100
AcDbEntity
  8
OKPOURLACOUPE
100
AcDb2dPolyline
 66
     1
 10
0.0
 20
0.0
 30
-0.0000000000000024
  0
VERTEX
  5
292
330
290
100
AcDbEntity
  8
OKPOURLACOUPE
100
AcDbVertex
100
AcDb2dVertex
 10
7.138751477426197
 20
69.85481528776306
 30
-0.0000000000000024
  0
VERTEX
  5
293
330
290
100
AcDbEntity
  8
OKPOURLACOUPE
100
AcDbVertex
100
AcDb2dVertex
 10
6.253116903023241
 20
69.04509224830889
 30
-0.0000000000000141
  0
SEQEND
  5
291
330
290
100
AcDbEntity
  8
OKPOURLACOUPE
  0
ARC
  5
294
330
1F
100
AcDbEntity
  8
OKPOURLACOUPE
100
AcDbCircle
 10
6.031708259422047
 20
68.84266148844578
 30
-0.00000000000002
 40
0.3000000000000007
100
AcDbArc
 50
42.43622978853625
 51
222.4362297886019
  0
POLYLINE
  5
295
330
1F
100
AcDbEntity
  8
OKPOURLACOUPE
100
AcDb2dPolyline
 66
     1
 10
0.0
 20
0.0
 30
-0.00000000000002
  0
VERTEX
  5
297
330
295
100
AcDbEntity
  8
OKPOURLACOUPE
100
AcDbVertex
100
AcDb2dVertex
 10
5.81029961582162
 20
68.64023072858205
 30
-0.00000000000002
  0
VERTEX
  5
298
330
295
100
AcDbEntity
  8
OKPOURLACOUPE
100
AcDbVertex
100
AcDb2dVertex
 10
6.660508807248462
 20
67.71031442545898
 30
0.000000000000008
  0
SEQEND
  5
296
330
295
100
AcDbEntity
  8
OKPOURLACOUPE
  0
ARC
  5
299
330
1F
100
AcDbEntity
  8
OKPOURLACOUPE
100
AcDbCircle
 10
6.512903044848017
 20
67.57536058554997
 30
0.000000000000008
 40
0.2
100
AcDbArc
 50
312.4362297885388
 51
42.43622978854538
  0
POLYLINE
  5
29A
330
1F
100
AcDbEntity
  8
OKPOURLACOUPE
100
AcDb2dPolyline
 66
     1
 10
0.0
 20
0.0
 30
0.0000000000000124
  0
VERTEX
  5
29C
330
29A
100
AcDbEntity
  8
OKPOURLACOUPE
100
AcDbVertex
100
AcDb2dVertex
 10
6.647856884757019
 20
67.42775482314953
 30
0.0000000000000124
  0
VERTEX
  5
29D
330
29A
100
AcDbEntity
  8
OKPOURLACOUPE
100
AcDbVertex
100
AcDb2dVertex
 10
5.097996379552214
 20
66.01073950410515
 30
0.0000000000000124
  0
SEQEND
  5
29B
330
29A
100
AcDbEntity
  8
OKPOURLACOUPE
  0
ARC
  5
29E
330
1F
100
AcDbEntity
  8
OKPOURLACOUPE
100
AcDbCircle
 10
4.96304253964324
 20
66.1583452665056
 30
0.000000000000008
 40
0.2
100
AcDbArc
 50
222.4362297885258
 51
312.4362297885323
  0
POLYLINE
  5
29F
330
1F
100
AcDbEntity
  8
OKPOURLACOUPE
100
AcDb2dPolyline
 66
     1
 10
0.0
 20
0.0
 30
0.000000000000008
  0
VERTEX
  5
2A1
330
29F
100
AcDbEntity
  8
OKPOURLACOUPE
100
AcDbVertex
100
AcDb2dVertex
 10
4.815436777242766
 20
66.02339142659663
 30
0.000000000000008
  0
VERTEX
  5
2A2
330
29F
100
AcDbEntity
  8
OKPOURLACOUPE
100
AcDbVertex
100
AcDb2dVertex
 10
3.965227585816152
 20
66.95330772971948
 30
-0.00000000000002
  0
SEQEND
  5
2A0
330
29F
100
AcDbEntity
  8
OKPOURLACOUPE
  0
ARC
  5
2A3
330
1F
100
AcDbEntity
  8
OKPOURLACOUPE
100
AcDbCircle
 10
3.743818942215469
 20
66.750876969856
 30
-0.00000000000002
 40
0.2999999999999972
100
AcDbArc
 50
42.43622978853712
 51
222.4362297885371
  0
POLYLINE
  5
2A4
330
1F
100
AcDbEntity
  8
OKPOURLACOUPE
100
AcDb2dPolyline
 66
     1
 10
0.0
 20
0.0
 30
-0.00000000000002
  0
VERTEX
  5
2A6
330
2A4
100
AcDbEntity
  8
OKPOURLACOUPE
100
AcDbVertex
100
AcDb2dVertex
 10
3.522410298614787
 20
66.54844620999252
 30
-0.00000000000002
  0
VERTEX
  5
2A7
330
2A4
100
AcDbEntity
  8
OKPOURLACOUPE
100
AcDbVertex
100
AcDb2dVertex
 10
2.500349358436054
 20
65.61399049325767
 30
-0.00000000000002
  0
SEQEND
  5
2A5
330
2A4
100
AcDbEntity
  8
OKPOURLACOUPE
  0
ARC
  5
2A8
330
1F
100
AcDbEntity
  8
OKPOURLACOUPE
100
AcDbCircle
 10
2.365395518527023
 20
65.76159625565805
 30
-0.0000000000000199
 40
0.2
100
AcDbArc
 50
174.8724595770295
 51
312.4362297885677
  0
POLYLINE
  5
2A9
330
1F
100
AcDbEntity
  8
OKPOURLACOUPE
100
AcDb2dPolyline
 66
     1
 10
0.0
 20
0.0
 30
-0.0000000000000199
  0
VERTEX
  5
2AB
330
2A9
100
AcDbEntity
  8
OKPOURLACOUPE
100
AcDbVertex
100
AcDb2dVertex
 10
2.166195874240671
 20
65.77947086659637
 30
-0.0000000000000199
  0
VERTEX
  5
2AC
330
2A9
100
AcDbEntity
  8
OKPOURLACOUPE
100
AcDbVertex
100
AcDb2dVertex
 10
6.076971180343165
 20
109.3622404470421
 30
-0.0000000000000093
  0
SEQEND
  5
2AA
330
2A9
100
AcDbEntity
  8
OKPOURLACOUPE
  0
ARC
  5
2AD
330
1F
100
AcDbEntity
  8
OKPOURLACOUPE
100
AcDbCircle
 10
5.080972958911403
 20
109.451613501733
 30
-0.0000000000000013
 40
1.0
100
AcDbArc
 50
354.872459577068
 51
42.43622978853424
  0
POLYLINE
  5
2AE
330
1F
100
AcDbEntity
  8
OKPOURLACOUPE
100
AcDb2dPolyline
 66
     1
 10
0.0
 20
0.0
 30
-0.0000000000000067
  0
VERTEX
  5
2B0
330
2AE
100
AcDbEntity
  8
OKPOURLACOUPE
100
AcDbVertex
100
AcDb2dVertex
 10
5.819001770913687
 20
110.126382701278
 30
-0.0000000000000067
  0
VERTEX
  5
2B1
330
2AE
100
AcDbEntity
  8
OKPOURLACOUPE
100
AcDbVertex
100
AcDb2dVertex
 10
5.557261165992585
 20
110.4126614879104
 30
0.0000000000000004
  0
SEQEND
  5
2AF
330
2AE
100
AcDbEntity
  8
OKPOURLACOUPE
  0
POLYLINE
  5
2B2
330
1F
100
AcDbEntity
  8
OKPOURLACOUPE
100
AcDb2dPolyline
 66
     1
 10
0.0
 20
0.0
 30
0.0000000000000004
  0
VERTEX
  5
2B4
330
2B2
100
AcDbEntity
  8
OKPOURLACOUPE
100
AcDbVertex
100
AcDb2dVertex
 10
5.557261165992585
 20
110.4126614879104
 30
0.0000000000000004
  0
VERTEX
  5
2B5
330
2B2
100
AcDbEntity
  8
OKPOURLACOUPE
100
AcDbVertex
100
AcDb2dVertex
 10
5.017445806356662
 20
111.0030845375122
 30
0.0000000000000042
  0
SEQEND
  5
2B3
330
2B2
100
AcDbEntity
  8
OKPOURLACOUPE
  0
ARC
  5
2B6
330
1F
100
AcDbEntity
  8
OKPOURLACOUPE
100
AcDbCircle
 10
5.165051568757136
 20
111.1380383774212
 30
0.0000000000000013
 40
0.2
100
AcDbArc
 50
132.4362297885496
 51
222.4362297885359
  0
POLYLINE
  5
2B7
330
1F
100
AcDbEntity
  8
OKPOURLACOUPE
100
AcDb2dPolyline
 66
     1
 10
0.0
 20
0.0
 30
0.0000000000000023
  0
VERTEX
  5
2B9
330
2B7
100
AcDbEntity
  8
OKPOURLACOUPE
100
AcDbVertex
100
AcDb2dVertex
 10
5.030097728848105
 20
111.2856441398216
 30
0.0000000000000023
  0
VERTEX
  5
2BA
330
2B7
100
AcDbEntity
  8
OKPOURLACOUPE
100
AcDbVertex
100
AcDb2dVertex
 10
5.657422219049991
 20
111.859197959435
 30
-0.0000000000000098
  0
SEQEND
  5
2B8
330
2B7
100
AcDbEntity
  8
OKPOURLACOUPE
  0
POLYLINE
  5
2BB
330
1F
100
AcDbEntity
  8
OKPOURLACOUPE
100
AcDb2dPolyline
 66
     1
 10
0.0
 20
0.0
 30
-0.0000000000000098
  0
VERTEX
  5
2BD
330
2BB
100
AcDbEntity
  8
OKPOURLACOUPE
100
AcDbVertex
100
AcDb2dVertex
 10
5.657422219049991
 20
111.859197959435
 30
-0.0000000000000098
  0
VERTEX
  5
2BE
330
2BB
100
AcDbEntity
  8
OKPOURLACOUPE
100
AcDbVertex
100
AcDb2dVertex
 10
5.915732303250721
 20
112.0953671792756
 30
-0.0000000000000135
  0
SEQEND
  5
2BC
330
2BB
100
AcDbEntity
  8
OKPOURLACOUPE
  0
ARC
  5
2BF
330
1F
100
AcDbEntity
  8
OKPOURLACOUPE
100
AcDbCircle
 10
6.13714094685146
 20
112.2977979391392
 30
-0.00000000000002
 40
0.2999999999999972
100
AcDbArc
 50
222.4362297885372
 51
42.43622978853718
  0
POLYLINE
  5
2C0
330
1F
100
AcDbEntity
  8
OKPOURLACOUPE
100
AcDb2dPolyline
 66
     1
 10
0.0
 20
0.0
 30
-0.00000000000002
  0
VERTEX
  5
2C2
330
2C0
100
AcDbEntity
  8
OKPOURLACOUPE
100
AcDbVertex
100
AcDb2dVertex
 10
6.358549590452142
 20
112.5002286990026
 30
-0.00000000000002
  0
VERTEX
  5
2C3
330
2C0
100
AcDbEntity
  8
OKPOURLACOUPE
100
AcDbVertex
100
AcDb2dVertex
 10
5.508340399025528
 20
113.4301450021255
 30
-0.000000000000048
  0
SEQEND
  5
2C1
330
2C0
100
AcDbEntity
  8
OKPOURLACOUPE
  0
ARC
  5
2C4
330
1F
100
AcDbEntity
  8
OKPOURLACOUPE
100
AcDbCircle
 10
5.655946161425973
 20
113.5650988420344
 30
-0.000000000000048
 40
0.1999999999999957
100
AcDbArc
 50
132.4362297884889
 51
222.4362297885359
  0
POLYLINE
  5
2C5
330
1F
100
AcDbEntity
  8
OKPOURLACOUPE
100
AcDb2dPolyline
 66
     1
 10
0.0
 20
0.0
 30
-0.0000000000000056
  0
VERTEX
  5
2C7
330
2C5
100
AcDbEntity
  8
OKPOURLACOUPE
100
AcDbVertex
100
AcDb2dVertex
 10
98.00000000000001
 20
74.45999999999998
 30
-0.0000000000000056
  0
VERTEX
  5
2C8
330
2C5
100
AcDbEntity
  8
OKPOURLACOUPE
100
AcDbVertex
100
AcDb2dVertex
 10
98.00000000000001
 20
73.0
 30
0.0
  0
SEQEND
  5
2C6
330
2C5
100
AcDbEntity
  8
OKPOURLACOUPE
  0
ARC
  5
2C9
330
1F
100
AcDbEntity
  8
OKPOURLACOUPE
100
AcDbCircle
 10
98.30000000000001
 20
73.0
 30
0.0
 40
0.2999999999999972
100
AcDbArc
 50
180.0
 51
0.0
  0
POLYLINE
  5
2CA
330
1F
100
AcDbEntity
  8
OKPOURLACOUPE
100
AcDb2dPolyline
 66
     1
 10
0.0
 20
0.0
 30
0.0
  0
VERTEX
  5
2CC
330
2CA
100
AcDbEntity
  8
OKPOURLACOUPE
100
AcDbVertex
100
AcDb2dVertex
 10
98.60000000000001
 20
73.0
 30
0.0
  0
VERTEX
  5
2CD
330
2CA
100
AcDbEntity
  8
OKPOURLACOUPE
100
AcDbVertex
100
AcDb2dVertex
 10
102.4
 20
72.99999999999969
 30
0.0
  0
SEQEND
  5
2CB
330
2CA
100
AcDbEntity
  8
OKPOURLACOUPE
  0
ARC
  5
2CE
330
1F
100
AcDbEntity
  8
OKPOURLACOUPE
100
AcDbCircle
 10
102.7
 20
72.99999999999939
 30
0.0
 40
0.2999999999999972
100
AcDbArc
 50
179.999999999943
 51
0.0
  0
POLYLINE
  5
2CF
330
1F
100
AcDbEntity
  8
OKPOURLACOUPE
100
AcDb2dPolyline
 66
     1
 10
0.0
 20
0.0
 30
0.0
  0
VERTEX
  5
2D1
330
2CF
100
AcDbEntity
  8
OKPOURLACOUPE
100
AcDbVertex
100
AcDb2dVertex
 10
103.0
 20
73.0
 30
0.0
  0
VERTEX
  5
2D2
330
2CF
100
AcDbEntity
  8
OKPOURLACOUPE
100
AcDbVertex
100
AcDb2dVertex
 10
103.0
 20
74.4599999999997
 30
-0.0000000000000056
  0
SEQEND
  5
2D0
330
2CF
100
AcDbEntity
  8
OKPOURLACOUPE
  0
ARC
  5
2D3
330
1F
100
AcDbEntity
  8
OKPOURLACOUPE
100
AcDbCircle
 10
102.7
 20
74.45999999999941
 30
-0.0000000000000056
 40
0.2999999999999972
100
AcDbArc
 50
0.0000000000542815
 51
179.9999999999457
  0
POLYLINE
  5
2D4
330
1F
100
AcDbEntity
  8
OKPOURLACOUPE
100
AcDb2dPolyline
 66
     1
 10
0.0
 20
0.0
 30
-0.0000000000000056
  0
VERTEX
  5
2D6
330
2D4
100
AcDbEntity
  8
OKPOURLACOUPE
100
AcDbVertex
100
AcDb2dVertex
 10
102.4
 20
74.4599999999997
 30
-0.0000000000000056
  0
VERTEX
  5
2D7
330
2D4
100
AcDbEntity
  8
OKPOURLACOUPE
100
AcDbVertex
100
AcDb2dVertex
 10
98.60000000000001
 20
74.45999999999998
 30
-0.0000000000000056
  0
SEQEND
  5
2D5
330
2D4
100
AcDbEntity
  8
OKPOURLACOUPE
  0
ARC
  5
2D8
330
1F
100
AcDbEntity
  8
OKPOURLACOUPE
100
AcDbCircle
 10
98.3
 20
74.46000000000001
 30
-0.0000000000000056
 40
0.2999999999999829
100
AcDbArc
 50
359.9999999999945
 51
180.0000000000054
  0
POLYLINE
  5
2D9
330
1F
100
AcDbEntity
  8
OKPOURLACOUPE
100
AcDb2dPolyline
 66
     1
 10
0.0
 20
0.0
 30
-0.0000000000000056
  0
VERTEX
  5
2DB
330
2D9
100
AcDbEntity
  8
OKPOURLACOUPE
100
AcDbVertex
100
AcDb2dVertex
 10
23.00000000000001
 20
74.45999999999998
 30
-0.0000000000000056
  0
VERTEX
  5
2DC
330
2D9
100
AcDbEntity
  8
OKPOURLACOUPE
100
AcDbVertex
100
AcDb2dVertex
 10
23.00000000000001
 20
73.0
 30
0.0
  0
SEQEND
  5
2DA
330
2D9
100
AcDbEntity
  8
OKPOURLACOUPE
  0
ARC
  5
2DD
330
1F
100
AcDbEntity
  8
OKPOURLACOUPE
100
AcDbCircle
 10
23.30000000000001
 20
73.0
 30
0.0
 40
0.2999999999999972
100
AcDbArc
 50
180.0
 51
0.0
  0
POLYLINE
  5
2DE
330
1F
100
AcDbEntity
  8
OKPOURLACOUPE
100
AcDb2dPolyline
 66
     1
 10
0.0
 20
0.0
 30
0.0
  0
VERTEX
  5
2E0
330
2DE
100
AcDbEntity
  8
OKPOURLACOUPE
100
AcDbVertex
100
AcDb2dVertex
 10
23.60000000000001
 20
73.0
 30
0.0
  0
VERTEX
  5
2E1
330
2DE
100
AcDbEntity
  8
OKPOURLACOUPE
100
AcDbVertex
100
AcDb2dVertex
 10
27.40000000000001
 20
72.99999999999969
 30
0.0
  0
SEQEND
  5
2DF
330
2DE
100
AcDbEntity
  8
OKPOURLACOUPE
  0
ARC
  5
2E2
330
1F
100
AcDbEntity
  8
OKPOURLACOUPE
100
AcDbCircle
 10
27.7
 20
72.99999999999939
 30
0.0
 40
0.2999999999999972
100
AcDbArc
 50
179.999999999943
 51
0.0
  0
POLYLINE
  5
2E3
330
1F
100
AcDbEntity
  8
OKPOURLACOUPE
100
AcDb2dPolyline
 66
     1
 10
0.0
 20
0.0
 30
0.0
  0
VERTEX
  5
2E5
330
2E3
100
AcDbEntity
  8
OKPOURLACOUPE
100
AcDbVertex
100
AcDb2dVertex
 10
28.00000000000001
 20
73.0
 30
0.0
  0
VERTEX
  5
2E6
330
2E3
100
AcDbEntity
  8
OKPOURLACOUPE
100
AcDbVertex
100
AcDb2dVertex
 10
28.00000000000001
 20
74.4599999999997
 30
-0.0000000000000056
  0
SEQEND
  5
2E4
330
2E3
100
AcDbEntity
  8
OKPOURLACOUPE
  0
ARC
  5
2E7
330
1F
100
AcDbEntity
  8
OKPOURLACOUPE
100
AcDbCircle
 10
27.7
 20
74.45999999999941
 30
-0.0000000000000056
 40
0.2999999999999972
100
AcDbArc
 50
0.0000000000542815
 51
179.9999999999457
  0
POLYLINE
  5
2E8
330
1F
100
AcDbEntity
  8
OKPOURLACOUPE
100
AcDb2dPolyline
 66
     1
 10
0.0
 20
0.0
 30
-0.0000000000000056
  0
VERTEX
  5
2EA
330
2E8
100
AcDbEntity
  8
OKPOURLACOUPE
100
AcDbVertex
100
AcDb2dVertex
 10
27.40000000000001
 20
74.4599999999997
 30
-0.0000000000000056
  0
VERTEX
  5
2EB
330
2E8
100
AcDbEntity
  8
OKPOURLACOUPE
100
AcDbVertex
100
AcDb2dVertex
 10
23.60000000000001
 20
74.45999999999998
 30
-0.0000000000000056
  0
SEQEND
  5
2E9
330
2E8
100
AcDbEntity
  8
OKPOURLACOUPE
  0
ARC
  5
2EC
330
1F
100
AcDbEntity
  8
OKPOURLACOUPE
100
AcDbCircle
 10
23.3
 20
74.46000000000001
 30
-0.0000000000000056
 40
0.2999999999999829
100
AcDbArc
 50
359.9999999999945
 51
180.0000000000054
  0
POLYLINE
  5
2ED
330
1F
100
AcDbEntity
  8
OKPOURLACOUPE
100
AcDb2dPolyline
 66
     1
 10
0.0
 20
0.0
 30
0.0000000000000213
  0
VERTEX
  5
2EF
330
2ED
100
AcDbEntity
  8
OKPOURLACOUPE
100
AcDbVertex
100
AcDb2dVertex
 10
53.60000000000001
 20
13.0000000000004
 30
0.0000000000000213
  0
VERTEX
  5
2F0
330
2ED
100
AcDbEntity
  8
OKPOURLACOUPE
100
AcDbVertex
100
AcDb2dVertex
 10
54.8
 20
13.0
 30
0.0000000000000305
  0
SEQEND
  5
2EE
330
2ED
100
AcDbEntity
  8
OKPOURLACOUPE
  0
ARC
  5
2F1
330
1F
100
AcDbEntity
  8
OKPOURLACOUPE
100
AcDbCircle
 10
54.8
 20
13.19999999999999
 30
0.0000000000000295
 40
0.2
100
AcDbArc
 50
270.0
 51
0.0000000000081422
  0
POLYLINE
  5
2F2
330
1F
100
AcDbEntity
  8
OKPOURLACOUPE
100
AcDb2dPolyline
 66
     1
 10
0.0
 20
0.0
 30
0.0000000000000307
  0
VERTEX
  5
2F4
330
2F2
100
AcDbEntity
  8
OKPOURLACOUPE
100
AcDbVertex
100
AcDb2dVertex
 10
55.0
 20
13.20000000000002
 30
0.0000000000000307
  0
VERTEX
  5
2F5
330
2F2
100
AcDbEntity
  8
OKPOURLACOUPE
100
AcDbVertex
100
AcDb2dVertex
 10
55.0
 20
15.00000000000003
 30
0.0000000000000221
  0
SEQEND
  5
2F3
330
2F2
100
AcDbEntity
  8
OKPOURLACOUPE
  0
ARC
  5
2F6
330
1F
100
AcDbEntity
  8
OKPOURLACOUPE
100
AcDbCircle
 10
54.0
 20
15.0
 30
0.0000000000000221
 40
1.0
100
AcDbArc
 50
0.0000000000016284
 51
89.99999999999959
  0
POLYLINE
  5
2F7
330
1F
100
AcDbEntity
  8
OKPOURLACOUPE
100
AcDb2dPolyline
 66
     1
 10
0.0
 20
0.0
 30
0.0000000000000173
  0
VERTEX
  5
2F9
330
2F7
100
AcDbEntity
  8
OKPOURLACOUPE
100
AcDbVertex
100
AcDb2dVertex
 10
54.0
 20
16.0
 30
0.0000000000000173
  0
VERTEX
  5
2FA
330
2F7
100
AcDbEntity
  8
OKPOURLACOUPE
100
AcDbVertex
100
AcDb2dVertex
 10
47.0
 20
16.0
 30
0.0000000000000173
  0
SEQEND
  5
2F8
330
2F7
100
AcDbEntity
  8
OKPOURLACOUPE
  0
ARC
  5
2FB
330
1F
100
AcDbEntity
  8
OKPOURLACOUPE
100
AcDbCircle
 10
47.0
 20
15.0
 30
0.000000000000011
 40
1.0
100
AcDbArc
 50
90.0
 51
180.0
  0
POLYLINE
  5
2FC
330
1F
100
AcDbEntity
  8
OKPOURLACOUPE
100
AcDb2dPolyline
 66
     1
 10
0.0
 20
0.0
 30
0.000000000000011
  0
VERTEX
  5
2FE
330
2FC
100
AcDbEntity
  8
OKPOURLACOUPE
100
AcDbVertex
100
AcDb2dVertex
 10
46.0
 20
15.0
 30
0.000000000000011
  0
VERTEX
  5
2FF
330
2FC
100
AcDbEntity
  8
OKPOURLACOUPE
100
AcDbVertex
100
AcDb2dVertex
 10
46.0
 20
13.19999999999999
 30
-0.0000000000000005
  0
SEQEND
  5
2FD
330
2FC
100
AcDbEntity
  8
OKPOURLACOUPE
  0
ARC
  5
300
330
1F
100
AcDbEntity
  8
OKPOURLACOUPE
100
AcDbCircle
 10
46.2
 20
13.19999999999999
 30
-0.0000000000000014
 40
0.2
100
AcDbArc
 50
180.0
 51
270.0
  0
POLYLINE
  5
301
330
1F
100
AcDbEntity
  8
OKPOURLACOUPE
100
AcDb2dPolyline
 66
     1
 10
0.0
 20
0.0
 30
-0.0000000000000027
  0
VERTEX
  5
303
330
301
100
AcDbEntity
  8
OKPOURLACOUPE
100
AcDbVertex
100
AcDb2dVertex
 10
46.2
 20
13.0
 30
-0.0000000000000027
  0
VERTEX
  5
304
330
301
100
AcDbEntity
  8
OKPOURLACOUPE
100
AcDbVertex
100
AcDb2dVertex
 10
48.0
 20
13.0
 30
-0.0000000000000111
  0
SEQEND
  5
302
330
301
100
AcDbEntity
  8
OKPOURLACOUPE
  0
POLYLINE
  5
305
330
1F
100
AcDbEntity
  8
OKPOURLACOUPE
100
AcDb2dPolyline
 66
     1
 10
0.0
 20
0.0
 30
-0.0000000000000111
  0
VERTEX
  5
307
330
305
100
AcDbEntity
  8
OKPOURLACOUPE
100
AcDbVertex
100
AcDb2dVertex
 10
48.0
 20
13.0
 30
-0.0000000000000111
  0
VERTEX
  5
308
330
305
100
AcDbEntity
  8
OKPOURLACOUPE
100
AcDbVertex
100
AcDb2dVertex
 10
49.90000000000001
 20
13.0
 30
-0.0000000000000111
  0
SEQEND
  5
306
330
305
100
AcDbEntity
  8
OKPOURLACOUPE
  0
ARC
  5
309
330
1F
100
AcDbEntity
  8
OKPOURLACOUPE
100
AcDbCircle
 10
50.2
 20
13.0
 30
-0.0000000000000111
 40
0.2999999999999972
100
AcDbArc
 50
0.0
 51
180.0
  0
POLYLINE
  5
30A
330
1F
100
AcDbEntity
  8
OKPOURLACOUPE
100
AcDb2dPolyline
 66
     1
 10
0.0
 20
0.0
 30
-0.0000000000000111
  0
VERTEX
  5
30C
330
30A
100
AcDbEntity
  8
OKPOURLACOUPE
100
AcDbVertex
100
AcDb2dVertex
 10
50.5
 20
13.0
 30
-0.0000000000000111
  0
VERTEX
  5
30D
330
30A
100
AcDbEntity
  8
OKPOURLACOUPE
100
AcDbVertex
100
AcDb2dVertex
 10
50.5
 20
11.74000000000001
 30
0.0000000000000091
  0
SEQEND
  5
30B
330
30A
100
AcDbEntity
  8
OKPOURLACOUPE
  0
ARC
  5
30E
330
1F
100
AcDbEntity
  8
OKPOURLACOUPE
100
AcDbCircle
 10
50.7
 20
11.73999999999998
 30
0.0000000000000138
 40
0.2
100
AcDbArc
 50
179.9999999999919
 51
269.9999999999959
  0
POLYLINE
  5
30F
330
1F
100
AcDbEntity
  8
OKPOURLACOUPE
100
AcDb2dPolyline
 66
     1
 10
0.0
 20
0.0
 30
0.000000000000017
  0
VERTEX
  5
311
330
30F
100
AcDbEntity
  8
OKPOURLACOUPE
100
AcDbVertex
100
AcDb2dVertex
 10
50.69999999999999
 20
11.53999999999999
 30
0.000000000000017
  0
VERTEX
  5
312
330
30F
100
AcDbEntity
  8
OKPOURLACOUPE
100
AcDbVertex
100
AcDb2dVertex
 10
52.8
 20
11.53999999999999
 30
0.0000000000000664
  0
SEQEND
  5
310
330
30F
100
AcDbEntity
  8
OKPOURLACOUPE
  0
ARC
  5
313
330
1F
100
AcDbEntity
  8
OKPOURLACOUPE
100
AcDbCircle
 10
52.8
 20
11.73999999999998
 30
0.0000000000000593
 40
0.2
100
AcDbArc
 50
270.0
 51
0.0
  0
POLYLINE
  5
314
330
1F
100
AcDbEntity
  8
OKPOURLACOUPE
100
AcDb2dPolyline
 66
     1
 10
0.0
 20
0.0
 30
0.000000000000064
  0
VERTEX
  5
316
330
314
100
AcDbEntity
  8
OKPOURLACOUPE
100
AcDbVertex
100
AcDb2dVertex
 10
53.0
 20
11.73999999999998
 30
0.000000000000064
  0
VERTEX
  5
317
330
314
100
AcDbEntity
  8
OKPOURLACOUPE
100
AcDbVertex
100
AcDb2dVertex
 10
53.0
 20
13.0
 30
0.0000000000000195
  0
SEQEND
  5
315
330
314
100
AcDbEntity
  8
OKPOURLACOUPE
  0
ARC
  5
318
330
1F
100
AcDbEntity
  8
OKPOURLACOUPE
100
AcDbCircle
 10
53.30000000000001
 20
13.0000000000008
 30
0.0000000000000204
 40
0.2999999999999972
100
AcDbArc
 50
359.999999999924
 51
180.0
  0
POLYLINE
  5
319
330
1F
100
AcDbEntity
  8
OKPOURLACOUPE
100
AcDb2dPolyline
 66
     1
 10
0.0
 20
0.0
 30
0.0000000000000213
  0
VERTEX
  5
31B
330
319
100
AcDbEntity
  8
OKPOURLACOUPE
100
AcDbVertex
100
AcDb2dVertex
 10
42.60000000000001
 20
13.0000000000004
 30
0.0000000000000213
  0
VERTEX
  5
31C
330
319
100
AcDbEntity
  8
OKPOURLACOUPE
100
AcDbVertex
100
AcDb2dVertex
 10
43.8
 20
13.0
 30
0.0000000000000305
  0
SEQEND
  5
31A
330
319
100
AcDbEntity
  8
OKPOURLACOUPE
  0
ARC
  5
31D
330
1F
100
AcDbEntity
  8
OKPOURLACOUPE
100
AcDbCircle
 10
43.8
 20
13.19999999999999
 30
0.0000000000000295
 40
0.2
100
AcDbArc
 50
270.0
 51
0.0000000000081422
  0
POLYLINE
  5
31E
330
1F
100
AcDbEntity
  8
OKPOURLACOUPE
100
AcDb2dPolyline
 66
     1
 10
0.0
 20
0.0
 30
0.0000000000000307
  0
VERTEX
  5
320
330
31E
100
AcDbEntity
  8
OKPOURLACOUPE
100
AcDbVertex
100
AcDb2dVertex
 10
44.0
 20
13.20000000000002
 30
0.0000000000000307
  0
VERTEX
  5
321
330
31E
100
AcDbEntity
  8
OKPOURLACOUPE
100
AcDbVertex
100
AcDb2dVertex
 10
44.0
 20
15.00000000000003
 30
0.0000000000000221
  0
SEQEND
  5
31F
330
31E
100
AcDbEntity
  8
OKPOURLACOUPE
  0
ARC
  5
322
330
1F
100
AcDbEntity
  8
OKPOURLACOUPE
100
AcDbCircle
 10
43.0
 20
15.0
 30
0.0000000000000221
 40
1.0
100
AcDbArc
 50
0.0000000000016284
 51
89.99999999999959
  0
POLYLINE
  5
323
330
1F
100
AcDbEntity
  8
OKPOURLACOUPE
100
AcDb2dPolyline
 66
     1
 10
0.0
 20
0.0
 30
0.0000000000000173
  0
VERTEX
  5
325
330
323
100
AcDbEntity
  8
OKPOURLACOUPE
100
AcDbVertex
100
AcDb2dVertex
 10
43.0
 20
16.0
 30
0.0000000000000173
  0
VERTEX
  5
326
330
323
100
AcDbEntity
  8
OKPOURLACOUPE
100
AcDbVertex
100
AcDb2dVertex
 10
36.0
 20
16.0
 30
0.0000000000000173
  0
SEQEND
  5
324
330
323
100
AcDbEntity
  8
OKPOURLACOUPE
  0
ARC
  5
327
330
1F
100
AcDbEntity
  8
OKPOURLACOUPE
100
AcDbCircle
 10
36.0
 20
15.0
 30
0.000000000000011
 40
1.0
100
AcDbArc
 50
90.0
 51
180.0
  0
POLYLINE
  5
328
330
1F
100
AcDbEntity
  8
OKPOURLACOUPE
100
AcDb2dPolyline
 66
     1
 10
0.0
 20
0.0
 30
0.000000000000011
  0
VERTEX
  5
32A
330
328
100
AcDbEntity
  8
OKPOURLACOUPE
100
AcDbVertex
100
AcDb2dVertex
 10
35.0
 20
15.0
 30
0.000000000000011
  0
VERTEX
  5
32B
330
328
100
AcDbEntity
  8
OKPOURLACOUPE
100
AcDbVertex
100
AcDb2dVertex
 10
35.0
 20
13.19999999999999
 30
-0.0000000000000005
  0
SEQEND
  5
329
330
328
100
AcDbEntity
  8
OKPOURLACOUPE
  0
ARC
  5
32C
330
1F
100
AcDbEntity
  8
OKPOURLACOUPE
100
AcDbCircle
 10
35.2
 20
13.19999999999999
 30
-0.0000000000000014
 40
0.2
100
AcDbArc
 50
180.0
 51
270.0
  0
POLYLINE
  5
32D
330
1F
100
AcDbEntity
  8
OKPOURLACOUPE
100
AcDb2dPolyline
 66
     1
 10
0.0
 20
0.0
 30
-0.0000000000000027
  0
VERTEX
  5
32F
330
32D
100
AcDbEntity
  8
OKPOURLACOUPE
100
AcDbVertex
100
AcDb2dVertex
 10
35.2
 20
13.0
 30
-0.0000000000000027
  0
VERTEX
  5
330
330
32D
100
AcDbEntity
  8
OKPOURLACOUPE
100
AcDbVertex
100
AcDb2dVertex
 10
37.0
 20
13.0
 30
-0.0000000000000111
  0
SEQEND
  5
32E
330
32D
100
AcDbEntity
  8
OKPOURLACOUPE
  0
POLYLINE
  5
331
330
1F
100
AcDbEntity
  8
OKPOURLACOUPE
100
AcDb2dPolyline
 66
     1
 10
0.0
 20
0.0
 30
-0.0000000000000111
  0
VERTEX
  5
333
330
331
100
AcDbEntity
  8
OKPOURLACOUPE
100
AcDbVertex
100
AcDb2dVertex
 10
37.0
 20
13.0
 30
-0.0000000000000111
  0
VERTEX
  5
334
330
331
100
AcDbEntity
  8
OKPOURLACOUPE
100
AcDbVertex
100
AcDb2dVertex
 10
38.90000000000001
 20
13.0
 30
-0.0000000000000111
  0
SEQEND
  5
332
330
331
100
AcDbEntity
  8
OKPOURLACOUPE
  0
ARC
  5
335
330
1F
100
AcDbEntity
  8
OKPOURLACOUPE
100
AcDbCircle
 10
39.2
 20
13.0
 30
-0.0000000000000111
 40
0.2999999999999972
100
AcDbArc
 50
0.0
 51
180.0
  0
POLYLINE
  5
336
330
1F
100
AcDbEntity
  8
OKPOURLACOUPE
100
AcDb2dPolyline
 66
     1
 10
0.0
 20
0.0
 30
-0.0000000000000111
  0
VERTEX
  5
338
330
336
100
AcDbEntity
  8
OKPOURLACOUPE
100
AcDbVertex
100
AcDb2dVertex
 10
39.5
 20
13.0
 30
-0.0000000000000111
  0
VERTEX
  5
339
330
336
100
AcDbEntity
  8
OKPOURLACOUPE
100
AcDbVertex
100
AcDb2dVertex
 10
39.5
 20
11.74000000000001
 30
0.0000000000000091
  0
SEQEND
  5
337
330
336
100
AcDbEntity
  8
OKPOURLACOUPE
  0
ARC
  5
33A
330
1F
100
AcDbEntity
  8
OKPOURLACOUPE
100
AcDbCircle
 10
39.7
 20
11.73999999999998
 30
0.0000000000000138
 40
0.2
100
AcDbArc
 50
179.9999999999919
 51
269.9999999999959
  0
POLYLINE
  5
33B
330
1F
100
AcDbEntity
  8
OKPOURLACOUPE
100
AcDb2dPolyline
 66
     1
 10
0.0
 20
0.0
 30
0.000000000000017
  0
VERTEX
  5
33D
330
33B
100
AcDbEntity
  8
OKPOURLACOUPE
100
AcDbVertex
100
AcDb2dVertex
 10
39.69999999999999
 20
11.53999999999999
 30
0.000000000000017
  0
VERTEX
  5
33E
330
33B
100
AcDbEntity
  8
OKPOURLACOUPE
100
AcDbVertex
100
AcDb2dVertex
 10
41.8
 20
11.53999999999999
 30
0.0000000000000664
  0
SEQEND
  5
33C
330
33B
100
AcDbEntity
  8
OKPOURLACOUPE
  0
ARC
  5
33F
330
1F
100
AcDbEntity
  8
OKPOURLACOUPE
100
AcDbCircle
 10
41.8
 20
11.73999999999998
 30
0.0000000000000593
 40
0.2
100
AcDbArc
 50
270.0
 51
0.0
  0
POLYLINE
  5
340
330
1F
100
AcDbEntity
  8
OKPOURLACOUPE
100
AcDb2dPolyline
 66
     1
 10
0.0
 20
0.0
 30
0.000000000000064
  0
VERTEX
  5
342
330
340
100
AcDbEntity
  8
OKPOURLACOUPE
100
AcDbVertex
100
AcDb2dVertex
 10
42.0
 20
11.73999999999998
 30
0.000000000000064
  0
VERTEX
  5
343
330
340
100
AcDbEntity
  8
OKPOURLACOUPE
100
AcDbVertex
100
AcDb2dVertex
 10
42.0
 20
13.0
 30
0.0000000000000195
  0
SEQEND
  5
341
330
340
100
AcDbEntity
  8
OKPOURLACOUPE
  0
ARC
  5
344
330
1F
100
AcDbEntity
  8
OKPOURLACOUPE
100
AcDbCircle
 10
42.30000000000001
 20
13.0000000000008
 30
0.0000000000000204
 40
0.2999999999999972
100
AcDbArc
 50
359.999999999924
 51
180.0
  0
POLYLINE
  5
345
330
1F
100
AcDbEntity
  8
OKPOURLACOUPE
100
AcDb2dPolyline
 66
     1
 10
0.0
 20
0.0
 30
-0.0000000000000111
  0
VERTEX
  5
347
330
345
100
AcDbEntity
  8
OKPOURLACOUPE
100
AcDbVertex
100
AcDb2dVertex
 10
26.59999999999997
 20
15.0
 30
-0.0000000000000111
  0
VERTEX
  5
348
330
345
100
AcDbEntity
  8
OKPOURLACOUPE
100
AcDbVertex
100
AcDb2dVertex
 10
31.0
 20
15.0
 30
-0.0000000000000111
  0
SEQEND
  5
346
330
345
100
AcDbEntity
  8
OKPOURLACOUPE
  0
POLYLINE
  5
349
330
1F
100
AcDbEntity
  8
OKPOURLACOUPE
100
AcDb2dPolyline
 66
     1
 10
0.0
 20
0.0
 30
-0.0000000000000111
  0
VERTEX
  5
34B
330
349
100
AcDbEntity
  8
OKPOURLACOUPE
100
AcDbVertex
100
AcDb2dVertex
 10
31.0
 20
15.0
 30
-0.0000000000000111
  0
VERTEX
  5
34C
330
349
100
AcDbEntity
  8
OKPOURLACOUPE
100
AcDbVertex
100
AcDb2dVertex
 10
32.80000000000001
 20
15.0
 30
-0.0000000000000011
  0
SEQEND
  5
34A
330
349
100
AcDbEntity
  8
OKPOURLACOUPE
  0
ARC
  5
34D
330
1F
100
AcDbEntity
  8
OKPOURLACOUPE
100
AcDbCircle
 10
32.8
 20
14.80000000000001
 30
-0.0000000000000011
 40
0.2
100
AcDbArc
 50
359.9999999999919
 51
89.99999999999594
  0
POLYLINE
  5
34E
330
1F
100
AcDbEntity
  8
OKPOURLACOUPE
100
AcDb2dPolyline
 66
     1
 10
0.0
 20
0.0
 30
0.0
  0
VERTEX
  5
350
330
34E
100
AcDbEntity
  8
OKPOURLACOUPE
100
AcDbVertex
100
AcDb2dVertex
 10
33.0
 20
14.79999999999998
 30
0.0
  0
VERTEX
  5
351
330
34E
100
AcDbEntity
  8
OKPOURLACOUPE
100
AcDbVertex
100
AcDb2dVertex
 10
33.0
 20
13.0
 30
0.0
  0
SEQEND
  5
34F
330
34E
100
AcDbEntity
  8
OKPOURLACOUPE
  0
ARC
  5
352
330
1F
100
AcDbEntity
  8
OKPOURLACOUPE
100
AcDbCircle
 10
32.0
 20
13.0
 30
0.0
 40
1.0
100
AcDbArc
 50
269.9999999999996
 51
0.0
  0
POLYLINE
  5
353
330
1F
100
AcDbEntity
  8
OKPOURLACOUPE
100
AcDb2dPolyline
 66
     1
 10
0.0
 20
0.0
 30
0.0
  0
VERTEX
  5
355
330
353
100
AcDbEntity
  8
OKPOURLACOUPE
100
AcDbVertex
100
AcDb2dVertex
 10
32.0
 20
12.0
 30
0.0
  0
VERTEX
  5
356
330
353
100
AcDbEntity
  8
OKPOURLACOUPE
100
AcDbVertex
100
AcDb2dVertex
 10
20.0
 20
12.0
 30
0.0
  0
SEQEND
  5
354
330
353
100
AcDbEntity
  8
OKPOURLACOUPE
  0
ARC
  5
357
330
1F
100
AcDbEntity
  8
OKPOURLACOUPE
100
AcDbCircle
 10
20.0
 20
13.0
 30
0.0000000000000089
 40
1.0
100
AcDbArc
 50
180.0000000000004
 51
270.0
  0
POLYLINE
  5
358
330
1F
100
AcDbEntity
  8
OKPOURLACOUPE
100
AcDb2dPolyline
 66
     1
 10
0.0
 20
0.0
 30
0.0000000000000084
  0
VERTEX
  5
35A
330
358
100
AcDbEntity
  8
OKPOURLACOUPE
100
AcDbVertex
100
AcDb2dVertex
 10
19.0
 20
13.0
 30
0.0000000000000084
  0
VERTEX
  5
35B
330
358
100
AcDbEntity
  8
OKPOURLACOUPE
100
AcDbVertex
100
AcDb2dVertex
 10
19.0
 20
14.79999999999998
 30
0.0000000000000244
  0
SEQEND
  5
359
330
358
100
AcDbEntity
  8
OKPOURLACOUPE
  0
ARC
  5
35C
330
1F
100
AcDbEntity
  8
OKPOURLACOUPE
100
AcDbCircle
 10
19.2
 20
14.80000000000001
 30
0.0000000000000217
 40
0.2
100
AcDbArc
 50
89.99999999999594
 51
180.0000000000082
  0
POLYLINE
  5
35D
330
1F
100
AcDbEntity
  8
OKPOURLACOUPE
100
AcDb2dPolyline
 66
     1
 10
0.0
 20
0.0
 30
0.0000000000000234
  0
VERTEX
  5
35F
330
35D
100
AcDbEntity
  8
OKPOURLACOUPE
100
AcDbVertex
100
AcDb2dVertex
 10
19.20000000000002
 20
15.0
 30
0.0000000000000234
  0
VERTEX
  5
360
330
35D
100
AcDbEntity
  8
OKPOURLACOUPE
100
AcDbVertex
100
AcDb2dVertex
 10
20.40000000000002
 20
15.0
 30
0.0000000000000028
  0
SEQEND
  5
35E
330
35D
100
AcDbEntity
  8
OKPOURLACOUPE
  0
ARC
  5
361
330
1F
100
AcDbEntity
  8
OKPOURLACOUPE
100
AcDbCircle
 10
20.70000000000002
 20
15.0
 30
0.0000000000000007
 40
0.2999999999999829
100
AcDbArc
 50
180.0
 51
0.0
  0
POLYLINE
  5
362
330
1F
100
AcDbEntity
  8
OKPOURLACOUPE
100
AcDb2dPolyline
 66
     1
 10
0.0
 20
0.0
 30
-0.0000000000000013
  0
VERTEX
  5
364
330
362
100
AcDbEntity
  8
OKPOURLACOUPE
100
AcDbVertex
100
AcDb2dVertex
 10
21.0
 20
15.0
 30
-0.0000000000000013
  0
VERTEX
  5
365
330
362
100
AcDbEntity
  8
OKPOURLACOUPE
100
AcDbVertex
100
AcDb2dVertex
 10
21.0
 20
16.26000000000005
 30
-0.0000000000000002
  0
SEQEND
  5
363
330
362
100
AcDbEntity
  8
OKPOURLACOUPE
  0
ARC
  5
366
330
1F
100
AcDbEntity
  8
OKPOURLACOUPE
100
AcDbCircle
 10
21.2
 20
16.26000000000002
 30
0.0000000000000021
 40
0.2
100
AcDbArc
 50
89.99999999999594
 51
179.9999999999919
  0
POLYLINE
  5
367
330
1F
100
AcDbEntity
  8
OKPOURLACOUPE
100
AcDb2dPolyline
 66
     1
 10
0.0
 20
0.0
 30
0.0000000000000023
  0
VERTEX
  5
369
330
367
100
AcDbEntity
  8
OKPOURLACOUPE
100
AcDbVertex
100
AcDb2dVertex
 10
21.20000000000002
 20
16.46000000000001
 30
0.0000000000000023
  0
VERTEX
  5
36A
330
367
100
AcDbEntity
  8
OKPOURLACOUPE
100
AcDbVertex
100
AcDb2dVertex
 10
25.80000000000001
 20
16.46000000000001
 30
0.0000000000000546
  0
SEQEND
  5
368
330
367
100
AcDbEntity
  8
OKPOURLACOUPE
  0
ARC
  5
36B
330
1F
100
AcDbEntity
  8
OKPOURLACOUPE
100
AcDbCircle
 10
25.8
 20
16.26000000000002
 30
0.0000000000000453
 40
0.2
100
AcDbArc
 50
0.0
 51
89.99999999999594
  0
POLYLINE
  5
36C
330
1F
100
AcDbEntity
  8
OKPOURLACOUPE
100
AcDb2dPolyline
 66
     1
 10
0.0
 20
0.0
 30
0.0000000000000475
  0
VERTEX
  5
36E
330
36C
100
AcDbEntity
  8
OKPOURLACOUPE
100
AcDbVertex
100
AcDb2dVertex
 10
26.0
 20
16.26000000000002
 30
0.0000000000000475
  0
VERTEX
  5
36F
330
36C
100
AcDbEntity
  8
OKPOURLACOUPE
100
AcDbVertex
100
AcDb2dVertex
 10
26.0
 20
15.00000000000023
 30
-0.0000000000000111
  0
SEQEND
  5
36D
330
36C
100
AcDbEntity
  8
OKPOURLACOUPE
  0
ARC
  5
370
330
1F
100
AcDbEntity
  8
OKPOURLACOUPE
100
AcDbCircle
 10
26.29999999999998
 20
15.00000000000048
 30
-0.0000000000000111
 40
0.2999999999999829
100
AcDbArc
 50
180.0000000000488
 51
359.9999999999077
  0
POLYLINE
  5
371
330
1F
100
AcDbEntity
  8
OKPOURLACOUPE
100
AcDb2dPolyline
 66
     1
 10
0.0
 20
0.0
 30
-0.0000000000000524
  0
VERTEX
  5
373
330
371
100
AcDbEntity
  8
OKPOURLACOUPE
100
AcDbVertex
100
AcDb2dVertex
 10
5.520992321517099
 20
12.28729539556498
 30
-0.0000000000000524
  0
VERTEX
  5
374
330
371
100
AcDbEntity
  8
OKPOURLACOUPE
100
AcDbVertex
100
AcDb2dVertex
 10
8.915924856727429
 20
9.1833570776583
 30
-0.0000000000000524
  0
SEQEND
  5
372
330
371
100
AcDbEntity
  8
OKPOURLACOUPE
  0
ARC
  5
375
330
1F
100
AcDbEntity
  8
OKPOURLACOUPE
100
AcDbCircle
 10
9.050878696636346
 20
9.330962840058831
 30
-0.000000000000048
 40
0.2
100
AcDbArc
 50
227.5637702114968
 51
317.5637702114522
  0
POLYLINE
  5
376
330
1F
100
AcDbEntity
  8
OKPOURLACOUPE
100
AcDb2dPolyline
 66
     1
 10
0.0
 20
0.0
 30
-0.000000000000048
  0
VERTEX
  5
378
330
376
100
AcDbEntity
  8
OKPOURLACOUPE
100
AcDbVertex
100
AcDb2dVertex
 10
9.198484459036791
 20
9.1960090001498
 30
-0.000000000000048
  0
VERTEX
  5
379
330
376
100
AcDbEntity
  8
OKPOURLACOUPE
100
AcDbVertex
100
AcDb2dVertex
 10
10.04869365046346
 20
10.12592530327267
 30
-0.00000000000002
  0
SEQEND
  5
377
330
376
100
AcDbEntity
  8
OKPOURLACOUPE
  0
ARC
  5
37A
330
1F
100
AcDbEntity
  8
OKPOURLACOUPE
100
AcDbCircle
 10
10.27010229406415
 20
9.923494543409191
 30
-0.00000000000002
 40
0.2999999999999972
100
AcDbArc
 50
317.5637702114641
 51
137.5637702114642
  0
POLYLINE
  5
37B
330
1F
100
AcDbEntity
  8
OKPOURLACOUPE
100
AcDb2dPolyline
 66
     1
 10
0.0
 20
0.0
 30
-0.00000000000002
  0
VERTEX
  5
37D
330
37B
100
AcDbEntity
  8
OKPOURLACOUPE
100
AcDbVertex
100
AcDb2dVertex
 10
10.49151093766483
 20
9.721063783545702
 30
-0.00000000000002
  0
VERTEX
  5
37E
330
37B
100
AcDbEntity
  8
OKPOURLACOUPE
100
AcDbVertex
100
AcDb2dVertex
 10
13.73883771047485
 20
6.752079305547994
 30
-0.00000000000002
  0
SEQEND
  5
37C
330
37B
100
AcDbEntity
  8
OKPOURLACOUPE
  0
POLYLINE
  5
37F
330
1F
100
AcDbEntity
  8
OKPOURLACOUPE
100
AcDb2dPolyline
 66
     1
 10
0.0
 20
0.0
 30
-0.00000000000002
  0
VERTEX
  5
381
330
37F
100
AcDbEntity
  8
OKPOURLACOUPE
100
AcDbVertex
100
AcDb2dVertex
 10
13.73883771047485
 20
6.752079305547994
 30
-0.00000000000002
  0
VERTEX
  5
382
330
37F
100
AcDbEntity
  8
OKPOURLACOUPE
100
AcDbVertex
100
AcDb2dVertex
 10
14.47686652247708
 20
6.077310106003068
 30
-0.0000000000000111
  0
SEQEND
  5
380
330
37F
100
AcDbEntity
  8
OKPOURLACOUPE
  0
POLYLINE
  5
383
330
1F
100
AcDbEntity
  8
OKPOURLACOUPE
100
AcDb2dPolyline
 66
     1
 10
0.0
 20
0.0
 30
-0.0000000000000111
  0
VERTEX
  5
385
330
383
100
AcDbEntity
  8
OKPOURLACOUPE
100
AcDbVertex
100
AcDb2dVertex
 10
14.47686652247708
 20
6.077310106003068
 30
-0.0000000000000111
  0
VERTEX
  5
386
330
383
100
AcDbEntity
  8
OKPOURLACOUPE
100
AcDbVertex
100
AcDb2dVertex
 10
15.06728957207906
 20
5.537494746366974
 30
0.0000000000000009
  0
SEQEND
  5
384
330
383
100
AcDbEntity
  8
OKPOURLACOUPE
  0
ARC
  5
387
330
1F
100
AcDbEntity
  8
OKPOURLACOUPE
100
AcDbCircle
 10
15.20224341198804
 20
5.685100508767434
 30
0.0000000000000018
 40
0.2
100
AcDbArc
 50
227.5637702114659
 51
317.5637702114678
  0
POLYLINE
  5
388
330
1F
100
AcDbEntity
  8
OKPOURLACOUPE
100
AcDb2dPolyline
 66
     1
 10
0.0
 20
0.0
 30
0.0000000000000047
  0
VERTEX
  5
38A
330
388
100
AcDbEntity
  8
OKPOURLACOUPE
100
AcDbVertex
100
AcDb2dVertex
 10
15.34984917438851
 20
5.550146668858446
 30
0.0000000000000047
  0
VERTEX
  5
38B
330
388
100
AcDbEntity
  8
OKPOURLACOUPE
100
AcDbVertex
100
AcDb2dVertex
 10
15.88966453402438
 20
6.140569718460398
 30
0.0000000000000084
  0
SEQEND
  5
389
330
388
100
AcDbEntity
  8
OKPOURLACOUPE
  0
POLYLINE
  5
38C
330
1F
100
AcDbEntity
  8
OKPOURLACOUPE
100
AcDb2dPolyline
 66
     1
 10
0.0
 20
0.0
 30
0.0000000000000084
  0
VERTEX
  5
38E
330
38C
100
AcDbEntity
  8
OKPOURLACOUPE
100
AcDbVertex
100
AcDb2dVertex
 10
15.88966453402438
 20
6.140569718460398
 30
0.0000000000000084
  0
VERTEX
  5
38F
330
38C
100
AcDbEntity
  8
OKPOURLACOUPE
100
AcDbVertex
100
AcDb2dVertex
 10
16.15140513894556
 20
6.426848505092963
 30
-0.0000000000000044
  0
SEQEND
  5
38D
330
38C
100
AcDbEntity
  8
OKPOURLACOUPE
  0
ARC
  5
390
330
1F
100
AcDbEntity
  8
OKPOURLACOUPE
100
AcDbCircle
 10
16.88943395094782
 20
5.752079305547994
 30
-0.0000000000000022
 40
1.0
100
AcDbArc
 50
90.0
 51
137.5637702114613
  0
POLYLINE
  5
391
330
1F
100
AcDbEntity
  8
OKPOURLACOUPE
100
AcDb2dPolyline
 66
     1
 10
0.0
 20
0.0
 30
-0.00000000000002
  0
VERTEX
  5
393
330
391
100
AcDbEntity
  8
OKPOURLACOUPE
100
AcDbVertex
100
AcDb2dVertex
 10
16.88943395094779
 20
6.752079305548008
 30
-0.00000000000002
  0
VERTEX
  5
394
330
391
100
AcDbEntity
  8
OKPOURLACOUPE
100
AcDbVertex
100
AcDb2dVertex
 10
59.61021052313046
 20
6.752079305548051
 30
-0.00000000000002
  0
SEQEND
  5
392
330
391
100
AcDbEntity
  8
OKPOURLACOUPE
  0
POLYLINE
  5
395
330
1F
100
AcDbEntity
  8
OKPOURLACOUPE
100
AcDb2dPolyline
 66
     1
 10
0.0
 20
0.0
 30
-0.00000000000002
  0
VERTEX
  5
397
330
395
100
AcDbEntity
  8
OKPOURLACOUPE
100
AcDbVertex
100
AcDb2dVertex
 10
59.61021052313046
 20
6.752079305548051
 30
-0.00000000000002
  0
VERTEX
  5
398
330
395
100
AcDbEntity
  8
OKPOURLACOUPE
100
AcDbVertex
100
AcDb2dVertex
 10
61.07191720342118
 20
6.754313694644054
 30
0.0000000000000302
  0
SEQEND
  5
396
330
395
100
AcDbEntity
  8
OKPOURLACOUPE
  0
ARC
  5
399
330
1F
100
AcDbEntity
  8
OKPOURLACOUPE
100
AcDbCircle
 10
61.07161148045836
 20
6.954313460977588
 30
0.0000000000000269
 40
0.2
100
AcDbArc
 50
270.0875832114542
 51
317.5637702115299
  0
POLYLINE
  5
39A
330
1F
100
AcDbEntity
  8
OKPOURLACOUPE
100
AcDb2dPolyline
 66
     1
 10
0.0
 20
0.0
 30
0.0000000000000342
  0
VERTEX
  5
39C
330
39A
100
AcDbEntity
  8
OKPOURLACOUPE
100
AcDbVertex
100
AcDb2dVertex
 10
61.21921724285897
 20
6.81935962106877
 30
0.0000000000000342
  0
VERTEX
  5
39D
330
39A
100
AcDbEntity
  8
OKPOURLACOUPE
100
AcDbVertex
100
AcDb2dVertex
 10
62.01007879458143
 20
7.684364443265181
 30
0.0000000000000471
  0
SEQEND
  5
39B
330
39A
100
AcDbEntity
  8
OKPOURLACOUPE
  0
ARC
  5
39E
330
1F
100
AcDbEntity
  8
OKPOURLACOUPE
100
AcDbCircle
 10
61.86247303218099
 20
7.819318283174169
 30
0.0000000000000442
 40
0.2
100
AcDbArc
 50
317.5637702114644
 51
47.56377021146135
  0
POLYLINE
  5
39F
330
1F
100
AcDbEntity
  8
OKPOURLACOUPE
100
AcDb2dPolyline
 66
     1
 10
0.0
 20
0.0
 30
0.0000000000000464
  0
VERTEX
  5
3A1
330
39F
100
AcDbEntity
  8
OKPOURLACOUPE
100
AcDbVertex
100
AcDb2dVertex
 10
61.99742687208996
 20
7.966924045574615
 30
0.0000000000000464
  0
VERTEX
  5
3A2
330
39F
100
AcDbEntity
  8
OKPOURLACOUPE
100
AcDbVertex
100
AcDb2dVertex
 10
60.45015727972267
 20
9.381570530024746
 30
0.0000000000000154
  0
SEQEND
  5
3A0
330
39F
100
AcDbEntity
  8
OKPOURLACOUPE
  0
ARC
  5
3A3
330
1F
100
AcDbEntity
  8
OKPOURLACOUPE
100
AcDbCircle
 10
60.31520343981373
 20
9.233964767624258
 30
0.000000000000011
 40
0.2
100
AcDbArc
 50
47.56377021148132
 51
137.5637702114658
  0
POLYLINE
  5
3A4
330
1F
100
AcDbEntity
  8
OKPOURLACOUPE
100
AcDb2dPolyline
 66
     1
 10
0.0
 20
0.0
 30
0.000000000000008
  0
VERTEX
  5
3A6
330
3A4
100
AcDbEntity
  8
OKPOURLACOUPE
100
AcDbVertex
100
AcDb2dVertex
 10
60.16759767741326
 20
9.368918607533246
 30
0.000000000000008
  0
VERTEX
  5
3A7
330
3A4
100
AcDbEntity
  8
OKPOURLACOUPE
100
AcDbVertex
100
AcDb2dVertex
 10
59.31738848598664
 20
8.43900230441038
 30
-0.00000000000002
  0
SEQEND
  5
3A5
330
3A4
100
AcDbEntity
  8
OKPOURLACOUPE
  0
ARC
  5
3A8
330
1F
100
AcDbEntity
  8
OKPOURLACOUPE
100
AcDbCircle
 10
59.09597984238596
 20
8.641433064273855
 30
-0.00000000000002
 40
0.2999999999999972
100
AcDbArc
 50
137.5637702114651
 51
317.5637702114651
  0
POLYLINE
  5
3A9
330
1F
100
AcDbEntity
  8
OKPOURLACOUPE
100
AcDb2dPolyline
 66
     1
 10
0.0
 20
0.0
 30
-0.00000000000002
  0
VERTEX
  5
3AB
330
3A9
100
AcDbEntity
  8
OKPOURLACOUPE
100
AcDbVertex
100
AcDb2dVertex
 10
58.87457119878525
 20
8.843863824137358
 30
-0.00000000000002
  0
VERTEX
  5
3AC
330
3A9
100
AcDbEntity
  8
OKPOURLACOUPE
100
AcDbVertex
100
AcDb2dVertex
 10
57.47231645598094
 20
10.12592530327271
 30
-0.00000000000002
  0
SEQEND
  5
3AA
330
3A9
100
AcDbEntity
  8
OKPOURLACOUPE
  0
POLYLINE
  5
3AD
330
1F
100
AcDbEntity
  8
OKPOURLACOUPE
100
AcDb2dPolyline
 66
     1
 10
0.0
 20
0.0
 30
-0.00000000000002
  0
VERTEX
  5
3AF
330
3AD
100
AcDbEntity
  8
OKPOURLACOUPE
100
AcDbVertex
100
AcDb2dVertex
 10
57.47231645598094
 20
10.12592530327271
 30
-0.00000000000002
  0
VERTEX
  5
3B0
330
3AD
100
AcDbEntity
  8
OKPOURLACOUPE
100
AcDbVertex
100
AcDb2dVertex
 10
56.14386459437708
 20
11.34050986245342
 30
-0.0000000000000097
  0
SEQEND
  5
3AE
330
3AD
100
AcDbEntity
  8
OKPOURLACOUPE
  0
ARC
  5
3B1
330
1F
100
AcDbEntity
  8
OKPOURLACOUPE
100
AcDbCircle
 10
56.0089107544681
 20
11.19290410005297
 30
-0.0000000000000103
 40
0.2
100
AcDbArc
 50
47.56377021146406
 51
137.5637702115364
  0
POLYLINE
  5
3B2
330
1F
100
AcDbEntity
  8
OKPOURLACOUPE
100
AcDb2dPolyline
 66
     1
 10
0.0
 20
0.0
 30
-0.0000000000000093
  0
VERTEX
  5
3B4
330
3B2
100
AcDbEntity
  8
OKPOURLACOUPE
100
AcDbVertex
100
AcDb2dVertex
 10
55.86130499206746
 20
11.32785793996177
 30
-0.0000000000000093
  0
VERTEX
  5
3B5
330
3B2
100
AcDbEntity
  8
OKPOURLACOUPE
100
AcDbVertex
100
AcDb2dVertex
 10
55.05974902751093
 20
10.45115610372793
 30
-0.0000000000000129
  0
SEQEND
  5
3B3
330
3B2
100
AcDbEntity
  8
OKPOURLACOUPE
  0
ARC
  5
3B6
330
1F
100
AcDbEntity
  8
OKPOURLACOUPE
100
AcDbCircle
 10
54.32172021550849
 20
11.12592530327271
 30
-0.000000000000012
 40
1.0
100
AcDbArc
 50
269.9999999999886
 51
317.5637702114779
  0
POLYLINE
  5
3B7
330
1F
100
AcDbEntity
  8
OKPOURLACOUPE
100
AcDb2dPolyline
 66
     1
 10
0.0
 20
0.0
 30
-0.0000000000000142
  0
VERTEX
  5
3B9
330
3B7
100
AcDbEntity
  8
OKPOURLACOUPE
100
AcDbVertex
100
AcDb2dVertex
 10
54.32172021550831
 20
10.12592530327268
 30
-0.0000000000000142
  0
VERTEX
  5
3BA
330
3B7
100
AcDbEntity
  8
OKPOURLACOUPE
100
AcDbVertex
100
AcDb2dVertex
 10
19.1915507933206
 20
10.12592530327267
 30
-0.00000000000002
  0
SEQEND
  5
3B8
330
3B7
100
AcDbEntity
  8
OKPOURLACOUPE
  0
ARC
  5
3BB
330
1F
100
AcDbEntity
  8
OKPOURLACOUPE
100
AcDbCircle
 10
19.19155079332057
 20
20.12592530327263
 30
-0.00000000000002
 40
9.999999999999948
100
AcDbArc
 50
185.1275404229294
 51
270.0
  0
POLYLINE
  5
3BC
330
1F
100
AcDbEntity
  8
OKPOURLACOUPE
100
AcDb2dPolyline
 66
     1
 10
0.0
 20
0.0
 30
-0.00000000000002
  0
VERTEX
  5
3BE
330
3BC
100
AcDbEntity
  8
OKPOURLACOUPE
100
AcDbVertex
100
AcDb2dVertex
 10
9.23156857900318
 20
19.23219475636293
 30
-0.00000000000002
  0
VERTEX
  5
3BF
330
3BC
100
AcDbEntity
  8
OKPOURLACOUPE
100
AcDbVertex
100
AcDb2dVertex
 10
6.091878025930811
 20
54.22178101945727
 30
-0.0000000000000102
  0
SEQEND
  5
3BD
330
3BC
100
AcDbEntity
  8
OKPOURLACOUPE
  0
ARC
  5
3C0
330
1F
100
AcDbEntity
  8
OKPOURLACOUPE
100
AcDbCircle
 10
7.087876247362601
 20
54.31115407414808
 30
-0.0000000000000027
 40
1.0
100
AcDbArc
 50
137.5637702114684
 51
185.1275404229206
  0
POLYLINE
  5
3C1
330
1F
100
AcDbEntity
  8
OKPOURLACOUPE
100
AcDb2dPolyline
 66
     1
 10
0.0
 20
0.0
 30
-0.0000000000000075
  0
VERTEX
  5
3C3
330
3C1
100
AcDbEntity
  8
OKPOURLACOUPE
100
AcDbVertex
100
AcDb2dVertex
 10
6.349847435360289
 20
54.98592327369298
 30
-0.0000000000000075
  0
VERTEX
  5
3C4
330
3C1
100
AcDbEntity
  8
OKPOURLACOUPE
100
AcDbVertex
100
AcDb2dVertex
 10
7.151403399917598
 20
55.86262510992756
 30
-0.0000000000000012
  0
SEQEND
  5
3C2
330
3C1
100
AcDbEntity
  8
OKPOURLACOUPE
  0
ARC
  5
3C5
330
1F
100
AcDbEntity
  8
OKPOURLACOUPE
100
AcDbCircle
 10
7.003797637517152
 20
55.99757894983655
 30
-0.0000000000000032
 40
0.2
100
AcDbArc
 50
317.5637702114641
 51
47.56377021143896
  0
POLYLINE
  5
3C6
330
1F
100
AcDbEntity
  8
OKPOURLACOUPE
100
AcDb2dPolyline
 66
     1
 10
0.0
 20
0.0
 30
-0.0000000000000024
  0
VERTEX
  5
3C8
330
3C6
100
AcDbEntity
  8
OKPOURLACOUPE
100
AcDbVertex
100
AcDb2dVertex
 10
7.138751477426183
 20
56.14518471223694
 30
-0.0000000000000024
  0
VERTEX
  5
3C9
330
3C6
100
AcDbEntity
  8
OKPOURLACOUPE
100
AcDbVertex
100
AcDb2dVertex
 10
6.253116903023226
 20
56.95490775169112
 30
-0.0000000000000141
  0
SEQEND
  5
3C7
330
3C6
100
AcDbEntity
  8
OKPOURLACOUPE
  0
ARC
  5
3CA
330
1F
100
AcDbEntity
  8
OKPOURLACOUPE
100
AcDbCircle
 10
6.031708259422032
 20
57.15733851155422
 30
-0.00000000000002
 40
0.3000000000000007
100
AcDbArc
 50
137.5637702114003
 51
317.563770211465
  0
POLYLINE
  5
3CB
330
1F
100
AcDbEntity
  8
OKPOURLACOUPE
100
AcDb2dPolyline
 66
     1
 10
0.0
 20
0.0
 30
-0.00000000000002
  0
VERTEX
  5
3CD
330
3CB
100
AcDbEntity
  8
OKPOURLACOUPE
100
AcDbVertex
100
AcDb2dVertex
 10
5.810299615821606
 20
57.35976927141795
 30
-0.00000000000002
  0
VERTEX
  5
3CE
330
3CB
100
AcDbEntity
  8
OKPOURLACOUPE
100
AcDbVertex
100
AcDb2dVertex
 10
6.660508807248448
 20
58.28968557454102
 30
0.000000000000008
  0
SEQEND
  5
3CC
330
3CB
100
AcDbEntity
  8
OKPOURLACOUPE
  0
ARC
  5
3CF
330
1F
100
AcDbEntity
  8
OKPOURLACOUPE
100
AcDbCircle
 10
6.512903044848002
 20
58.42463941445003
 30
0.000000000000008
 40
0.2
100
AcDbArc
 50
317.5637702114563
 51
47.56377021146152
  0
POLYLINE
  5
3D0
330
1F
100
AcDbEntity
  8
OKPOURLACOUPE
100
AcDb2dPolyline
 66
     1
 10
0.0
 20
0.0
 30
0.0000000000000124
  0
VERTEX
  5
3D2
330
3D0
100
AcDbEntity
  8
OKPOURLACOUPE
100
AcDbVertex
100
AcDb2dVertex
 10
6.647856884757005
 20
58.57224517685047
 30
0.0000000000000124
  0
VERTEX
  5
3D3
330
3D0
100
AcDbEntity
  8
OKPOURLACOUPE
100
AcDbVertex
100
AcDb2dVertex
 10
5.0979963795522
 20
59.98926049589485
 30
0.0000000000000124
  0
SEQEND
  5
3D1
330
3D0
100
AcDbEntity
  8
OKPOURLACOUPE
  0
ARC
  5
3D4
330
1F
100
AcDbEntity
  8
OKPOURLACOUPE
100
AcDbCircle
 10
4.963042539643226
 20
59.84165473349439
 30
0.000000000000008
 40
0.2
100
AcDbArc
 50
47.56377021146766
 51
137.5637702114712
  0
POLYLINE
  5
3D5
330
1F
100
AcDbEntity
  8
OKPOURLACOUPE
100
AcDb2dPolyline
 66
     1
 10
0.0
 20
0.0
 30
0.000000000000008
  0
VERTEX
  5
3D7
330
3D5
100
AcDbEntity
  8
OKPOURLACOUPE
100
AcDbVertex
100
AcDb2dVertex
 10
4.815436777242752
 20
59.97660857340337
 30
0.000000000000008
  0
VERTEX
  5
3D8
330
3D5
100
AcDbEntity
  8
OKPOURLACOUPE
100
AcDbVertex
100
AcDb2dVertex
 10
3.965227585816137
 20
59.04669227028052
 30
-0.00000000000002
  0
SEQEND
  5
3D6
330
3D5
100
AcDbEntity
  8
OKPOURLACOUPE
  0
ARC
  5
3D9
330
1F
100
AcDbEntity
  8
OKPOURLACOUPE
100
AcDbCircle
 10
3.743818942215455
 20
59.249123030144
 30
-0.00000000000002
 40
0.2999999999999972
100
AcDbArc
 50
137.5637702114641
 51
317.5637702114641
  0
POLYLINE
  5
3DA
330
1F
100
AcDbEntity
  8
OKPOURLACOUPE
100
AcDb2dPolyline
 66
     1
 10
0.0
 20
0.0
 30
-0.00000000000002
  0
VERTEX
  5
3DC
330
3DA
100
AcDbEntity
  8
OKPOURLACOUPE
100
AcDbVertex
100
AcDb2dVertex
 10
3.522410298614773
 20
59.45155379000748
 30
-0.00000000000002
  0
VERTEX
  5
3DD
330
3DA
100
AcDbEntity
  8
OKPOURLACOUPE
100
AcDbVertex
100
AcDb2dVertex
 10
2.50034935843604
 20
60.38600950674233
 30
-0.00000000000002
  0
SEQEND
  5
3DB
330
3DA
100
AcDbEntity
  8
OKPOURLACOUPE
  0
ARC
  5
3DE
330
1F
100
AcDbEntity
  8
OKPOURLACOUPE
100
AcDbCircle
 10
2.365395518527009
 20
60.23840374434195
 30
-0.0000000000000199
 40
0.2
100
AcDbArc
 50
47.56377021143359
 51
185.1275404229705
  0
POLYLINE
  5
3DF
330
1F
100
AcDbEntity
  8
OKPOURLACOUPE
100
AcDb2dPolyline
 66
     1
 10
0.0
 20
0.0
 30
-0.0000000000000199
  0
VERTEX
  5
3E1
330
3DF
100
AcDbEntity
  8
OKPOURLACOUPE
100
AcDbVertex
100
AcDb2dVertex
 10
2.166195874240657
 20
60.22052913340363
 30
-0.0000000000000199
  0
VERTEX
  5
3E2
330
3DF
100
AcDbEntity
  8
OKPOURLACOUPE
100
AcDbVertex
100
AcDb2dVertex
 10
6.076971180343151
 20
16.63775955295794
 30
-0.0000000000000093
  0
SEQEND
  5
3E0
330
3DF
100
AcDbEntity
  8
OKPOURLACOUPE
  0
ARC
  5
3E3
330
1F
100
AcDbEntity
  8
OKPOURLACOUPE
100
AcDbCircle
 10
5.080972958911389
 20
16.54838649826696
 30
-0.0000000000000013
 40
1.0
100
AcDbArc
 50
317.5637702114658
 51
5.127540422931638
  0
POLYLINE
  5
3E4
330
1F
100
AcDbEntity
  8
OKPOURLACOUPE
100
AcDb2dPolyline
 66
     1
 10
0.0
 20
0.0
 30
-0.0000000000000067
  0
VERTEX
  5
3E6
330
3E4
100
AcDbEntity
  8
OKPOURLACOUPE
100
AcDbVertex
100
AcDb2dVertex
 10
5.819001770913673
 20
15.87361729872201
 30
-0.0000000000000067
  0
VERTEX
  5
3E7
330
3E4
100
AcDbEntity
  8
OKPOURLACOUPE
100
AcDbVertex
100
AcDb2dVertex
 10
5.557261165992571
 20
15.58733851208956
 30
0.0000000000000004
  0
SEQEND
  5
3E5
330
3E4
100
AcDbEntity
  8
OKPOURLACOUPE
  0
POLYLINE
  5
3E8
330
1F
100
AcDbEntity
  8
OKPOURLACOUPE
100
AcDb2dPolyline
 66
     1
 10
0.0
 20
0.0
 30
0.0000000000000004
  0
VERTEX
  5
3EA
330
3E8
100
AcDbEntity
  8
OKPOURLACOUPE
100
AcDbVertex
100
AcDb2dVertex
 10
5.557261165992571
 20
15.58733851208956
 30
0.0000000000000004
  0
VERTEX
  5
3EB
330
3E8
100
AcDbEntity
  8
OKPOURLACOUPE
100
AcDbVertex
100
AcDb2dVertex
 10
5.017445806356648
 20
14.99691546248781
 30
0.0000000000000042
  0
SEQEND
  5
3E9
330
3E8
100
AcDbEntity
  8
OKPOURLACOUPE
  0
ARC
  5
3EC
330
1F
100
AcDbEntity
  8
OKPOURLACOUPE
100
AcDbCircle
 10
5.165051568757121
 20
14.8619616225788
 30
0.0000000000000013
 40
0.2
100
AcDbArc
 50
137.5637702114633
 51
227.5637702114514
  0
POLYLINE
  5
3ED
330
1F
100
AcDbEntity
  8
OKPOURLACOUPE
100
AcDb2dPolyline
 66
     1
 10
0.0
 20
0.0
 30
0.0000000000000023
  0
VERTEX
  5
3EF
330
3ED
100
AcDbEntity
  8
OKPOURLACOUPE
100
AcDbVertex
100
AcDb2dVertex
 10
5.030097728848091
 20
14.71435586017839
 30
0.0000000000000023
  0
VERTEX
  5
3F0
330
3ED
100
AcDbEntity
  8
OKPOURLACOUPE
100
AcDbVertex
100
AcDb2dVertex
 10
5.657422219049977
 20
14.14080204056505
 30
-0.0000000000000098
  0
SEQEND
  5
3EE
330
3ED
100
AcDbEntity
  8
OKPOURLACOUPE
  0
POLYLINE
  5
3F1
330
1F
100
AcDbEntity
  8
OKPOURLACOUPE
100
AcDb2dPolyline
 66
     1
 10
0.0
 20
0.0
 30
-0.0000000000000098
  0
VERTEX
  5
3F3
330
3F1
100
AcDbEntity
  8
OKPOURLACOUPE
100
AcDbVertex
100
AcDb2dVertex
 10
5.657422219049977
 20
14.14080204056505
 30
-0.0000000000000098
  0
VERTEX
  5
3F4
330
3F1
100
AcDbEntity
  8
OKPOURLACOUPE
100
AcDbVertex
100
AcDb2dVertex
 10
5.915732303250707
 20
13.9046328207244
 30
-0.0000000000000135
  0
SEQEND
  5
3F2
330
3F1
100
AcDbEntity
  8
OKPOURLACOUPE
  0
ARC
  5
3F5
330
1F
100
AcDbEntity
  8
OKPOURLACOUPE
100
AcDbCircle
 10
6.137140946851446
 20
13.70220206086084
 30
-0.00000000000002
 40
0.2999999999999972
100
AcDbArc
 50
317.5637702114636
 51
137.5637702114636
  0
POLYLINE
  5
3F6
330
1F
100
AcDbEntity
  8
OKPOURLACOUPE
100
AcDb2dPolyline
 66
     1
 10
0.0
 20
0.0
 30
-0.00000000000002
  0
VERTEX
  5
3F8
330
3F6
100
AcDbEntity
  8
OKPOURLACOUPE
100
AcDbVertex
100
AcDb2dVertex
 10
6.358549590452128
 20
13.49977130099737
 30
-0.00000000000002
  0
VERTEX
  5
3F9
330
3F6
100
AcDbEntity
  8
OKPOURLACOUPE
100
AcDbVertex
100
AcDb2dVertex
 10
5.508340399025514
 20
12.56985499787454
 30
-0.000000000000048
  0
SEQEND
  5
3F7
330
3F6
100
AcDbEntity
  8
OKPOURLACOUPE
  0
ARC
  5
3FA
330
1F
100
AcDbEntity
  8
OKPOURLACOUPE
100
AcDbCircle
 10
5.655946161425959
 20
12.43490115796556
 30
-0.000000000000048
 40
0.1999999999999957
100
AcDbArc
 50
137.5637702114643
 51
227.5637702115112
  0
POLYLINE
  5
3FB
330
1F
100
AcDbEntity
  8
OKPOURLACOUPE
100
AcDb2dPolyline
 66
     1
 10
0.0
 20
0.0
 30
0.0
  0
VERTEX
  5
3FD
330
3FB
100
AcDbEntity
  8
OKPOURLACOUPE
100
AcDbVertex
100
AcDb2dVertex
 10
111.0
 20
24.0
 30
0.0
  0
VERTEX
  5
3FE
330
3FB
100
AcDbEntity
  8
OKPOURLACOUPE
100
AcDbVertex
100
AcDb2dVertex
 10
111.0
 20
59.0
 30
0.0
  0
SEQEND
  5
3FC
330
3FB
100
AcDbEntity
  8
OKPOURLACOUPE
  0
ARC
  5
3FF
330
1F
100
AcDbEntity
  8
OKPOURLACOUPE
100
AcDbCircle
 10
106.0
 20
59.0
 30
0.0
 40
5.0
100
AcDbArc
 50
0.0
 51
90.0
  0
POLYLINE
  5
400
330
1F
100
AcDbEntity
  8
OKPOURLACOUPE
100
AcDb2dPolyline
 66
     1
 10
0.0
 20
0.0
 30
0.0
  0
VERTEX
  5
402
330
400
100
AcDbEntity
  8
OKPOURLACOUPE
100
AcDbVertex
100
AcDb2dVertex
 10
106.0
 20
64.0
 30
0.0
  0
VERTEX
  5
403
330
400
100
AcDbEntity
  8
OKPOURLACOUPE
100
AcDbVertex
100
AcDb2dVertex
 10
16.0
 20
64.0
 30
0.0
  0
SEQEND
  5
401
330
400
100
AcDbEntity
  8
OKPOURLACOUPE
  0
ARC
  5
404
330
1F
100
AcDbEntity
  8
OKPOURLACOUPE
100
AcDbCircle
 10
16.0
 20
59.0
 30
0.0000000000000284
 40
5.0
100
AcDbArc
 50
90.0
 51
180.0000000000001
  0
POLYLINE
  5
405
330
1F
100
AcDbEntity
  8
OKPOURLACOUPE
100
AcDb2dPolyline
 66
     1
 10
0.0
 20
0.0
 30
0.0
  0
VERTEX
  5
407
330
405
100
AcDbEntity
  8
OKPOURLACOUPE
100
AcDbVertex
100
AcDb2dVertex
 10
11.0
 20
59.0
 30
0.0
  0
VERTEX
  5
408
330
405
100
AcDbEntity
  8
OKPOURLACOUPE
100
AcDbVertex
100
AcDb2dVertex
 10
11.0
 20
24.0
 30
0.0
  0
SEQEND
  5
406
330
405
100
AcDbEntity
  8
OKPOURLACOUPE
  0
ARC
  5
409
330
1F
100
AcDbEntity
  8
OKPOURLACOUPE
100
AcDbCircle
 10
16.0
 20
24.0
 30
0.0
 40
5.0
100
AcDbArc
 50
180.0
 51
270.0000000000001
  0
POLYLINE
  5
40A
330
1F
100
AcDbEntity
  8
OKPOURLACOUPE
100
AcDb2dPolyline
 66
     1
 10
0.0
 20
0.0
 30
0.0
  0
VERTEX
  5
40C
330
40A
100
AcDbEntity
  8
OKPOURLACOUPE
100
AcDbVertex
100
AcDb2dVertex
 10
16.0
 20
19.0
 30
0.0
  0
VERTEX
  5
40D
330
40A
100
AcDbEntity
  8
OKPOURLACOUPE
100
AcDbVertex
100
AcDb2dVertex
 10
106.0
 20
19.0
 30
0.0
  0
SEQEND
  5
40B
330
40A
100
AcDbEntity
  8
OKPOURLACOUPE
  0
ARC
  5
40E
330
1F
100
AcDbEntity
  8
OKPOURLACOUPE
100
AcDbCircle
 10
106.0
 20
24.0
 30
0.0
 40
5.0
100
AcDbArc
 50
270.0
 51
359.9999999999997
  0
POLYLINE
  5
40F
330
1F
100
AcDbEntity
  8
OKPOURLACOUPE
100
AcDb2dPolyline
 66
     1
 10
0.0
 20
0.0
 30
0.0000000000000079
  0
VERTEX
  5
411
330
40F
100
AcDbEntity
  8
OKPOURLACOUPE
100
AcDbVertex
100
AcDb2dVertex
 10
66.0
 20
24.0
 30
0.0000000000000079
  0
VERTEX
  5
412
330
40F
100
AcDbEntity
  8
OKPOURLACOUPE
100
AcDbVertex
100
AcDb2dVertex
 10
66.0
 20
25.46000000000001
 30
0.000000000000027
  0
SEQEND
  5
410
330
40F
100
AcDbEntity
  8
OKPOURLACOUPE
  0
ARC
  5
413
330
1F
100
AcDbEntity
  8
OKPOURLACOUPE
100
AcDbCircle
 10
65.7
 20
25.46000000000001
 30
0.0000000000000268
 40
0.2999999999999972
100
AcDbArc
 50
0.0
 51
180.0
  0
POLYLINE
  5
414
330
1F
100
AcDbEntity
  8
OKPOURLACOUPE
100
AcDb2dPolyline
 66
     1
 10
0.0
 20
0.0
 30
0.0000000000000266
  0
VERTEX
  5
416
330
414
100
AcDbEntity
  8
OKPOURLACOUPE
100
AcDbVertex
100
AcDb2dVertex
 10
65.4
 20
25.46000000000001
 30
0.0000000000000266
  0
VERTEX
  5
417
330
414
100
AcDbEntity
  8
OKPOURLACOUPE
100
AcDbVertex
100
AcDb2dVertex
 10
56.60000000000001
 20
25.45999999999975
 30
0.0000000000000116
  0
SEQEND
  5
415
330
414
100
AcDbEntity
  8
OKPOURLACOUPE
  0
ARC
  5
418
330
1F
100
AcDbEntity
  8
OKPOURLACOUPE
100
AcDbCircle
 10
56.30000000000001
 20
25.4599999999995
 30
0.0000000000000114
 40
0.2999999999999972
100
AcDbArc
 50
0.0000000000488533
 51
180.0
  0
POLYLINE
  5
419
330
1F
100
AcDbEntity
  8
OKPOURLACOUPE
100
AcDb2dPolyline
 66
     1
 10
0.0
 20
0.0
 30
0.0000000000000112
  0
VERTEX
  5
41B
330
419
100
AcDbEntity
  8
OKPOURLACOUPE
100
AcDbVertex
100
AcDb2dVertex
 10
56.0
 20
25.46000000000001
 30
0.0000000000000112
  0
VERTEX
  5
41C
330
419
100
AcDbEntity
  8
OKPOURLACOUPE
100
AcDbVertex
100
AcDb2dVertex
 10
56.0
 20
23.99999999999974
 30
0.0
  0
SEQEND
  5
41A
330
419
100
AcDbEntity
  8
OKPOURLACOUPE
  0
ARC
  5
41D
330
1F
100
AcDbEntity
  8
OKPOURLACOUPE
100
AcDbCircle
 10
56.30000000000001
 20
23.99999999999949
 30
0.0
 40
0.2999999999999972
100
AcDbArc
 50
179.9999999999511
 51
0.0000000000488533
  0
POLYLINE
  5
41E
330
1F
100
AcDbEntity
  8
OKPOURLACOUPE
100
AcDb2dPolyline
 66
     1
 10
0.0
 20
0.0
 30
0.0
  0
VERTEX
  5
420
330
41E
100
AcDbEntity
  8
OKPOURLACOUPE
100
AcDbVertex
100
AcDb2dVertex
 10
56.60000000000001
 20
23.99999999999974
 30
0.0
  0
VERTEX
  5
421
330
41E
100
AcDbEntity
  8
OKPOURLACOUPE
100
AcDbVertex
100
AcDb2dVertex
 10
65.4
 20
24.0
 30
0.0000000000000079
  0
SEQEND
  5
41F
330
41E
100
AcDbEntity
  8
OKPOURLACOUPE
  0
ARC
  5
422
330
1F
100
AcDbEntity
  8
OKPOURLACOUPE
100
AcDbCircle
 10
65.7
 20
24.0
 30
0.0000000000000079
 40
0.2999999999999972
100
AcDbArc
 50
180.0
 51
0.0
  0
POLYLINE
  5
423
330
1F
100
AcDbEntity
  8
OKPOURLACOUPE
100
AcDb2dPolyline
 66
     1
 10
0.0
 20
0.0
 30
-0.0000000000000056
  0
VERTEX
  5
425
330
423
100
AcDbEntity
  8
OKPOURLACOUPE
100
AcDbVertex
100
AcDb2dVertex
 10
26.0
 20
57.54000000000002
 30
-0.0000000000000056
  0
VERTEX
  5
426
330
423
100
AcDbEntity
  8
OKPOURLACOUPE
100
AcDbVertex
100
AcDb2dVertex
 10
26.0
 20
59.0
 30
0.0
  0
SEQEND
  5
424
330
423
100
AcDbEntity
  8
OKPOURLACOUPE
  0
ARC
  5
427
330
1F
100
AcDbEntity
  8
OKPOURLACOUPE
100
AcDbCircle
 10
25.7
 20
59.0
 30
0.0
 40
0.2999999999999972
100
AcDbArc
 50
0.0
 51
180.0
  0
POLYLINE
  5
428
330
1F
100
AcDbEntity
  8
OKPOURLACOUPE
100
AcDb2dPolyline
 66
     1
 10
0.0
 20
0.0
 30
0.0
  0
VERTEX
  5
42A
330
428
100
AcDbEntity
  8
OKPOURLACOUPE
100
AcDbVertex
100
AcDb2dVertex
 10
25.40000000000001
 20
59.0
 30
0.0
  0
VERTEX
  5
42B
330
428
100
AcDbEntity
  8
OKPOURLACOUPE
100
AcDbVertex
100
AcDb2dVertex
 10
21.60000000000001
 20
59.00000000000031
 30
0.0
  0
SEQEND
  5
429
330
428
100
AcDbEntity
  8
OKPOURLACOUPE
  0
ARC
  5
42C
330
1F
100
AcDbEntity
  8
OKPOURLACOUPE
100
AcDbCircle
 10
21.30000000000001
 20
59.00000000000061
 30
0.0
 40
0.2999999999999972
100
AcDbArc
 50
359.999999999943
 51
180.0
  0
POLYLINE
  5
42D
330
1F
100
AcDbEntity
  8
OKPOURLACOUPE
100
AcDb2dPolyline
 66
     1
 10
0.0
 20
0.0
 30
0.0
  0
VERTEX
  5
42F
330
42D
100
AcDbEntity
  8
OKPOURLACOUPE
100
AcDbVertex
100
AcDb2dVertex
 10
21.0
 20
59.0
 30
0.0
  0
VERTEX
  5
430
330
42D
100
AcDbEntity
  8
OKPOURLACOUPE
100
AcDbVertex
100
AcDb2dVertex
 10
21.0
 20
57.5400000000003
 30
-0.0000000000000056
  0
SEQEND
  5
42E
330
42D
100
AcDbEntity
  8
OKPOURLACOUPE
  0
ARC
  5
431
330
1F
100
AcDbEntity
  8
OKPOURLACOUPE
100
AcDbCircle
 10
21.30000000000001
 20
57.54000000000059
 30
-0.0000000000000056
 40
0.2999999999999972
100
AcDbArc
 50
180.0000000000543
 51
359.9999999999457
  0
POLYLINE
  5
432
330
1F
100
AcDbEntity
  8
OKPOURLACOUPE
100
AcDb2dPolyline
 66
     1
 10
0.0
 20
0.0
 30
-0.0000000000000056
  0
VERTEX
  5
434
330
432
100
AcDbEntity
  8
OKPOURLACOUPE
100
AcDbVertex
100
AcDb2dVertex
 10
21.60000000000001
 20
57.5400000000003
 30
-0.0000000000000056
  0
VERTEX
  5
435
330
432
100
AcDbEntity
  8
OKPOURLACOUPE
100
AcDbVertex
100
AcDb2dVertex
 10
25.40000000000001
 20
57.54000000000002
 30
-0.0000000000000056
  0
SEQEND
  5
433
330
432
100
AcDbEntity
  8
OKPOURLACOUPE
  0
ARC
  5
436
330
1F
100
AcDbEntity
  8
OKPOURLACOUPE
100
AcDbCircle
 10
25.70000000000002
 20
57.53999999999999
 30
-0.0000000000000056
 40
0.2999999999999829
100
AcDbArc
 50
179.9999999999946
 51
0.0000000000054281
  0
POLYLINE
  5
437
330
1F
100
AcDbEntity
  8
OKPOURLACOUPE
100
AcDb2dPolyline
 66
     1
 10
0.0
 20
0.0
 30
-0.0000000000000056
  0
VERTEX
  5
439
330
437
100
AcDbEntity
  8
OKPOURLACOUPE
100
AcDbVertex
100
AcDb2dVertex
 10
101.0
 20
57.54000000000002
 30
-0.0000000000000056
  0
VERTEX
  5
43A
330
437
100
AcDbEntity
  8
OKPOURLACOUPE
100
AcDbVertex
100
AcDb2dVertex
 10
101.0
 20
59.0
 30
0.0
  0
SEQEND
  5
438
330
437
100
AcDbEntity
  8
OKPOURLACOUPE
  0
ARC
  5
43B
330
1F
100
AcDbEntity
  8
OKPOURLACOUPE
100
AcDbCircle
 10
100.7
 20
59.0
 30
0.0
 40
0.2999999999999972
100
AcDbArc
 50
0.0
 51
180.0
  0
POLYLINE
  5
43C
330
1F
100
AcDbEntity
  8
OKPOURLACOUPE
100
AcDb2dPolyline
 66
     1
 10
0.0
 20
0.0
 30
0.0
  0
VERTEX
  5
43E
330
43C
100
AcDbEntity
  8
OKPOURLACOUPE
100
AcDbVertex
100
AcDb2dVertex
 10
100.4
 20
59.0
 30
0.0
  0
VERTEX
  5
43F
330
43C
100
AcDbEntity
  8
OKPOURLACOUPE
100
AcDbVertex
100
AcDb2dVertex
 10
96.60000000000001
 20
59.00000000000031
 30
0.0
  0
SEQEND
  5
43D
330
43C
100
AcDbEntity
  8
OKPOURLACOUPE
  0
ARC
  5
440
330
1F
100
AcDbEntity
  8
OKPOURLACOUPE
100
AcDbCircle
 10
96.30000000000001
 20
59.00000000000061
 30
0.0
 40
0.2999999999999972
100
AcDbArc
 50
359.999999999943
 51
180.0
  0
POLYLINE
  5
441
330
1F
100
AcDbEntity
  8
OKPOURLACOUPE
100
AcDb2dPolyline
 66
     1
 10
0.0
 20
0.0
 30
0.0
  0
VERTEX
  5
443
330
441
100
AcDbEntity
  8
OKPOURLACOUPE
100
AcDbVertex
100
AcDb2dVertex
 10
96.0
 20
59.0
 30
0.0
  0
VERTEX
  5
444
330
441
100
AcDbEntity
  8
OKPOURLACOUPE
100
AcDbVertex
100
AcDb2dVertex
 10
96.0
 20
57.5400000000003
 30
-0.0000000000000056
  0
SEQEND
  5
442
330
441
100
AcDbEntity
  8
OKPOURLACOUPE
  0
ARC
  5
445
330
1F
100
AcDbEntity
  8
OKPOURLACOUPE
100
AcDbCircle
 10
96.30000000000001
 20
57.54000000000059
 30
-0.0000000000000056
 40
0.2999999999999972
100
AcDbArc
 50
180.0000000000543
 51
359.9999999999457
  0
POLYLINE
  5
446
330
1F
100
AcDbEntity
  8
OKPOURLACOUPE
100
AcDb2dPolyline
 66
     1
 10
0.0
 20
0.0
 30
-0.0000000000000056
  0
VERTEX
  5
448
330
446
100
AcDbEntity
  8
OKPOURLACOUPE
100
AcDbVertex
100
AcDb2dVertex
 10
96.60000000000001
 20
57.5400000000003
 30
-0.0000000000000056
  0
VERTEX
  5
449
330
446
100
AcDbEntity
  8
OKPOURLACOUPE
100
AcDbVertex
100
AcDb2dVertex
 10
100.4
 20
57.54000000000002
 30
-0.0000000000000056
  0
SEQEND
  5
447
330
446
100
AcDbEntity
  8
OKPOURLACOUPE
  0
ARC
  5
44A
330
1F
100
AcDbEntity
  8
OKPOURLACOUPE
100
AcDbCircle
 10
100.7
 20
57.53999999999999
 30
-0.0000000000000056
 40
0.2999999999999829
100
AcDbArc
 50
179.9999999999946
 51
0.0000000000054281
  0
POLYLINE
  5
44B
330
1F
100
AcDbEntity
  8
OKPOURLACOUPE
100
AcDb2dPolyline
 66
     1
 10
0.0
 20
0.0
 30
0.0
  0
VERTEX
  5
44D
330
44B
100
AcDbEntity
  8
OKPOURLACOUPE
100
AcDbVertex
100
AcDb2dVertex
 10
0.0
 20
0.0
 30
0.0
  0
VERTEX
  5
44E
330
44B
100
AcDbEntity
  8
OKPOURLACOUPE
100
AcDbVertex
100
AcDb2dVertex
 10
125.0
 20
0.0
 30
0.0
  0
VERTEX
  5
44F
330
44B
100
AcDbEntity
  8
OKPOURLACOUPE
100
AcDbVertex
100
AcDb2dVertex
 10
125.0
 20
250.0
 30
0.0
  0
VERTEX
  5
450
330
44B
100
AcDbEntity
  8
OKPOURLACOUPE
100
AcDbVertex
100
AcDb2dVertex
 10
0.0
 20
250.0
 30
0.0
  0
VERTEX
  5
451
330
44B
100
AcDbEntity
  8
OKPOURLACOUPE
100
AcDbVertex
100
AcDb2dVertex
 10
0.0
 20
0.0
 30
0.0
  0
SEQEND
  5
44C
330
44B
100
AcDbEntity
  8
OKPOURLACOUPE
  0
ENDSEC
  0
SECTION
  2
OBJECTS
  0
DICTIONARY
  5
C
330
0
100
AcDbDictionary
281
     1
  3
ACAD_GROUP
350
D
  3
ACAD_LAYOUT
350
1A
  3
ACAD_MLINESTYLE
350
17
  3
ACAD_PLOTSETTINGS
350
19
  3
ACAD_PLOTSTYLENAME
350
E
  0
DICTIONARY
  5
D
102
{ACAD_REACTORS
330
C
102
}
330
C
100
AcDbDictionary
281
     1
  0
DICTIONARY
  5
1A
102
{ACAD_REACTORS
330
C
102
}
330
C
100
AcDbDictionary
281
     1
  3
Layout1
350
1E
  3
Layout2
350
26
  3
Model
350
22
  0
DICTIONARY
  5
17
102
{ACAD_REACTORS
330
C
102
}
330
C
100
AcDbDictionary
281
     1
  3
Standard
350
18
  0
DICTIONARY
  5
19
102
{ACAD_REACTORS
330
C
102
}
330
C
100
AcDbDictionary
281
     1
  0
ACDBDICTIONARYWDFLT
  5
E
102
{ACAD_REACTORS
330
C
102
}
330
C
100
AcDbDictionary
281
     1
  3
Normal
350
F
100
AcDbDictionaryWithDefault
340
F
  0
LAYOUT
  5
1E
102
{ACAD_REACTORS
330
1A
102
}
330
1A
100
AcDbPlotSettings
  1

  2
none_device
  4

  6

 40
0.0
 41
0.0
 42
0.0
 43
0.0
 44
0.0
 45
0.0
 46
0.0
 47
0.0
 48
0.0
 49
0.0
140
0.0
141
0.0
142
1.0
143
1.0
 70
   688
 72
     0
 73
     0
 74
     5
  7

 75
    16
 76
     0
 77
     2
 78
   300
147
1.0
148
0.0
149
0.0
100
AcDbLayout
  1
Layout1
 70
     1
 71
     1
 10
0.0
 20
0.0
 11
12.0
 21
9.0
 12
0.0
 22
0.0
 32
0.0
 14
1.000000000000000E+20
 24
1.000000000000000E+20
 34
1.000000000000000E+20
 15
-1.000000000000000E+20
 25
-1.000000000000000E+20
 35
-1.000000000000000E+20
146
0.0
 13
0.0
 23
0.0
 33
0.0
 16
1.0
 26
0.0
 36
0.0
 17
0.0
 27
1.0
 37
0.0
 76
     0
330
1B
  0
LAYOUT
  5
26
102
{ACAD_REACTORS
330
1A
102
}
330
1A
100
AcDbPlotSettings
  1

  2
none_device
  4

  6

 40
0.0
 41
0.0
 42
0.0
 43
0.0
 44
0.0
 45
0.0
 46
0.0
 47
0.0
 48
0.0
 49
0.0
140
0.0
141
0.0
142
1.0
143
1.0
 70
   688
 72
     0
 73
     0
 74
     5
  7

 75
    16
 76
     0
 77
     2
 78
   300
147
1.0
148
0.0
149
0.0
100
AcDbLayout
  1
Layout2
 70
     1
 71
     2
 10
0.0
 20
0.0
 11
0.0
 21
0.0
 12
0.0
 22
0.0
 32
0.0
 14
0.0
 24
0.0
 34
0.0
 15
0.0
 25
0.0
 35
0.0
146
0.0
 13
0.0
 23
0.0
 33
0.0
 16
1.0
 26
0.0
 36
0.0
 17
0.0
 27
1.0
 37
0.0
 76
     0
330
23
  0
LAYOUT
  5
22
102
{ACAD_REACTORS
330
1A
102
}
330
1A
100
AcDbPlotSettings
  1

  2
none_device
  4

  6

 40
0.0
 41
0.0
 42
0.0
 43
0.0
 44
0.0
 45
0.0
 46
0.0
 47
0.0
 48
0.0
 49
0.0
140
0.0
141
0.0
142
1.0
143
1.0
 70
  1712
 72
     0
 73
     0
 74
     0
  7

 75
     0
 76
     0
 77
     2
 78
   300
147
1.0
148
0.0
149
0.0
100
AcDbLayout
  1
Model
 70
     1
 71
     0
 10
0.0
 20
0.0
 11
12.0
 21
9.0
 12
0.0
 22
0.0
 32
0.0
 14
0.0
 24
0.0
 34
-0.0000000000000524
 15
125.0
 25
250.0
 35
0.0000000000000664
146
0.0
 13
0.0
 23
0.0
 33
0.0
 16
1.0
 26
0.0
 36
0.0
 17
0.0
 27
1.0
 37
0.0
 76
     0
330
1F
  0
MLINESTYLE
  5
18
102
{ACAD_REACTORS
330
17
102
}
330
17
100
AcDbMlineStyle
  2
Standard
 70
     0
  3

 62
   256
 51
90.0
 52
90.0
 71
     2
 49
0.5
 62
   256
  6
BYLAYER
 49
-0.5
 62
   256
  6
BYLAYER
  0
ACDBPLACEHOLDER
  5
F
102
{ACAD_REACTORS
330
E
102
}
330
E
  0
ENDSEC
  0
EOF
