  0
SECTION
  2
BLOCKS
  0
ENDSEC
  0
SECTION
  2
ENTITIES
  0
LINE
  8
0
 10
-26.225
 11
-26.225
 20
-6.335
 21
-2.695
  0
LINE
  8
0
 10
-26.225
 11
-25.355
 20
-2.695
 21
-1.825
  0
LINE
  8
0
 10
-25.355
 11
-21.465
 20
-1.825
 21
-1.825
  0
LINE
  8
0
 10
-21.465
 11
-21.465
 20
-1.825
 21
1.825
  0
LINE
  8
0
 10
-21.465
 11
-25.355
 20
1.825
 21
1.825
  0
LINE
  8
0
 10
-25.355
 11
-26.225
 20
1.825
 21
2.695
  0
LINE
  8
0
 10
-26.225
 11
-26.225
 20
2.695
 21
6.335
  0
LINE
  8
0
 10
-26.225
 11
-24.134
 20
6.335
 21
6.335
  0
LINE
  8
0
 10
-24.134
 11
-20.045
 20
6.335
 21
7.204
  0
LINE
  8
0
 10
-20.045
 11
-16.225
 20
7.204
 21
8.904
  0
LINE
  8
0
 10
-16.225
 11
-12.842
 20
8.904
 21
11.362
  0
LINE
  8
0
 10
-12.842
 11
-10.045
 20
11.362
 21
14.469
  0
LINE
  8
0
 10
-10.045
 11
-7.954
 20
14.469
 21
18.09
  0
LINE
  8
0
 10
-7.954
 11
-6.662
 20
18.09
 21
22.067
  0
LINE
  8
0
 10
-6.662
 11
-6.225
 20
22.067
 21
26.225
  0
LINE
  8
0
 10
-6.225
 11
-2.695
 20
26.225
 21
26.225
  0
LINE
  8
0
 10
-2.695
 11
-1.825
 20
26.225
 21
25.355
  0
LINE
  8
0
 10
-1.825
 11
-1.825
 20
25.355
 21
21.465
  0
LINE
  8
0
 10
-1.825
 11
1.825
 20
21.465
 21
21.465
  0
LINE
  8
0
 10
1.825
 11
1.825
 20
21.465
 21
25.355
  0
LINE
  8
0
 10
1.825
 11
2.695
 20
25.355
 21
26.225
  0
LINE
  8
0
 10
2.695
 11
6.225
 20
26.225
 21
26.225
  0
LINE
  8
0
 10
6.225
 11
6.662
 20
26.225
 21
22.067
  0
LINE
  8
0
 10
6.662
 11
7.954
 20
22.067
 21
18.09
  0
LINE
  8
0
 10
7.954
 11
10.045
 20
18.09
 21
14.469
  0
LINE
  8
0
 10
10.045
 11
12.842
 20
14.469
 21
11.362
  0
LINE
  8
0
 10
12.842
 11
16.225
 20
11.362
 21
8.904
  0
LINE
  8
0
 10
16.225
 11
20.045
 20
8.904
 21
7.204
  0
LINE
  8
0
 10
20.045
 11
24.134
 20
7.204
 21
6.335
  0
LINE
  8
0
 10
24.134
 11
26.225
 20
6.335
 21
6.335
  0
LINE
  8
0
 10
26.225
 11
26.225
 20
6.335
 21
2.695
  0
LINE
  8
0
 10
26.225
 11
25.355
 20
2.695
 21
1.825
  0
LINE
  8
0
 10
25.355
 11
21.465
 20
1.825
 21
1.825
  0
LINE
  8
0
 10
21.465
 11
21.465
 20
1.825
 21
-1.825
  0
LINE
  8
0
 10
21.465
 11
25.355
 20
-1.825
 21
-1.825
  0
LINE
  8
0
 10
25.355
 11
26.225
 20
-1.825
 21
-2.695
  0
LINE
  8
0
 10
26.225
 11
26.225
 20
-2.695
 21
-6.335
  0
LINE
  8
0
 10
26.225
 11
24.134
 20
-6.335
 21
-6.335
  0
LINE
  8
0
 10
24.134
 11
20.045
 20
-6.335
 21
-7.204
  0
LINE
  8
0
 10
20.045
 11
16.225
 20
-7.204
 21
-8.904
  0
LINE
  8
0
 10
16.225
 11
12.842
 20
-8.904
 21
-11.362
  0
LINE
  8
0
 10
12.842
 11
10.045
 20
-11.362
 21
-14.469
  0
LINE
  8
0
 10
10.045
 11
7.954
 20
-14.469
 21
-18.09
  0
LINE
  8
0
 10
7.954
 11
6.662
 20
-18.09
 21
-22.067
  0
LINE
  8
0
 10
6.662
 11
6.225
 20
-22.067
 21
-26.225
  0
LINE
  8
0
 10
6.225
 11
2.695
 20
-26.225
 21
-26.225
  0
LINE
  8
0
 10
2.695
 11
1.825
 20
-26.225
 21
-25.355
  0
LINE
  8
0
 10
1.825
 11
1.825
 20
-25.355
 21
-21.465
  0
LINE
  8
0
 10
1.825
 11
-1.825
 20
-21.465
 21
-21.465
  0
LINE
  8
0
 10
-1.825
 11
-1.825
 20
-21.465
 21
-25.355
  0
LINE
  8
0
 10
-1.825
 11
-2.695
 20
-25.355
 21
-26.225
  0
LINE
  8
0
 10
-2.695
 11
-6.225
 20
-26.225
 21
-26.225
  0
LINE
  8
0
 10
-6.225
 11
-6.662
 20
-26.225
 21
-22.067
  0
LINE
  8
0
 10
-6.662
 11
-7.954
 20
-22.067
 21
-18.09
  0
LINE
  8
0
 10
-7.954
 11
-10.045
 20
-18.09
 21
-14.469
  0
LINE
  8
0
 10
-10.045
 11
-12.842
 20
-14.469
 21
-11.362
  0
LINE
  8
0
 10
-12.842
 11
-16.225
 20
-11.362
 21
-8.904
  0
LINE
  8
0
 10
-16.225
 11
-20.045
 20
-8.904
 21
-7.204
  0
LINE
  8
0
 10
-20.045
 11
-24.134
 20
-7.204
 21
-6.335
  0
LINE
  8
0
 10
-24.134
 11
-26.225
 20
-6.335
 21
-6.335
  0
LINE
  8
0
 10
-10
 11
-9.781
 20
0
 21
2.079
  0
LINE
  8
0
 10
-9.781
 11
-9.135
 20
2.079
 21
4.067
  0
LINE
  8
0
 10
-9.135
 11
-8.09
 20
4.067
 21
5.878
  0
LINE
  8
0
 10
-8.09
 11
-6.691
 20
5.878
 21
7.431
  0
LINE
  8
0
 10
-6.691
 11
-5
 20
7.431
 21
8.66
  0
LINE
  8
0
 10
-5
 11
-3.09
 20
8.66
 21
9.511
  0
LINE
  8
0
 10
-3.09
 11
-1.045
 20
9.511
 21
9.945
  0
LINE
  8
0
 10
-1.045
 11
1.045
 20
9.945
 21
9.945
  0
LINE
  8
0
 10
1.045
 11
3.09
 20
9.945
 21
9.511
  0
LINE
  8
0
 10
3.09
 11
5
 20
9.511
 21
8.66
  0
LINE
  8
0
 10
5
 11
6.691
 20
8.66
 21
7.431
  0
LINE
  8
0
 10
6.691
 11
8.09
 20
7.431
 21
5.878
  0
LINE
  8
0
 10
8.09
 11
9.135
 20
5.878
 21
4.067
  0
LINE
  8
0
 10
9.135
 11
9.781
 20
4.067
 21
2.079
  0
LINE
  8
0
 10
9.781
 11
10
 20
2.079
 21
0
  0
LINE
  8
0
 10
10
 11
9.781
 20
0
 21
-2.079
  0
LINE
  8
0
 10
9.781
 11
9.135
 20
-2.079
 21
-4.067
  0
LINE
  8
0
 10
9.135
 11
8.09
 20
-4.067
 21
-5.878
  0
LINE
  8
0
 10
8.09
 11
6.691
 20
-5.878
 21
-7.431
  0
LINE
  8
0
 10
6.691
 11
5
 20
-7.431
 21
-8.66
  0
LINE
  8
0
 10
5
 11
3.09
 20
-8.66
 21
-9.511
  0
LINE
  8
0
 10
3.09
 11
1.045
 20
-9.511
 21
-9.945
  0
LINE
  8
0
 10
1.045
 11
-1.045
 20
-9.945
 21
-9.945
  0
LINE
  8
0
 10
-1.045
 11
-3.09
 20
-9.945
 21
-9.511
  0
LINE
  8
0
 10
-3.09
 11
-5
 20
-9.511
 21
-8.66
  0
LINE
  8
0
 10
-5
 11
-6.691
 20
-8.66
 21
-7.431
  0
LINE
  8
0
 10
-6.691
 11
-8.09
 20
-7.431
 21
-5.878
  0
LINE
  8
0
 10
-8.09
 11
-9.135
 20
-5.878
 21
-4.067
  0
LINE
  8
0
 10
-9.135
 11
-9.781
 20
-4.067
 21
-2.079
  0
LINE
  8
0
 10
-9.781
 11
-10
 20
-2.079
 21
0
  0
ENDSEC
  0
SECTION
  2
OBJECTS
  0
DICTIONARY
  0
ENDSEC
  0
EOF
