  0
SECTION
  2
HEADER
  9
$ACADVER
  1
AC1018
  9
$ACADMAINTVER
 70
     0
  9
$DWGCODEPAGE
  3
ASCII
  9
$INSBASE
 10
0.0
 20
0.0
 30
0.0
  9
$EXTMIN
 10
1.000000000000000E+20
 20
1.000000000000000E+20
 30
1.000000000000000E+20
  9
$EXTMAX
 10
-1.000000000000000E+20
 20
-1.000000000000000E+20
 30
-1.000000000000000E+20
  9
$LIMMIN
 10
0.0
 20
0.0
  9
$LIMMAX
 10
12.0
 20
9.0
  9
$ORTHOMODE
 70
     0
  9
$REGENMODE
 70
     1
  9
$FILLMODE
 70
     1
  9
$QTEXTMODE
 70
     0
  9
$MIRRTEXT
 70
     1
  9
$LTSCALE
 40
1.0
  9
$ATTMODE
 70
     1
  9
$TEXTSIZE
 40
0.2
  9
$TRACEWID
 40
0.05
  9
$TEXTSTYLE
  7
Standard
  9
$CLAYER
  8
0
  9
$CELTYPE
  6
ByLayer
  9
$CECOLOR
 62
   256
  9
$CELTSCALE
 40
1.0
  9
$DISPSILH
 70
     0
  9
$DIMSCALE
 40
1.0
  9
$DIMASZ
 40
0.18
  9
$DIMEXO
 40
0.0625
  9
$DIMDLI
 40
0.38
  9
$DIMRND
 40
0.0
  9
$DIMDLE
 40
0.0
  9
$DIMEXE
 40
0.18
  9
$DIMTP
 40
0.0
  9
$DIMTM
 40
0.0
  9
$DIMTXT
 40
0.18
  9
$DIMCEN
 40
0.09
  9
$DIMTSZ
 40
0.0
  9
$DIMTOL
 70
     0
  9
$DIMLIM
 70
     0
  9
$DIMTIH
 70
     1
  9
$DIMTOH
 70
     1
  9
$DIMSE1
 70
     0
  9
$DIMSE2
 70
     0
  9
$DIMTAD
 70
     0
  9
$DIMZIN
 70
     0
  9
$DIMBLK
  1

  9
$DIMASO
 70
     1
  9
$DIMSHO
 70
     1
  9
$DIMPOST
  1

  9
$DIMAPOST
  1

  9
$DIMALT
 70
     0
  9
$DIMALTD
 70
     2
  9
$DIMALTF
 40
25.4
  9
$DIMLFAC
 40
1.0
  9
$DIMTOFL
 70
     0
  9
$DIMTVP
 40
0.0
  9
$DIMTIX
 70
     0
  9
$DIMSOXD
 70
     0
  9
$DIMSAH
 70
     0
  9
$DIMBLK1
  1

  9
$DIMBLK2
  1

  9
$DIMSTYLE
  2
Standard
  9
$DIMCLRD
 70
     0
  9
$DIMCLRE
 70
     0
  9
$DIMCLRT
 70
     0
  9
$DIMTFAC
 40
1.0
  9
$DIMGAP
 40
0.09
  9
$DIMJUST
 70
     0
  9
$DIMSD1
 70
     0
  9
$DIMSD2
 70
     0
  9
$DIMTOLJ
 70
     1
  9
$DIMTZIN
 70
     0
  9
$DIMALTZ
 70
     0
  9
$DIMALTTZ
 70
     0
  9
$DIMUPT
 70
     0
  9
$DIMDEC
 70
     4
  9
$DIMTDEC
 70
     4
  9
$DIMALTU
 70
     2
  9
$DIMALTTD
 70
     2
  9
$DIMTXSTY
  7
Standard
  9
$DIMAUNIT
 70
     0
  9
$DIMADEC
 70
     0
  9
$DIMALTRND
 40
0.0
  9
$DIMAZIN
 70
     0
  9
$DIMDSEP
 70
    46
  9
$DIMATFIT
 70
     3
  9
$DIMFRAC
 70
     0
  9
$DIMLDRBLK
  1

  9
$DIMLUNIT
 70
     2
  9
$DIMLWD
 70
    -2
  9
$DIMLWE
 70
    -2
  9
$DIMTMOVE
 70
     0
  9
$LUNITS
 70
     2
  9
$LUPREC
 70
     4
  9
$SKETCHINC
 40
0.1
  9
$FILLETRAD
 40
0.5
  9
$AUNITS
 70
     0
  9
$AUPREC
 70
     0
  9
$MENU
  1
.
  9
$ELEVATION
 40
0.0
  9
$PELEVATION
 40
0.0
  9
$THICKNESS
 40
0.0
  9
$LIMCHECK
 70
     0
  9
$CHAMFERA
 40
0.5
  9
$CHAMFERB
 40
0.5
  9
$CHAMFERC
 40
1.0
  9
$CHAMFERD
 40
0.0
  9
$SKPOLY
 70
     0
  9
$TDCREATE
 40
2456337.843043982
  9
$TDUCREATE
 40
2456337.801377315
  9
$TDUPDATE
 40
2456337.843043993
  9
$TDUUPDATE
 40
2456337.801377326
  9
$TDINDWG
 40
0.0000000116
  9
$TDUSRTIMER
 40
0.0000000116
  9
$USRTIMER
 70
     1
  9
$ANGBASE
 50
0.0
  9
$ANGDIR
 70
     0
  9
$PDMODE
 70
     0
  9
$PDSIZE
 40
0.0
  9
$PLINEWID
 40
0.0
  9
$SPLFRAME
 70
     0
  9
$SPLINETYPE
 70
     6
  9
$SPLINESEGS
 70
     8
  9
$HANDSEED
  5
A7
  9
$SURFTAB1
 70
     6
  9
$SURFTAB2
 70
     6
  9
$SURFTYPE
 70
     6
  9
$SURFU
 70
     6
  9
$SURFV
 70
     6
  9
$UCSBASE
  2

  9
$UCSNAME
  2

  9
$UCSORG
 10
0.0
 20
0.0
 30
0.0
  9
$UCSXDIR
 10
1.0
 20
0.0
 30
0.0
  9
$UCSYDIR
 10
0.0
 20
1.0
 30
0.0
  9
$UCSORTHOREF
  2

  9
$UCSORTHOVIEW
 70
     0
  9
$UCSORGTOP
 10
0.0
 20
0.0
 30
0.0
  9
$UCSORGBOTTOM
 10
0.0
 20
0.0
 30
0.0
  9
$UCSORGLEFT
 10
0.0
 20
0.0
 30
0.0
  9
$UCSORGRIGHT
 10
0.0
 20
0.0
 30
0.0
  9
$UCSORGFRONT
 10
0.0
 20
0.0
 30
0.0
  9
$UCSORGBACK
 10
0.0
 20
0.0
 30
0.0
  9
$PUCSBASE
  2

  9
$PUCSNAME
  2

  9
$PUCSORG
 10
0.0
 20
0.0
 30
0.0
  9
$PUCSXDIR
 10
1.0
 20
0.0
 30
0.0
  9
$PUCSYDIR
 10
0.0
 20
1.0
 30
0.0
  9
$PUCSORTHOREF
  2

  9
$PUCSORTHOVIEW
 70
     0
  9
$PUCSORGTOP
 10
0.0
 20
0.0
 30
0.0
  9
$PUCSORGBOTTOM
 10
0.0
 20
0.0
 30
0.0
  9
$PUCSORGLEFT
 10
0.0
 20
0.0
 30
0.0
  9
$PUCSORGRIGHT
 10
0.0
 20
0.0
 30
0.0
  9
$PUCSORGFRONT
 10
0.0
 20
0.0
 30
0.0
  9
$PUCSORGBACK
 10
0.0
 20
0.0
 30
0.0
  9
$USERI1
 70
     0
  9
$USERI2
 70
     0
  9
$USERI3
 70
     0
  9
$USERI4
 70
     0
  9
$USERI5
 70
     0
  9
$USERR1
 40
0.0
  9
$USERR2
 40
0.0
  9
$USERR3
 40
0.0
  9
$USERR4
 40
0.0
  9
$USERR5
 40
0.0
  9
$WORLDVIEW
 70
     1
  9
$SHADEDGE
 70
     3
  9
$SHADEDIF
 70
    70
  9
$TILEMODE
 70
     1
  9
$MAXACTVP
 70
    64
  9
$PINSBASE
 10
0.0
 20
0.0
 30
0.0
  9
$PLIMCHECK
 70
     0
  9
$PEXTMIN
 10
1.000000000000000E+20
 20
1.000000000000000E+20
 30
1.000000000000000E+20
  9
$PEXTMAX
 10
-1.000000000000000E+20
 20
-1.000000000000000E+20
 30
-1.000000000000000E+20
  9
$PLIMMIN
 10
0.0
 20
0.0
  9
$PLIMMAX
 10
12.0
 20
9.0
  9
$UNITMODE
 70
     0
  9
$VISRETAIN
 70
     1
  9
$PLINEGEN
 70
     0
  9
$PSLTSCALE
 70
     1
  9
$TREEDEPTH
 70
  3020
  9
$CMLSTYLE
  2
Standard
  9
$CMLJUST
 70
     0
  9
$CMLSCALE
 40
1.0
  9
$PROXYGRAPHICS
 70
     1
  9
$MEASUREMENT
 70
     0
  9
$CELWEIGHT
370
    -1
  9
$ENDCAPS
280
     0
  9
$JOINSTYLE
280
     0
  9
$LWDISPLAY
290
     1
  9
$INSUNITS
 70
     1
  9
$HYPERLINKBASE
  1

  9
$STYLESHEET
  1

  9
$XEDIT
290
     1
  9
$CEPSNTYPE
380
     0
  9
$PSTYLEMODE
290
     1
  9
$FINGERPRINTGUID
  2
{BE587CE8-423F-DF48-E0EF-5EB599207CCD}
  9
$VERSIONGUID
  2
{FAEB1C32-E019-11D5-929B-00C0DF256EC4}
  9
$EXTNAMES
290
     1
  9
$PSVPSCALE
 40
0.0
  9
$OLESTARTUP
290
     0
  9
$SORTENTS
280
   127
  9
$INDEXCTL
280
     0
  9
$HIDETEXT
280
     1
  9
$XCLIPFRAME
290
     0
  9
$HALOGAP
280
     0
  9
$OBSCOLOR
 70
   257
  9
$OBSLTYPE
280
     0
  9
$INTERSECTIONDISPLAY
280
     0
  9
$INTERSECTIONCOLOR
 70
   257
  9
$DIMASSOC
280
     2
  9
$PROJECTNAME
  1

  0
ENDSEC
  0
SECTION
  2
CLASSES
  0
CLASS
  1
ACDBDICTIONARYWDFLT
  2
AcDbDictionaryWithDefault
  3
ObjectDBX Classes
 90
        0
 91
        3
280
     0
281
     0
  0
CLASS
  1
VISUALSTYLE
  2
AcDbVisualStyle
  3
ObjectDBX Classes
 90
     4095
 91
        3
280
     0
281
     0
  0
ENDSEC
  0
SECTION
  2
TABLES
  0
TABLE
  2
VPORT
  5
8
330
0
100
AcDbSymbolTable
 70
     1
  0
VPORT
  5
29
330
8
100
AcDbSymbolTableRecord
100
AcDbViewportTableRecord
  2
*Active
 70
     0
 10
0.0
 20
0.0
 11
1.0
 21
1.0
 12
0.0
 22
0.0
 13
0.0
 23
0.0
 14
0.5
 24
0.5
 15
0.5
 25
0.5
 16
0.0
 26
0.0
 36
1.0
 17
450.0000471840589
 27
300.0006630572949
 37
0.0
 40
600.0013261145898
 41
1.499996842000702
 42
50.0
 43
0.0
 44
0.0
 50
0.0
 51
0.0
 71
     0
 72
   100
 73
     1
 74
     3
 75
     0
 76
     0
 77
     0
 78
     0
281
     0
 65
     1
110
0.0
120
0.0
130
0.0
111
1.0
121
0.0
131
0.0
112
0.0
122
1.0
132
0.0
 79
     0
146
0.0
  0
ENDTAB
  0
TABLE
  2
LTYPE
  5
5
330
0
100
AcDbSymbolTable
 70
     1
  0
LTYPE
  5
14
330
5
100
AcDbSymbolTableRecord
100
AcDbLinetypeTableRecord
  2
ByBlock
 70
     0
  3

 72
    65
 73
     0
 40
0.0
  0
LTYPE
  5
15
330
5
100
AcDbSymbolTableRecord
100
AcDbLinetypeTableRecord
  2
ByLayer
 70
     0
  3

 72
    65
 73
     0
 40
0.0
  0
LTYPE
  5
16
330
5
100
AcDbSymbolTableRecord
100
AcDbLinetypeTableRecord
  2
Continuous
 70
     0
  3
Solid line
 72
    65
 73
     0
 40
0.0
  0
ENDTAB
  0
TABLE
  2
LAYER
  5
2
330
0
100
AcDbSymbolTable
 70
     2
  0
LAYER
  5
10
330
2
100
AcDbSymbolTableRecord
100
AcDbLayerTableRecord
  2
0
 70
     0
 62
     7
  6
Continuous
370
    -3
390
F
  0
LAYER
  5
3B
330
2
100
AcDbSymbolTableRecord
100
AcDbLayerTableRecord
  2
Calque 1
 70
     0
 62
     7
  6
Continuous
370
    -3
390
F
  0
ENDTAB
  0
TABLE
  2
STYLE
  5
3
330
0
100
AcDbSymbolTable
 70
     1
  0
STYLE
  5
11
330
3
100
AcDbSymbolTableRecord
100
AcDbTextStyleTableRecord
  2
Standard
 70
     0
 40
0.0
 41
1.0
 50
0.0
 71
     0
 42
0.2
  3
txt
  4

  0
ENDTAB
  0
TABLE
  2
VIEW
  5
6
330
0
100
AcDbSymbolTable
 70
     0
  0
ENDTAB
  0
TABLE
  2
UCS
  5
7
330
0
100
AcDbSymbolTable
 70
     0
  0
ENDTAB
  0
TABLE
  2
APPID
  5
9
330
0
100
AcDbSymbolTable
 70
     1
  0
APPID
  5
12
330
9
100
AcDbSymbolTableRecord
100
AcDbRegAppTableRecord
  2
ACAD
 70
     0
  0
ENDTAB
  0
TABLE
  2
DIMSTYLE
  5
A
330
0
100
AcDbSymbolTable
 70
     1
100
AcDbDimStyleTable
  0
DIMSTYLE
105
27
330
A
100
AcDbSymbolTableRecord
100
AcDbDimStyleTableRecord
  2
Standard
 70
     0
340
11
  0
ENDTAB
  0
TABLE
  2
BLOCK_RECORD
  5
1
330
0
100
AcDbSymbolTable
 70
     5
  0
BLOCK_RECORD
  5
1F
330
1
100
AcDbSymbolTableRecord
100
AcDbBlockTableRecord
  2
*Model_Space
340
22
  0
BLOCK_RECORD
  5
1B
330
1
100
AcDbSymbolTableRecord
100
AcDbBlockTableRecord
  2
*Paper_Space
340
1E
  0
BLOCK_RECORD
  5
23
330
1
100
AcDbSymbolTableRecord
100
AcDbBlockTableRecord
  2
*Paper_Space0
340
26
  0
BLOCK_RECORD
  5
3C
330
1
100
AcDbSymbolTableRecord
100
AcDbBlockTableRecord
  2
block 2
340
0
102
{BLKREFS
331
3D
102
}
  0
BLOCK_RECORD
  5
42
330
1
100
AcDbSymbolTableRecord
100
AcDbBlockTableRecord
  2
block 3
340
0
102
{BLKREFS
331
43
102
}
  0
BLOCK_RECORD
  5
57
330
1
100
AcDbSymbolTableRecord
100
AcDbBlockTableRecord
  2
block 4
340
0
102
{BLKREFS
331
58
102
}
  0
BLOCK_RECORD
  5
89
330
1
100
AcDbSymbolTableRecord
100
AcDbBlockTableRecord
  2
block 5
340
0
102
{BLKREFS
331
8A
102
}
  0
ENDTAB
  0
ENDSEC
  0
SECTION
  2
BLOCKS
  0
BLOCK
  5
20
330
1F
100
AcDbEntity
  8
0
100
AcDbBlockBegin
  2
*Model_Space
 70
     0
 71
     0
 10
0.0
 20
0.0
 30
0.0
  3
*Model_Space
  1

  0
ENDBLK
  5
21
330
1F
100
AcDbEntity
  8
0
100
AcDbBlockEnd
  0
BLOCK
  5
1C
330
1B
100
AcDbEntity
 67
     1
  8
0
100
AcDbBlockBegin
  2
*Paper_Space
 70
     0
 71
     0
 10
0.0
 20
0.0
 30
0.0
  3
*Paper_Space
  1

  0
ENDBLK
  5
1D
330
1B
100
AcDbEntity
 67
     1
  8
0
100
AcDbBlockEnd
  0
BLOCK
  5
24
330
23
100
AcDbEntity
  8
0
100
AcDbBlockBegin
  2
*Paper_Space0
 70
     0
 71
     0
 10
0.0
 20
0.0
 30
0.0
  3
*Paper_Space0
  1

  0
ENDBLK
  5
25
330
23
100
AcDbEntity
  8
0
100
AcDbBlockEnd
  0
BLOCK
  5
3E
330
3C
100
AcDbEntity
  8
0
100
AcDbBlockBegin
  2
block 2
 70
     0
 71
     0
 10
0.0
 20
0.0
 30
0.0
  3
block 2
  1

  0
SPLINE
  5
40
330
3C
100
AcDbEntity
  8
Calque 1
 62
   179
420
  1709851
370
    35
100
AcDbSpline
210
0.0
220
0.0
230
1.0
 70
    11
 71
     3
 72
    98
 73
    94
 74
     0
 42
0.0000000001
 43
0.0000000001
 40
0.0
 40
0.0
 40
0.0
 40
0.0
 40
1.0
 40
1.0
 40
1.0
 40
2.0
 40
2.0
 40
2.0
 40
3.0
 40
3.0
 40
3.0
 40
4.0
 40
4.0
 40
4.0
 40
5.0
 40
5.0
 40
5.0
 40
6.0
 40
6.0
 40
6.0
 40
7.0
 40
7.0
 40
7.0
 40
8.0
 40
8.0
 40
8.0
 40
9.0
 40
9.0
 40
9.0
 40
10.0
 40
10.0
 40
10.0
 40
11.0
 40
11.0
 40
11.0
 40
12.0
 40
12.0
 40
12.0
 40
13.0
 40
13.0
 40
13.0
 40
14.0
 40
14.0
 40
14.0
 40
15.0
 40
15.0
 40
15.0
 40
16.0
 40
16.0
 40
16.0
 40
17.0
 40
17.0
 40
17.0
 40
18.0
 40
18.0
 40
18.0
 40
19.0
 40
19.0
 40
19.0
 40
20.0
 40
20.0
 40
20.0
 40
21.0
 40
21.0
 40
21.0
 40
22.0
 40
22.0
 40
22.0
 40
23.0
 40
23.0
 40
23.0
 40
24.0
 40
24.0
 40
24.0
 40
25.0
 40
25.0
 40
25.0
 40
26.0
 40
26.0
 40
26.0
 40
27.0
 40
27.0
 40
27.0
 40
28.0
 40
28.0
 40
28.0
 40
29.0
 40
29.0
 40
29.0
 40
30.0
 40
30.0
 40
30.0
 40
31.0
 40
31.0
 40
31.0
 40
31.0
 10
327.8744322522992
 20
451.4302795182767
 30
0.0
 10
326.3573834545808
 20
452.3063678781264
 30
0.0
 10
322.324379764223
 20
453.9410667642792
 30
0.0
 10
318.0183520765466
 20
455.264845577776
 30
0.0
 10
317.8912279692778
 20
455.5819668263964
 30
0.0
 10
317.7434332754613
 20
455.8877192524155
 30
0.0
 10
317.5760015244244
 20
456.1817583460575
 30
0.0
 10
317.5679055446931
 20
456.1970890310804
 30
0.0
 10
317.5618766236167
 20
456.2134532454307
 30
0.0
 10
317.5530916243339
 20
456.2286116755658
 30
0.0
 10
317.536038390432
 20
456.2580672613963
 30
0.0
 10
317.5151955489964
 20
456.2851112787964
 30
0.0
 10
317.4960752564397
 20
456.3133610804117
 30
0.0
 10
317.3303660542817
 20
456.5906914499275
 30
0.0
 10
317.1494984219887
 20
456.8573420163938
 30
0.0
 10
316.9505440264664
 20
457.1102121918282
 30
0.0
 10
317.9575461011186
 20
461.5027118332293
 30
0.0
 10
318.558543404995
 20
465.814768441982
 30
0.0
 10
318.558543404995
 20
467.5671174165693
 30
0.0
 10
318.558543404995
 20
470.8315197971258
 30
0.0
 10
316.4694361245671
 20
473.6008616298634
 30
0.0
 10
313.5579840093137
 20
474.6314626241576
 30
0.0
 10
313.5579840093137
 20
474.6314626241576
 30
0.0
 10
313.5579840093137
 20
468.0671733561374
 30
0.0
 10
313.5579840093137
 20
468.0671733561374
 30
0.0
 10
313.5579840093137
 20
468.0671733561374
 30
0.0
 10
308.5579413782959
 20
468.0671733561374
 30
0.0
 10
308.5579413782959
 20
468.0671733561374
 30
0.0
 10
308.5579413782959
 20
468.0671733561374
 30
0.0
 10
308.5579413782959
 20
474.6309458594939
 30
0.0
 10
308.5579413782959
 20
474.6309458594939
 30
0.0
 10
305.647350537482
 20
473.6001726103118
 30
0.0
 10
303.5585877668299
 20
470.8310030324622
 30
0.0
 10
303.5585877668299
 20
467.5671174165693
 30
0.0
 10
303.5585877668299
 20
465.814768441982
 30
0.0
 10
304.1597573255942
 20
461.5025395783414
 30
0.0
 10
305.1667594002463
 20
457.1098676820524
 30
0.0
 10
304.9678050047241
 20
456.856997506618
 30
0.0
 10
304.7867651175432
 20
456.5903469401517
 30
0.0
 10
304.6212281702731
 20
456.312844315748
 30
0.0
 10
304.6021078777164
 20
456.2847667690206
 30
0.0
 10
304.5812650362808
 20
456.2577227516205
 30
0.0
 10
304.5642118023788
 20
456.22826716579
 30
0.0
 10
304.555599057984
 20
456.2131087356549
 30
0.0
 10
304.5493978820196
 20
456.1967445213046
 30
0.0
 10
304.5413019022884
 20
456.1814138362817
 30
0.0
 10
304.3740424061394
 20
455.8875469975276
 30
0.0
 10
304.2262477123228
 20
455.5819668263964
 30
0.0
 10
304.0992958599419
 20
455.2650178326639
 30
0.0
 10
299.7927514076019
 20
453.9410667642792
 30
0.0
 10
295.7592309525804
 20
452.3060233683506
 30
0.0
 10
294.2420098999741
 20
451.4299350085009
 30
0.0
 10
291.4154794444544
 20
449.7981644554424
 30
0.0
 10
290.0617282804633
 20
446.6049033435877
 30
0.0
 10
290.6241404894506
 20
443.568910944384
 30
0.0
 10
290.6241404894506
 20
443.568910944384
 30
0.0
 10
296.3082072803116
 20
446.8503665588424
 30
0.0
 10
296.3082072803116
 20
446.8503665588424
 30
0.0
 10
296.3082072803116
 20
446.8503665588424
 30
0.0
 10
298.8081424683765
 20
442.5202231868604
 30
0.0
 10
298.8081424683765
 20
442.5202231868604
 30
0.0
 10
298.8081424683765
 20
442.5202231868604
 30
0.0
 10
293.1239034226276
 20
439.2380785528503
 30
0.0
 10
293.1239034226276
 20
439.2380785528503
 30
0.0
 10
295.4720820544543
 20
437.232342638165
 30
0.0
 10
298.9149404988733
 20
436.8075620846083
 30
0.0
 10
301.7419877190566
 20
438.4398494023306
 30
0.0
 10
303.2598977912146
 20
439.316282271956
 30
0.0
 10
306.6948325107903
 20
441.9938122494439
 30
0.0
 10
309.9959251824691
 20
445.0630498420119
 30
0.0
 10
310.3440523109112
 20
445.0134404342973
 30
0.0
 10
310.6970025762143
 20
444.9791617116056
 30
0.0
 10
311.0587378408003
 20
444.9791617116056
 30
0.0
 10
311.4203008504984
 20
444.9791617116056
 30
0.0
 10
311.7729066060258
 20
445.0134404342973
 30
0.0
 10
312.1206892246921
 20
445.062877587124
 30
0.0
 10
315.4217818963709
 20
441.9938122494439
 30
0.0
 10
318.8565443610588
 20
439.316282271956
 30
0.0
 10
320.3744544332167
 20
438.4400216572185
 30
0.0
 10
323.2015016534
 20
436.8079065943841
 30
0.0
 10
326.6441878429311
 20
437.232342638165
 30
0.0
 10
328.9921942198699
 20
439.2380785528503
 30
0.0
 10
328.9921942198699
 20
439.2380785528503
 30
0.0
 10
323.3072661545694
 20
442.5202231868604
 30
0.0
 10
323.3072661545694
 20
442.5202231868604
 30
0.0
 10
323.3072661545694
 20
442.5202231868604
 30
0.0
 10
325.8073735975222
 20
446.8503665588424
 30
0.0
 10
325.8073735975222
 20
446.8503665588424
 30
0.0
 10
325.8073735975222
 20
446.8503665588424
 30
0.0
 10
331.4921294079348
 20
443.5680496699445
 30
0.0
 10
331.4921294079348
 20
443.5680496699445
 30
0.0
 10
332.0550583815858
 20
446.604386578924
 30
0.0
 10
330.7014794724826
 20
449.7979922005545
 30
0.0
 10
327.8744322522992
 20
451.4302795182767
 30
0.0
  0
SPLINE
  5
41
330
3C
100
AcDbEntity
  8
Calque 1
 62
   179
420
  1709851
370
    35
100
AcDbSpline
210
0.0
220
0.0
230
1.0
 70
    11
 71
     3
 72
    14
 73
    10
 74
     0
 42
0.0000000001
 43
0.0000000001
 40
0.0
 40
0.0
 40
0.0
 40
0.0
 40
1.0
 40
1.0
 40
1.0
 40
2.0
 40
2.0
 40
2.0
 40
3.0
 40
3.0
 40
3.0
 40
3.0
 10
330.6198306556189
 20
441.1852478056502
 30
0.0
 10
330.6208641849463
 20
441.1869703545293
 30
0.0
 10
330.6215532044979
 20
441.1886929034082
 30
0.0
 10
330.6225867338253
 20
441.1904154522872
 30
0.0
 10
330.6225867338253
 20
441.1904154522872
 30
0.0
 10
330.6165578127489
 20
441.1802524139012
 30
0.0
 10
330.6165578127489
 20
441.1802524139012
 30
0.0
 10
330.6175913420763
 20
441.1819749627802
 30
0.0
 10
330.6187971262915
 20
441.1835252567713
 30
0.0
 10
330.6198306556189
 20
441.1852478056502
 30
0.0
  0
ENDBLK
  5
3F
330
3C
100
AcDbEntity
  8
0
100
AcDbBlockEnd
  0
BLOCK
  5
44
330
42
100
AcDbEntity
  8
0
100
AcDbBlockBegin
  2
block 3
 70
     0
 71
     0
 10
0.0
 20
0.0
 30
0.0
  3
block 3
  1

  0
SPLINE
  5
46
330
42
100
AcDbEntity
  8
Calque 1
 62
   179
420
  1709851
370
    35
100
AcDbSpline
210
0.0
220
0.0
230
1.0
 70
    11
 71
     3
 72
    17
 73
    13
 74
     0
 42
0.0000000001
 43
0.0000000001
 40
0.0
 40
0.0
 40
0.0
 40
0.0
 40
1.0
 40
1.0
 40
1.0
 40
2.0
 40
2.0
 40
2.0
 40
3.0
 40
3.0
 40
3.0
 40
4.0
 40
4.0
 40
4.0
 40
4.0
 10
153.702519706797
 20
456.0339636522409
 30
0.0
 10
153.702519706797
 20
444.9882912206642
 30
0.0
 10
144.7481938691909
 20
436.033965383058
 30
0.0
 10
133.7025214376141
 20
436.033965383058
 30
0.0
 10
122.6568490060374
 20
436.033965383058
 30
0.0
 10
113.7025231684313
 20
444.9882912206642
 30
0.0
 10
113.7025231684313
 20
456.0339636522409
 30
0.0
 10
113.7025231684313
 20
467.0796360838177
 30
0.0
 10
122.6568490060374
 20
476.0339619214238
 30
0.0
 10
133.7025214376141
 20
476.0339619214238
 30
0.0
 10
144.7481938691909
 20
476.0339619214238
 30
0.0
 10
153.702519706797
 20
467.0796360838177
 30
0.0
 10
153.702519706797
 20
456.0339636522409
 30
0.0
  0
POLYLINE
  5
47
330
42
100
AcDbEntity
  8
Calque 1
 62
   179
420
  1709851
370
    35
100
AcDb2dPolyline
 66
     1
 10
0.0
 20
0.0
 30
0.0
  0
VERTEX
  5
48
330
47
100
AcDbEntity
  8
Calque 1
 62
   179
420
  1709851
370
    35
100
AcDbVertex
100
AcDb2dVertex
 10
133.7025214376141
 20
478.6219193572047
 30
0.0
  0
VERTEX
  5
49
330
47
100
AcDbEntity
  8
Calque 1
 62
   179
420
  1709851
370
    35
100
AcDbVertex
100
AcDb2dVertex
 10
133.7025214376141
 20
433.4460079472772
 30
0.0
  0
SEQEND
  5
4A
330
47
100
AcDbEntity
  8
Calque 1
370
    35
  0
POLYLINE
  5
4B
330
42
100
AcDbEntity
  8
Calque 1
 62
   179
420
  1709851
370
    35
100
AcDb2dPolyline
 66
     1
 10
0.0
 20
0.0
 30
0.0
  0
VERTEX
  5
4C
330
4B
100
AcDbEntity
  8
Calque 1
 62
   179
420
  1709851
370
    35
100
AcDbVertex
100
AcDb2dVertex
 10
114.1403950934682
 20
444.7397274174272
 30
0.0
  0
VERTEX
  5
4D
330
4B
100
AcDbEntity
  8
Calque 1
 62
   179
420
  1709851
370
    35
100
AcDbVertex
100
AcDb2dVertex
 10
153.2639587622085
 20
467.3278553772788
 30
0.0
  0
SEQEND
  5
4E
330
4B
100
AcDbEntity
  8
Calque 1
370
    35
  0
POLYLINE
  5
4F
330
42
100
AcDbEntity
  8
Calque 1
 62
   179
420
  1709851
370
    35
100
AcDb2dPolyline
 66
     1
 10
0.0
 20
0.0
 30
0.0
  0
VERTEX
  5
50
330
4F
100
AcDbEntity
  8
Calque 1
 62
   179
420
  1709851
370
    35
100
AcDbVertex
100
AcDb2dVertex
 10
153.2625807231053
 20
444.7393829076514
 30
0.0
  0
VERTEX
  5
51
330
4F
100
AcDbEntity
  8
Calque 1
 62
   179
420
  1709851
370
    35
100
AcDbVertex
100
AcDb2dVertex
 10
114.139017054365
 20
467.3273386126152
 30
0.0
  0
SEQEND
  5
52
330
4F
100
AcDbEntity
  8
Calque 1
370
    35
  0
POLYLINE
  5
53
330
42
100
AcDbEntity
  8
Calque 1
 62
   179
420
  1709851
370
    35
100
AcDb2dPolyline
 66
     1
 10
0.0
 20
0.0
 30
0.0
  0
VERTEX
  5
54
330
53
100
AcDbEntity
  8
Calque 1
 62
   179
420
  1709851
370
    35
100
AcDbVertex
100
AcDb2dVertex
 10
114.1393615641408
 20
444.7407609467546
 30
0.0
  0
VERTEX
  5
55
330
53
100
AcDbEntity
  8
Calque 1
 62
   179
420
  1709851
370
    35
100
AcDbVertex
100
AcDb2dVertex
 10
153.2629252328811
 20
467.3288889066062
 30
0.0
  0
SEQEND
  5
56
330
53
100
AcDbEntity
  8
Calque 1
370
    35
  0
ENDBLK
  5
45
330
42
100
AcDbEntity
  8
0
100
AcDbBlockEnd
  0
BLOCK
  5
59
330
57
100
AcDbEntity
  8
0
100
AcDbBlockBegin
  2
block 4
 70
     0
 71
     0
 10
0.0
 20
0.0
 30
0.0
  3
block 4
  1

  0
SPLINE
  5
5B
330
57
100
AcDbEntity
  8
Calque 1
 62
   179
420
  1709851
370
    35
100
AcDbSpline
210
0.0
220
0.0
230
1.0
 70
    11
 71
     3
 72
    17
 73
    13
 74
     0
 42
0.0000000001
 43
0.0000000001
 40
0.0
 40
0.0
 40
0.0
 40
0.0
 40
1.0
 40
1.0
 40
1.0
 40
2.0
 40
2.0
 40
2.0
 40
3.0
 40
3.0
 40
3.0
 40
4.0
 40
4.0
 40
4.0
 40
4.0
 10
212.8222920371865
 20
456.0339636522409
 30
0.0
 10
212.8222920371865
 20
444.9882912206642
 30
0.0
 10
203.8679661995804
 20
436.033965383058
 30
0.0
 10
192.8222937680036
 20
436.033965383058
 30
0.0
 10
181.7766213364268
 20
436.033965383058
 30
0.0
 10
172.8222954988207
 20
444.9882912206642
 30
0.0
 10
172.8222954988207
 20
456.0339636522409
 30
0.0
 10
172.8222954988207
 20
467.0796360838177
 30
0.0
 10
181.7766213364268
 20
476.0339619214238
 30
0.0
 10
192.8222937680036
 20
476.0339619214238
 30
0.0
 10
203.8679661995804
 20
476.0339619214238
 30
0.0
 10
212.8222920371865
 20
467.0796360838177
 30
0.0
 10
212.8222920371865
 20
456.0339636522409
 30
0.0
  0
POLYLINE
  5
5C
330
57
100
AcDbEntity
  8
Calque 1
 62
   179
420
  1709851
370
    35
100
AcDb2dPolyline
 66
     1
 10
0.0
 20
0.0
 30
0.0
  0
VERTEX
  5
5D
330
5C
100
AcDbEntity
  8
Calque 1
 62
   179
420
  1709851
370
    35
100
AcDbVertex
100
AcDb2dVertex
 10
192.8222937680036
 20
478.6219193572047
 30
0.0
  0
VERTEX
  5
5E
330
5C
100
AcDbEntity
  8
Calque 1
 62
   179
420
  1709851
370
    35
100
AcDbVertex
100
AcDb2dVertex
 10
192.8222937680036
 20
433.4460079472772
 30
0.0
  0
SEQEND
  5
5F
330
5C
100
AcDbEntity
  8
Calque 1
370
    35
  0
SPLINE
  5
60
330
57
100
AcDbEntity
  8
Calque 1
 62
   179
420
  1709851
370
    35
100
AcDbSpline
210
0.0
220
0.0
230
1.0
 70
    11
 71
     3
 72
    17
 73
    13
 74
     0
 42
0.0000000001
 43
0.0000000001
 40
0.0
 40
0.0
 40
0.0
 40
0.0
 40
1.0
 40
1.0
 40
1.0
 40
2.0
 40
2.0
 40
2.0
 40
3.0
 40
3.0
 40
3.0
 40
4.0
 40
4.0
 40
4.0
 40
4.0
 10
200.3222715870862
 20
456.0339636522409
 30
0.0
 10
200.3222715870862
 20
451.8917503629557
 30
0.0
 10
196.9645070572888
 20
448.5339858331583
 30
0.0
 10
192.8222937680036
 20
448.5339858331583
 30
0.0
 10
188.6802527336063
 20
448.5339858331583
 30
0.0
 10
185.322315948921
 20
451.8917503629557
 30
0.0
 10
185.322315948921
 20
456.0339636522409
 30
0.0
 10
185.322315948921
 20
460.1761769415262
 30
0.0
 10
188.6802527336063
 20
463.5339414713235
 30
0.0
 10
192.8222937680036
 20
463.5339414713235
 30
0.0
 10
196.9645070572888
 20
463.5339414713235
 30
0.0
 10
200.3222715870862
 20
460.1761769415262
 30
0.0
 10
200.3222715870862
 20
456.0339636522409
 30
0.0
  0
SPLINE
  5
61
330
57
100
AcDbEntity
  8
Calque 1
 62
   179
420
  1709851
370
    35
100
AcDbSpline
210
0.0
220
0.0
230
1.0
 70
    11
 71
     3
 72
    17
 73
    13
 74
     0
 42
0.0000000001
 43
0.0000000001
 40
0.0
 40
0.0
 40
0.0
 40
0.0
 40
1.0
 40
1.0
 40
1.0
 40
2.0
 40
2.0
 40
2.0
 40
3.0
 40
3.0
 40
3.0
 40
4.0
 40
4.0
 40
4.0
 40
4.0
 10
200.3220993321983
 20
471.121941538122
 30
0.0
 10
200.3220993321983
 20
466.9797282488368
 30
0.0
 10
196.9643348024009
 20
463.6219637190395
 30
0.0
 10
192.8221215131157
 20
463.6219637190395
 30
0.0
 10
188.6800804787184
 20
463.6219637190395
 30
0.0
 10
185.3221436940331
 20
466.9797282488368
 30
0.0
 10
185.3221436940331
 20
471.121941538122
 30
0.0
 10
185.3221436940331
 20
475.2641548274073
 30
0.0
 10
188.6800804787184
 20
478.6219193572047
 30
0.0
 10
192.8221215131157
 20
478.6219193572047
 30
0.0
 10
196.9643348024009
 20
478.6219193572047
 30
0.0
 10
200.3220993321983
 20
475.2641548274073
 30
0.0
 10
200.3220993321983
 20
471.121941538122
 30
0.0
  0
POLYLINE
  5
62
330
57
100
AcDbEntity
  8
Calque 1
 62
   179
420
  1709851
370
    35
100
AcDb2dPolyline
 66
     1
 10
0.0
 20
0.0
 30
0.0
  0
VERTEX
  5
63
330
62
100
AcDbEntity
  8
Calque 1
 62
   179
420
  1709851
370
    35
100
AcDbVertex
100
AcDb2dVertex
 10
212.3833865828222
 20
444.7398996723151
 30
0.0
  0
VERTEX
  5
64
330
62
100
AcDbEntity
  8
Calque 1
 62
   179
420
  1709851
370
    35
100
AcDbVertex
100
AcDb2dVertex
 10
173.2598229140818
 20
467.3278553772788
 30
0.0
  0
SEQEND
  5
65
330
62
100
AcDbEntity
  8
Calque 1
370
    35
  0
SPLINE
  5
66
330
57
100
AcDbEntity
  8
Calque 1
 62
   179
420
  1709851
370
    35
100
AcDbSpline
210
0.0
220
0.0
230
1.0
 70
    11
 71
     3
 72
    17
 73
    13
 74
     0
 42
0.0000000001
 43
0.0000000001
 40
0.0
 40
0.0
 40
0.0
 40
0.0
 40
1.0
 40
1.0
 40
1.0
 40
2.0
 40
2.0
 40
2.0
 40
3.0
 40
3.0
 40
3.0
 40
4.0
 40
4.0
 40
4.0
 40
4.0
 10
202.1380103604199
 20
441.9948457787713
 30
0.0
 10
198.5509745748302
 20
444.0658662959699
 30
0.0
 10
197.3217636947895
 20
448.6526694509201
 30
0.0
 10
199.392956466876
 20
452.2400497462856
 30
0.0
 10
201.4641492389626
 20
455.8270855318754
 30
0.0
 10
206.0509523939128
 20
457.056296411916
 30
0.0
 10
209.6379881795025
 20
454.9851036398295
 30
0.0
 10
213.225368474868
 20
452.9139108677429
 30
0.0
 10
214.4542348451329
 20
448.3271077127927
 30
0.0
 10
212.3833865828222
 20
444.740071927203
 30
0.0
 10
210.3121938107356
 20
441.1526916318375
 30
0.0
 10
205.7253906557854
 20
439.9238252615726
 30
0.0
 10
202.1380103604199
 20
441.9948457787713
 30
0.0
  0
POLYLINE
  5
67
330
57
100
AcDbEntity
  8
Calque 1
 62
   179
420
  1709851
370
    35
100
AcDb2dPolyline
 66
     1
 10
0.0
 20
0.0
 30
0.0
  0
VERTEX
  5
68
330
67
100
AcDbEntity
  8
Calque 1
 62
   179
420
  1709851
370
    35
100
AcDbVertex
100
AcDb2dVertex
 10
173.2601674238576
 20
444.7397274174272
 30
0.0
  0
VERTEX
  5
69
330
67
100
AcDbEntity
  8
Calque 1
 62
   179
420
  1709851
370
    35
100
AcDbVertex
100
AcDb2dVertex
 10
212.383731092598
 20
467.3278553772788
 30
0.0
  0
SEQEND
  5
6A
330
67
100
AcDbEntity
  8
Calque 1
370
    35
  0
SPLINE
  5
6B
330
57
100
AcDbEntity
  8
Calque 1
 62
   179
420
  1709851
370
    35
100
AcDbSpline
210
0.0
220
0.0
230
1.0
 70
    11
 71
     3
 72
    17
 73
    13
 74
     0
 42
0.0000000001
 43
0.0000000001
 40
0.0
 40
0.0
 40
0.0
 40
0.0
 40
1.0
 40
1.0
 40
1.0
 40
2.0
 40
2.0
 40
2.0
 40
3.0
 40
3.0
 40
3.0
 40
4.0
 40
4.0
 40
4.0
 40
4.0
 10
176.0055658271773
 20
454.9847591300537
 30
0.0
 10
179.5927738676549
 20
457.0559519021403
 30
0.0
 10
184.179749277493
 20
455.8270855318754
 30
0.0
 10
186.2507697946917
 20
452.2397052365098
 30
0.0
 10
188.3217903118903
 20
448.6526694509201
 30
0.0
 10
187.0927516867375
 20
444.0658662959699
 30
0.0
 10
183.5055436462599
 20
441.9946735238834
 30
0.0
 10
179.9183356057823
 20
439.9234807517968
 30
0.0
 10
175.3313601959442
 20
441.1526916318375
 30
0.0
 10
173.2603396787455
 20
444.7397274174272
 30
0.0
 10
171.1893191615469
 20
448.3271077127927
 30
0.0
 10
172.4183577866997
 20
452.9139108677429
 30
0.0
 10
176.0055658271773
 20
454.9847591300537
 30
0.0
  0
POLYLINE
  5
6C
330
57
100
AcDbEntity
  8
Calque 1
 62
   179
420
  1709851
370
    35
100
AcDb2dPolyline
 66
     1
 10
0.0
 20
0.0
 30
0.0
  0
VERTEX
  5
6D
330
6C
100
AcDbEntity
  8
Calque 1
 62
   179
420
  1709851
370
    35
100
AcDbVertex
100
AcDb2dVertex
 10
195.3215399365169
 20
471.6218252228023
 30
0.0
  0
VERTEX
  5
6E
330
6C
100
AcDbEntity
  8
Calque 1
 62
   179
420
  1709851
370
    35
100
AcDbVertex
100
AcDb2dVertex
 10
190.3214973054992
 20
471.6218252228023
 30
0.0
  0
VERTEX
  5
6F
330
6C
100
AcDbEntity
  8
Calque 1
 62
   179
420
  1709851
370
    35
100
AcDbVertex
100
AcDb2dVertex
 10
190.3214973054992
 20
478.6219193572047
 30
0.0
  0
VERTEX
  5
70
330
6C
100
AcDbEntity
  8
Calque 1
 62
   179
420
  1709851
370
    35
100
AcDbVertex
100
AcDb2dVertex
 10
195.3215399365169
 20
478.6219193572047
 30
0.0
  0
VERTEX
  5
71
330
6C
100
AcDbEntity
  8
Calque 1
 62
   179
420
  1709851
370
    35
100
AcDbVertex
100
AcDb2dVertex
 10
195.3215399365169
 20
471.6218252228023
 30
0.0
  0
SEQEND
  5
72
330
6C
100
AcDbEntity
  8
Calque 1
370
    35
  0
POLYLINE
  5
73
330
57
100
AcDbEntity
  8
Calque 1
 62
   179
420
  1709851
370
    35
100
AcDb2dPolyline
 66
     1
 10
0.0
 20
0.0
 30
0.0
  0
VERTEX
  5
74
330
73
100
AcDbEntity
  8
Calque 1
 62
   179
420
  1709851
370
    35
100
AcDbVertex
100
AcDb2dVertex
 10
212.3823530534948
 20
444.7393829076514
 30
0.0
  0
VERTEX
  5
75
330
73
100
AcDbEntity
  8
Calque 1
 62
   179
420
  1709851
370
    35
100
AcDbVertex
100
AcDb2dVertex
 10
173.2587893847545
 20
467.3273386126152
 30
0.0
  0
SEQEND
  5
76
330
73
100
AcDbEntity
  8
Calque 1
370
    35
  0
POLYLINE
  5
77
330
57
100
AcDbEntity
  8
Calque 1
 62
   179
420
  1709851
370
    35
100
AcDb2dPolyline
 66
     1
 10
0.0
 20
0.0
 30
0.0
  0
VERTEX
  5
78
330
77
100
AcDbEntity
  8
Calque 1
 62
   179
420
  1709851
370
    35
100
AcDbVertex
100
AcDb2dVertex
 10
205.0704775719969
 20
446.0750473084132
 30
0.0
  0
VERTEX
  5
79
330
77
100
AcDbEntity
  8
Calque 1
 62
   179
420
  1709851
370
    35
100
AcDbVertex
100
AcDb2dVertex
 10
207.5702405051739
 20
450.4051906803952
 30
0.0
  0
VERTEX
  5
7A
330
77
100
AcDbEntity
  8
Calque 1
 62
   179
420
  1709851
370
    35
100
AcDbVertex
100
AcDb2dVertex
 10
213.6325790298591
 20
446.9051436131941
 30
0.0
  0
VERTEX
  5
7B
330
77
100
AcDbEntity
  8
Calque 1
 62
   179
420
  1709851
370
    35
100
AcDbVertex
100
AcDb2dVertex
 10
211.1324715869063
 20
442.575000241212
 30
0.0
  0
VERTEX
  5
7C
330
77
100
AcDbEntity
  8
Calque 1
 62
   179
420
  1709851
370
    35
100
AcDbVertex
100
AcDb2dVertex
 10
205.0704775719969
 20
446.0750473084132
 30
0.0
  0
SEQEND
  5
7D
330
77
100
AcDbEntity
  8
Calque 1
370
    35
  0
POLYLINE
  5
7E
330
57
100
AcDbEntity
  8
Calque 1
 62
   179
420
  1709851
370
    35
100
AcDb2dPolyline
 66
     1
 10
0.0
 20
0.0
 30
0.0
  0
VERTEX
  5
7F
330
7E
100
AcDbEntity
  8
Calque 1
 62
   179
420
  1709851
370
    35
100
AcDbVertex
100
AcDb2dVertex
 10
173.2591338945303
 20
444.7407609467546
 30
0.0
  0
VERTEX
  5
80
330
7E
100
AcDbEntity
  8
Calque 1
 62
   179
420
  1709851
370
    35
100
AcDbVertex
100
AcDb2dVertex
 10
212.3826975632706
 20
467.3288889066062
 30
0.0
  0
SEQEND
  5
81
330
7E
100
AcDbEntity
  8
Calque 1
370
    35
  0
POLYLINE
  5
82
330
57
100
AcDbEntity
  8
Calque 1
 62
   179
420
  1709851
370
    35
100
AcDb2dPolyline
 66
     1
 10
0.0
 20
0.0
 30
0.0
  0
VERTEX
  5
83
330
82
100
AcDbEntity
  8
Calque 1
 62
   179
420
  1709851
370
    35
100
AcDbVertex
100
AcDb2dVertex
 10
178.0719354624027
 20
450.4051906803952
 30
0.0
  0
VERTEX
  5
84
330
82
100
AcDbEntity
  8
Calque 1
 62
   179
420
  1709851
370
    35
100
AcDbVertex
100
AcDb2dVertex
 10
180.5720429053555
 20
446.0750473084132
 30
0.0
  0
VERTEX
  5
85
330
82
100
AcDbEntity
  8
Calque 1
 62
   179
420
  1709851
370
    35
100
AcDbVertex
100
AcDb2dVertex
 10
174.5097043806703
 20
442.5751724960999
 30
0.0
  0
VERTEX
  5
86
330
82
100
AcDbEntity
  8
Calque 1
 62
   179
420
  1709851
370
    35
100
AcDbVertex
100
AcDb2dVertex
 10
172.0095969377176
 20
446.9049713583062
 30
0.0
  0
VERTEX
  5
87
330
82
100
AcDbEntity
  8
Calque 1
 62
   179
420
  1709851
370
    35
100
AcDbVertex
100
AcDb2dVertex
 10
178.0719354624027
 20
450.4051906803952
 30
0.0
  0
SEQEND
  5
88
330
82
100
AcDbEntity
  8
Calque 1
370
    35
  0
ENDBLK
  5
5A
330
57
100
AcDbEntity
  8
0
100
AcDbBlockEnd
  0
BLOCK
  5
8B
330
89
100
AcDbEntity
  8
0
100
AcDbBlockBegin
  2
block 5
 70
     0
 71
     0
 10
0.0
 20
0.0
 30
0.0
  3
block 5
  1

  0
SPLINE
  5
8D
330
89
100
AcDbEntity
  8
Calque 1
 62
   179
420
  1709851
370
    35
100
AcDbSpline
210
0.0
220
0.0
230
1.0
 70
    11
 71
     3
 72
    17
 73
    13
 74
     0
 42
0.0000000001
 43
0.0000000001
 40
0.0
 40
0.0
 40
0.0
 40
0.0
 40
1.0
 40
1.0
 40
1.0
 40
2.0
 40
2.0
 40
2.0
 40
3.0
 40
3.0
 40
3.0
 40
4.0
 40
4.0
 40
4.0
 40
4.0
 10
259.4480728385521
 20
452.2627873914882
 30
0.0
 10
259.4480728385521
 20
448.120401847315
 30
0.0
 10
256.0903083087547
 20
444.7628095724056
 30
0.0
 10
251.9480950194695
 20
444.7628095724056
 30
0.0
 10
247.8060539850721
 20
444.7628095724056
 30
0.0
 10
244.4481172003869
 20
448.120401847315
 30
0.0
 10
244.4481172003869
 20
452.2627873914882
 30
0.0
 10
244.4481172003869
 20
456.4048284258855
 30
0.0
 10
247.8060539850721
 20
459.7627652105708
 30
0.0
 10
251.9480950194695
 20
459.7627652105708
 30
0.0
 10
256.0903083087547
 20
459.7627652105708
 30
0.0
 10
259.4480728385521
 20
456.4048284258855
 30
0.0
 10
259.4480728385521
 20
452.2627873914882
 30
0.0
  0
SPLINE
  5
8E
330
89
100
AcDbEntity
  8
Calque 1
 62
   179
420
  1709851
370
    35
100
AcDbSpline
210
0.0
220
0.0
230
1.0
 70
    11
 71
     3
 72
    17
 73
    13
 74
     0
 42
0.0000000001
 43
0.0000000001
 40
0.0
 40
0.0
 40
0.0
 40
0.0
 40
1.0
 40
1.0
 40
1.0
 40
2.0
 40
2.0
 40
2.0
 40
3.0
 40
3.0
 40
3.0
 40
4.0
 40
4.0
 40
4.0
 40
4.0
 10
259.4479005836642
 20
467.3505930224814
 30
0.0
 10
259.4479005836642
 20
463.208551988084
 30
0.0
 10
256.0903083087547
 20
452.2627873914882
 30
0.0
 10
251.9480950194695
 20
452.2627873914882
 30
0.0
 10
247.8060539850721
 20
452.2627873914882
 30
0.0
 10
244.447944945499
 20
463.208551988084
 30
0.0
 10
244.447944945499
 20
467.3505930224814
 30
0.0
 10
244.447944945499
 20
471.4929785666545
 30
0.0
 10
247.8058817301842
 20
474.850570841564
 30
0.0
 10
251.9479227645816
 20
474.850570841564
 30
0.0
 10
256.0901360538668
 20
474.850570841564
 30
0.0
 10
259.4479005836642
 20
471.4929785666545
 30
0.0
 10
259.4479005836642
 20
467.3505930224814
 30
0.0
  0
SPLINE
  5
8F
330
89
100
AcDbEntity
  8
Calque 1
 62
   179
420
  1709851
370
    35
100
AcDbSpline
210
0.0
220
0.0
230
1.0
 70
    11
 71
     3
 72
    17
 73
    13
 74
     0
 42
0.0000000001
 43
0.0000000001
 40
0.0
 40
0.0
 40
0.0
 40
0.0
 40
1.0
 40
1.0
 40
1.0
 40
2.0
 40
2.0
 40
2.0
 40
3.0
 40
3.0
 40
3.0
 40
4.0
 40
4.0
 40
4.0
 40
4.0
 10
261.2638116118858
 20
438.2236695180185
 30
0.0
 10
257.6767758262961
 20
440.2945177803293
 30
0.0
 10
249.8769022473829
 20
448.6754070961227
 30
0.0
 10
251.9480950194695
 20
452.2627873914882
 30
0.0
 10
254.0192877915561
 20
455.8498231770779
 30
0.0
 10
265.1767536453787
 20
453.2849478962754
 30
0.0
 10
268.7637894309684
 20
451.2137551241888
 30
0.0
 10
272.3511697263339
 20
449.1425623521023
 30
0.0
 10
273.5800360965988
 20
444.5557591971521
 30
0.0
 10
271.5091878342881
 20
440.9687234115624
 30
0.0
 10
269.4379950622015
 20
437.3813431161969
 30
0.0
 10
264.8511919072513
 20
436.1524767459319
 30
0.0
 10
261.2638116118858
 20
438.2236695180185
 30
0.0
  0
SPLINE
  5
90
330
89
100
AcDbEntity
  8
Calque 1
 62
   179
420
  1709851
370
    35
100
AcDbSpline
210
0.0
220
0.0
230
1.0
 70
    11
 71
     3
 72
    17
 73
    13
 74
     0
 42
0.0000000001
 43
0.0000000001
 40
0.0
 40
0.0
 40
0.0
 40
0.0
 40
1.0
 40
1.0
 40
1.0
 40
2.0
 40
2.0
 40
2.0
 40
3.0
 40
3.0
 40
3.0
 40
4.0
 40
4.0
 40
4.0
 40
4.0
 10
235.1313670786432
 20
451.213410614413
 30
0.0
 10
238.7185751191208
 20
453.2846033864996
 30
0.0
 10
249.8770745022708
 20
455.8501676868537
 30
0.0
 10
251.9480950194695
 20
452.2627873914882
 30
0.0
 10
254.0191155366682
 20
448.6757516058985
 30
0.0
 10
246.2185529382034
 20
440.2945177803293
 30
0.0
 10
242.6313448977258
 20
438.2233250082427
 30
0.0
 10
239.0441368572482
 20
436.1521322361561
 30
0.0
 10
234.4571614474101
 20
437.3813431161969
 30
0.0
 10
232.3861409302114
 20
440.9683789017866
 30
0.0
 10
230.3151204130127
 20
444.5557591971521
 30
0.0
 10
231.5441590381656
 20
449.1425623521023
 30
0.0
 10
235.1313670786432
 20
451.213410614413
 30
0.0
  0
POLYLINE
  5
91
330
89
100
AcDbEntity
  8
Calque 1
 62
   179
420
  1709851
370
    35
100
AcDb2dPolyline
 66
     1
 10
0.0
 20
0.0
 30
0.0
  0
VERTEX
  5
92
330
91
100
AcDbEntity
  8
Calque 1
 62
   179
420
  1709851
370
    35
100
AcDbVertex
100
AcDb2dVertex
 10
254.4401064826911
 20
467.8504767071616
 30
0.0
  0
VERTEX
  5
93
330
91
100
AcDbEntity
  8
Calque 1
 62
   179
420
  1709851
370
    35
100
AcDbVertex
100
AcDb2dVertex
 10
249.4400638516734
 20
467.8504767071616
 30
0.0
  0
VERTEX
  5
94
330
91
100
AcDbEntity
  8
Calque 1
 62
   179
420
  1709851
370
    35
100
AcDbVertex
100
AcDb2dVertex
 10
249.4400638516734
 20
474.850570841564
 30
0.0
  0
VERTEX
  5
95
330
91
100
AcDbEntity
  8
Calque 1
 62
   179
420
  1709851
370
    35
100
AcDbVertex
100
AcDb2dVertex
 10
254.4401064826911
 20
474.850570841564
 30
0.0
  0
VERTEX
  5
96
330
91
100
AcDbEntity
  8
Calque 1
 62
   179
420
  1709851
370
    35
100
AcDbVertex
100
AcDb2dVertex
 10
254.4401064826911
 20
467.8504767071616
 30
0.0
  0
SEQEND
  5
97
330
91
100
AcDbEntity
  8
Calque 1
370
    35
  0
POLYLINE
  5
98
330
89
100
AcDbEntity
  8
Calque 1
 62
   179
420
  1709851
370
    35
100
AcDb2dPolyline
 66
     1
 10
0.0
 20
0.0
 30
0.0
  0
VERTEX
  5
99
330
98
100
AcDbEntity
  8
Calque 1
 62
   179
420
  1709851
370
    35
100
AcDbVertex
100
AcDb2dVertex
 10
264.1890441181711
 20
442.3036987927725
 30
0.0
  0
VERTEX
  5
9A
330
98
100
AcDbEntity
  8
Calque 1
 62
   179
420
  1709851
370
    35
100
AcDbVertex
100
AcDb2dVertex
 10
266.6888070513481
 20
446.6338421647546
 30
0.0
  0
VERTEX
  5
9B
330
98
100
AcDbEntity
  8
Calque 1
 62
   179
420
  1709851
370
    35
100
AcDbVertex
100
AcDb2dVertex
 10
272.7511455760333
 20
443.1339673524413
 30
0.0
  0
VERTEX
  5
9C
330
98
100
AcDbEntity
  8
Calque 1
 62
   179
420
  1709851
370
    35
100
AcDbVertex
100
AcDb2dVertex
 10
270.2510381330804
 20
438.8038239804592
 30
0.0
  0
VERTEX
  5
9D
330
98
100
AcDbEntity
  8
Calque 1
 62
   179
420
  1709851
370
    35
100
AcDbVertex
100
AcDb2dVertex
 10
264.1890441181711
 20
442.3036987927725
 30
0.0
  0
SEQEND
  5
9E
330
98
100
AcDbEntity
  8
Calque 1
370
    35
  0
POLYLINE
  5
9F
330
89
100
AcDbEntity
  8
Calque 1
 62
   179
420
  1709851
370
    35
100
AcDb2dPolyline
 66
     1
 10
0.0
 20
0.0
 30
0.0
  0
VERTEX
  5
A0
330
9F
100
AcDbEntity
  8
Calque 1
 62
   179
420
  1709851
370
    35
100
AcDbVertex
100
AcDb2dVertex
 10
237.1905020085769
 20
446.6338421647546
 30
0.0
  0
VERTEX
  5
A1
330
9F
100
AcDbEntity
  8
Calque 1
 62
   179
420
  1709851
370
    35
100
AcDbVertex
100
AcDb2dVertex
 10
239.6906094515297
 20
442.3036987927725
 30
0.0
  0
VERTEX
  5
A2
330
9F
100
AcDbEntity
  8
Calque 1
 62
   179
420
  1709851
370
    35
100
AcDbVertex
100
AcDb2dVertex
 10
233.6282709268445
 20
438.8038239804592
 30
0.0
  0
VERTEX
  5
A3
330
9F
100
AcDbEntity
  8
Calque 1
 62
   179
420
  1709851
370
    35
100
AcDbVertex
100
AcDb2dVertex
 10
231.1281634838917
 20
443.1336228426655
 30
0.0
  0
VERTEX
  5
A4
330
9F
100
AcDbEntity
  8
Calque 1
 62
   179
420
  1709851
370
    35
100
AcDbVertex
100
AcDb2dVertex
 10
237.1905020085769
 20
446.6338421647546
 30
0.0
  0
SEQEND
  5
A5
330
9F
100
AcDbEntity
  8
Calque 1
370
    35
  0
ENDBLK
  5
8C
330
89
100
AcDbEntity
  8
0
100
AcDbBlockEnd
  0
ENDSEC
  0
SECTION
  2
ENTITIES
  0
INSERT
  5
3D
330
1F
100
AcDbEntity
  8
Calque 1
100
AcDbBlockReference
  2
block 2
 10
0.0
 20
0.0
 30
0.0
  0
INSERT
  5
43
330
1F
100
AcDbEntity
  8
Calque 1
100
AcDbBlockReference
  2
block 3
 10
0.0
 20
0.0
 30
0.0
  0
INSERT
  5
58
330
1F
100
AcDbEntity
  8
Calque 1
100
AcDbBlockReference
  2
block 4
 10
0.0
 20
0.0
 30
0.0
  0
INSERT
  5
8A
330
1F
100
AcDbEntity
  8
Calque 1
100
AcDbBlockReference
  2
block 5
 10
0.0
 20
0.0
 30
0.0
  0
ENDSEC
  0
SECTION
  2
OBJECTS
  0
DICTIONARY
  5
C
330
0
100
AcDbDictionary
281
     1
  3
ACAD_GROUP
350
D
  3
ACAD_LAYOUT
350
1A
  3
ACAD_MLINESTYLE
350
17
  3
ACAD_PLOTSETTINGS
350
19
  3
ACAD_PLOTSTYLENAME
350
E
  3
ACAD_TABLESTYLE
350
A6
  3
ACAD_VISUALSTYLE
350
2A
  0
DICTIONARY
  5
D
102
{ACAD_REACTORS
330
C
102
}
330
C
100
AcDbDictionary
281
     1
  0
DICTIONARY
  5
1A
102
{ACAD_REACTORS
330
C
102
}
330
C
100
AcDbDictionary
281
     1
  3
Layout1
350
1E
  3
Layout2
350
26
  3
Model
350
22
  0
DICTIONARY
  5
17
102
{ACAD_REACTORS
330
C
102
}
330
C
100
AcDbDictionary
281
     1
  3
Standard
350
18
  0
DICTIONARY
  5
19
102
{ACAD_REACTORS
330
C
102
}
330
C
100
AcDbDictionary
281
     1
  0
ACDBDICTIONARYWDFLT
  5
E
102
{ACAD_REACTORS
330
C
102
}
330
C
100
AcDbDictionary
281
     1
  3
Normal
350
F
100
AcDbDictionaryWithDefault
340
F
  0
DICTIONARY
  5
A6
102
{ACAD_REACTORS
330
C
102
}
330
C
100
AcDbDictionary
281
     1
  0
DICTIONARY
  5
2A
102
{ACAD_REACTORS
330
C
102
}
330
C
100
AcDbDictionary
281
     1
  3
2dWireframe
350
2F
  3
3D Hidden
350
31
  3
3dWireframe
350
30
  3
Basic
350
32
  3
Brighten
350
36
  3
ColorChange
350
3A
  3
Conceptual
350
34
  3
Dim
350
35
  3
Facepattern
350
39
  3
Flat
350
2B
  3
FlatWithEdges
350
2C
  3
Gouraud
350
2D
  3
GouraudWithEdges
350
2E
  3
Linepattern
350
38
  3
Realistic
350
33
  3
Thicken
350
37
  0
LAYOUT
  5
1E
102
{ACAD_REACTORS
330
1A
102
}
330
1A
100
AcDbPlotSettings
  1

  2
none_device
  4

  6

 40
0.0
 41
0.0
 42
0.0
 43
0.0
 44
0.0
 45
0.0
 46
0.0
 47
0.0
 48
0.0
 49
0.0
140
0.0
141
0.0
142
1.0
143
1.0
 70
   688
 72
     0
 73
     0
 74
     5
  7

 75
    16
 76
     0
 77
     2
 78
   300
147
1.0
148
0.0
149
0.0
100
AcDbLayout
  1
Layout1
 70
     1
 71
     1
 10
0.0
 20
0.0
 11
12.0
 21
9.0
 12
0.0
 22
0.0
 32
0.0
 14
1.000000000000000E+20
 24
1.000000000000000E+20
 34
1.000000000000000E+20
 15
-1.000000000000000E+20
 25
-1.000000000000000E+20
 35
-1.000000000000000E+20
146
0.0
 13
0.0
 23
0.0
 33
0.0
 16
1.0
 26
0.0
 36
0.0
 17
0.0
 27
1.0
 37
0.0
 76
     0
330
1B
  0
LAYOUT
  5
26
102
{ACAD_REACTORS
330
1A
102
}
330
1A
100
AcDbPlotSettings
  1

  2
none_device
  4

  6

 40
0.0
 41
0.0
 42
0.0
 43
0.0
 44
0.0
 45
0.0
 46
0.0
 47
0.0
 48
0.0
 49
0.0
140
0.0
141
0.0
142
1.0
143
1.0
 70
   688
 72
     0
 73
     0
 74
     5
  7

 75
    16
 76
     0
 77
     2
 78
   300
147
1.0
148
0.0
149
0.0
100
AcDbLayout
  1
Layout2
 70
     1
 71
     2
 10
0.0
 20
0.0
 11
0.0
 21
0.0
 12
0.0
 22
0.0
 32
0.0
 14
0.0
 24
0.0
 34
0.0
 15
0.0
 25
0.0
 35
0.0
146
0.0
 13
0.0
 23
0.0
 33
0.0
 16
1.0
 26
0.0
 36
0.0
 17
0.0
 27
1.0
 37
0.0
 76
     0
330
23
  0
LAYOUT
  5
22
102
{ACAD_REACTORS
330
1A
102
}
330
1A
100
AcDbPlotSettings
  1

  2
none_device
  4

  6

 40
0.0
 41
0.0
 42
0.0
 43
0.0
 44
0.0
 45
0.0
 46
0.0
 47
0.0
 48
0.0
 49
0.0
140
0.0
141
0.0
142
1.0
143
1.0
 70
  1712
 72
     0
 73
     0
 74
     0
  7

 75
     0
 76
     0
 77
     2
 78
   300
147
1.0
148
0.0
149
0.0
100
AcDbLayout
  1
Model
 70
     1
 71
     0
 10
0.0
 20
0.0
 11
12.0
 21
9.0
 12
0.0
 22
0.0
 32
0.0
 14
1.000000000000000E+20
 24
1.000000000000000E+20
 34
1.000000000000000E+20
 15
-1.000000000000000E+20
 25
-1.000000000000000E+20
 35
-1.000000000000000E+20
146
0.0
 13
0.0
 23
0.0
 33
0.0
 16
1.0
 26
0.0
 36
0.0
 17
0.0
 27
1.0
 37
0.0
 76
     0
330
1F
331
29
  0
MLINESTYLE
  5
18
102
{ACAD_REACTORS
330
17
102
}
330
17
100
AcDbMlineStyle
  2
Standard
 70
     0
  3

 62
   256
 51
90.0
 52
90.0
 71
     2
 49
0.5
 62
   256
  6
BYLAYER
 49
-0.5
 62
   256
  6
BYLAYER
  0
ACDBPLACEHOLDER
  5
F
102
{ACAD_REACTORS
330
E
102
}
330
E
  0
VISUALSTYLE
  5
2F
102
{ACAD_REACTORS
330
2A
102
}
330
2A
100
AcDbVisualStyle
  2
2dWireframe
 70
     4
 71
     0
 72
     2
 73
     0
 90
        0
 40
-0.6
 41
-30.0
 62
     5
 63
     7
421
 16777215
 74
     1
 91
        4
 64
     7
 65
   257
 75
     1
175
     1
 42
1.0
 92
        0
 66
   257
 43
1.0
 76
     1
 77
     6
 78
     2
 67
     7
 79
     5
170
     0
171
     0
290
     0
174
     0
 93
        1
 44
0.0
173
     0
291
     0
 45
0.0
1001
ACAD
1000
AcDbSavedByObjectVersion
1070
     0
  0
VISUALSTYLE
  5
31
102
{ACAD_REACTORS
330
2A
102
}
330
2A
100
AcDbVisualStyle
  2
3D Hidden
 70
     6
 71
     1
 72
     2
 73
     2
 90
        0
 40
-0.6
 41
-30.0
 62
     5
 63
     7
421
 16777215
 74
     2
 91
        2
 64
     7
 65
   257
 75
     2
175
     1
 42
40.0
 92
        0
 66
   257
 43
1.0
 76
     1
 77
     6
 78
     2
 67
     7
 79
     3
170
     0
171
     0
290
     0
174
     0
 93
        1
 44
0.0
173
     0
291
     0
 45
0.0
1001
ACAD
1000
AcDbSavedByObjectVersion
1070
     0
  0
VISUALSTYLE
  5
30
102
{ACAD_REACTORS
330
2A
102
}
330
2A
100
AcDbVisualStyle
  2
3dWireframe
 70
     5
 71
     0
 72
     2
 73
     0
 90
        0
 40
-0.6
 41
-30.0
 62
     5
 63
     7
421
 16777215
 74
     1
 91
        4
 64
     7
 65
   257
 75
     1
175
     1
 42
1.0
 92
        0
 66
   257
 43
1.0
 76
     1
 77
     6
 78
     2
 67
     7
 79
     5
170
     0
171
     0
290
     0
174
     0
 93
        1
 44
0.0
173
     0
291
     0
 45
0.0
1001
ACAD
1000
AcDbSavedByObjectVersion
1070
     0
  0
VISUALSTYLE
  5
32
102
{ACAD_REACTORS
330
2A
102
}
330
2A
100
AcDbVisualStyle
  2
Basic
 70
     7
 71
     1
 72
     0
 73
     1
 90
        0
 40
-0.6
 41
-30.0
 62
     5
 63
     7
421
 16777215
 74
     0
 91
        4
 64
     7
 65
   257
 75
     1
175
     1
 42
1.0
 92
        8
 66
     7
 43
1.0
 76
     1
 77
     6
 78
     2
 67
     7
 79
     5
170
     0
171
     0
290
     0
174
     0
 93
        1
 44
0.0
173
     0
291
     1
 45
0.0
1001
ACAD
1000
AcDbSavedByObjectVersion
1070
     0
  0
VISUALSTYLE
  5
36
102
{ACAD_REACTORS
330
2A
102
}
330
2A
100
AcDbVisualStyle
  2
Brighten
 70
    12
 71
     2
 72
     2
 73
     0
 90
        0
 40
-0.6
 41
-30.0
 62
     5
 63
     7
421
 16777215
 74
     1
 91
        4
 64
     7
 65
   257
 75
     1
175
     1
 42
1.0
 92
        8
 66
     7
 43
1.0
 76
     1
 77
     6
 78
     2
 67
     7
 79
     5
170
     0
171
     0
290
     0
174
     0
 93
        1
 44
50.0
173
     0
291
     1
 45
0.0
1001
ACAD
1000
AcDbSavedByObjectVersion
1070
     0
  0
VISUALSTYLE
  5
3A
102
{ACAD_REACTORS
330
2A
102
}
330
2A
100
AcDbVisualStyle
  2
ColorChange
 70
    16
 71
     2
 72
     2
 73
     3
 90
        0
 40
-0.6
 41
-30.0
 62
     5
 63
     8
421
  8421504
 74
     1
 91
        4
 64
     7
 65
   257
 75
     1
175
     1
 42
1.0
 92
        8
 66
     8
424
  8421504
 43
1.0
 76
     1
 77
     6
 78
     2
 67
     7
 79
     5
170
     0
171
     0
290
     0
174
     0
 93
        1
 44
0.0
173
     0
291
     1
 45
0.0
1001
ACAD
1000
AcDbSavedByObjectVersion
1070
     0
  0
VISUALSTYLE
  5
34
102
{ACAD_REACTORS
330
2A
102
}
330
2A
100
AcDbVisualStyle
  2
Conceptual
 70
     9
 71
     3
 72
     2
 73
     0
 90
        0
 40
-0.6
 41
-30.0
 62
     5
 63
     7
421
 16777215
 74
     2
 91
        2
 64
     7
 65
   257
 75
     1
175
     1
 42
40.0
 92
        8
 66
     7
 43
1.0
 76
     1
 77
     6
 78
     2
 67
     7
 79
     3
170
     0
171
     0
290
     0
174
     0
 93
        1
 44
0.0
173
     0
291
     0
 45
0.0
1001
ACAD
1000
AcDbSavedByObjectVersion
1070
     0
  0
VISUALSTYLE
  5
35
102
{ACAD_REACTORS
330
2A
102
}
330
2A
100
AcDbVisualStyle
  2
Dim
 70
    11
 71
     2
 72
     2
 73
     0
 90
        0
 40
-0.6
 41
-30.0
 62
     5
 63
     7
421
 16777215
 74
     1
 91
        4
 64
     7
 65
   257
 75
     1
175
     1
 42
1.0
 92
        8
 66
     7
 43
1.0
 76
     1
 77
     6
 78
     2
 67
     7
 79
     5
170
     0
171
     0
290
     0
174
     0
 93
        1
 44
-50.0
173
     0
291
     1
 45
0.0
1001
ACAD
1000
AcDbSavedByObjectVersion
1070
     0
  0
VISUALSTYLE
  5
39
102
{ACAD_REACTORS
330
2A
102
}
330
2A
100
AcDbVisualStyle
  2
Facepattern
 70
    15
 71
     2
 72
     2
 73
     0
 90
        0
 40
-0.6
 41
-30.0
 62
     5
 63
     7
421
 16777215
 74
     1
 91
        4
 64
     7
 65
   257
 75
     1
175
     1
 42
1.0
 92
        8
 66
     7
 43
1.0
 76
     1
 77
     6
 78
     2
 67
     7
 79
     5
170
     0
171
     0
290
     0
174
     0
 93
        1
 44
0.0
173
     0
291
     1
 45
0.0
1001
ACAD
1000
AcDbSavedByObjectVersion
1070
     0
  0
VISUALSTYLE
  5
2B
102
{ACAD_REACTORS
330
2A
102
}
330
2A
100
AcDbVisualStyle
  2
Flat
 70
     0
 71
     2
 72
     1
 73
     1
 90
        2
 40
-0.6
 41
30.0
 62
     5
 63
     7
421
 16777215
 74
     0
 91
        4
 64
     7
 65
   257
 75
     1
175
     1
 42
1.0
 92
        8
 66
     7
 43
1.0
 76
     1
 77
     6
 78
     2
 67
     7
 79
     5
170
     0
171
     0
290
     0
174
     0
 93
       13
 44
0.0
173
     0
291
     1
 45
0.0
1001
ACAD
1000
AcDbSavedByObjectVersion
1070
     0
  0
VISUALSTYLE
  5
2C
102
{ACAD_REACTORS
330
2A
102
}
330
2A
100
AcDbVisualStyle
  2
FlatWithEdges
 70
     1
 71
     2
 72
     1
 73
     1
 90
        2
 40
-0.6
 41
30.0
 62
     5
 63
     7
421
 16777215
 74
     1
 91
        4
 64
     7
 65
   257
 75
     1
175
     1
 42
1.0
 92
        0
 66
   257
 43
1.0
 76
     1
 77
     6
 78
     2
 67
     7
 79
     5
170
     0
171
     0
290
     0
174
     0
 93
       13
 44
0.0
173
     0
291
     1
 45
0.0
1001
ACAD
1000
AcDbSavedByObjectVersion
1070
     0
  0
VISUALSTYLE
  5
2D
102
{ACAD_REACTORS
330
2A
102
}
330
2A
100
AcDbVisualStyle
  2
Gouraud
 70
     2
 71
     2
 72
     2
 73
     1
 90
        2
 40
-0.6
 41
30.0
 62
     5
 63
     7
421
 16777215
 74
     0
 91
        4
 64
     7
 65
   257
 75
     1
175
     1
 42
1.0
 92
        0
 66
     7
 43
1.0
 76
     1
 77
     6
 78
     2
 67
     7
 79
     5
170
     0
171
     0
290
     0
174
     0
 93
       13
 44
0.0
173
     0
291
     1
 45
0.0
1001
ACAD
1000
AcDbSavedByObjectVersion
1070
     0
  0
VISUALSTYLE
  5
2E
102
{ACAD_REACTORS
330
2A
102
}
330
2A
100
AcDbVisualStyle
  2
GouraudWithEdges
 70
     3
 71
     2
 72
     2
 73
     1
 90
        2
 40
-0.6
 41
30.0
 62
     5
 63
     7
421
 16777215
 74
     1
 91
        4
 64
     7
 65
   257
 75
     1
175
     1
 42
1.0
 92
        0
 66
   257
 43
1.0
 76
     1
 77
     6
 78
     2
 67
     7
 79
     5
170
     0
171
     0
290
     0
174
     0
 93
       13
 44
0.0
173
     0
291
     1
 45
0.0
1001
ACAD
1000
AcDbSavedByObjectVersion
1070
     0
  0
VISUALSTYLE
  5
38
102
{ACAD_REACTORS
330
2A
102
}
330
2A
100
AcDbVisualStyle
  2
Linepattern
 70
    14
 71
     2
 72
     2
 73
     0
 90
        0
 40
-0.6
 41
-30.0
 62
     5
 63
     7
421
 16777215
 74
     1
 91
        4
 64
     7
 65
   257
 75
     7
175
     7
 42
1.0
 92
        8
 66
     7
 43
1.0
 76
     1
 77
     6
 78
     2
 67
     7
 79
     5
170
     0
171
     0
290
     0
174
     0
 93
        1
 44
0.0
173
     0
291
     1
 45
0.0
1001
ACAD
1000
AcDbSavedByObjectVersion
1070
     0
  0
VISUALSTYLE
  5
33
102
{ACAD_REACTORS
330
2A
102
}
330
2A
100
AcDbVisualStyle
  2
Realistic
 70
     8
 71
     2
 72
     2
 73
     0
 90
        0
 40
-0.6
 41
-30.0
 62
     5
 63
     7
421
 16777215
 74
     1
 91
        0
 64
     7
 65
   257
 75
     1
175
     1
 42
1.0
 92
        8
 66
     8
424
  7895160
 43
1.0
 76
     1
 77
     6
 78
     2
 67
     7
 79
     5
170
     0
171
     0
290
     0
174
     0
 93
       13
 44
0.0
173
     0
291
     0
 45
0.0
1001
ACAD
1000
AcDbSavedByObjectVersion
1070
     0
  0
VISUALSTYLE
  5
37
102
{ACAD_REACTORS
330
2A
102
}
330
2A
100
AcDbVisualStyle
  2
Thicken
 70
    13
 71
     2
 72
     2
 73
     0
 90
        0
 40
-0.6
 41
-30.0
 62
     5
 63
     7
421
 16777215
 74
     1
 91
        4
 64
     7
 65
   257
 75
     1
175
     1
 42
1.0
 92
       12
 66
     7
 43
1.0
 76
     1
 77
     6
 78
     2
 67
     7
 79
     5
170
     0
171
     0
290
     0
174
     0
 93
        1
 44
0.0
173
     0
291
     1
 45
0.0
1001
ACAD
1000
AcDbSavedByObjectVersion
1070
     0
  0
ENDSEC
  0
EOF
