  0
SECTION
  2
HEADER
  9
$ACADVER
  1
AC1024
  9
$ACADMAINTVER
 70
     6
  9
$DWGCODEPAGE
  3
UNDEFINED
  9
$INSBASE
 10
0.0
 20
0.0
 30
0.0
  9
$EXTMIN
 10
1.000000000000000E+20
 20
1.000000000000000E+20
 30
1.000000000000000E+20
  9
$EXTMAX
 10
-1.000000000000000E+20
 20
-1.000000000000000E+20
 30
-1.000000000000000E+20
  9
$LIMMIN
 10
0.0
 20
0.0
  9
$LIMMAX
 10
12.0
 20
9.0
  9
$ORTHOMODE
 70
     0
  9
$REGENMODE
 70
     1
  9
$FILLMODE
 70
     1
  9
$QTEXTMODE
 70
     0
  9
$MIRRTEXT
 70
     1
  9
$LTSCALE
 40
1.0
  9
$ATTMODE
 70
     1
  9
$TEXTSIZE
 40
0.2
  9
$TRACEWID
 40
0.05
  9
$TEXTSTYLE
  7
Standard
  9
$CLAYER
  8
0
  9
$CELTYPE
  6
ByLayer
  9
$CECOLOR
 62
   256
  9
$CELTSCALE
 40
1.0
  9
$DISPSILH
 70
     0
  9
$DIMSCALE
 40
1.0
  9
$DIMASZ
 40
0.18
  9
$DIMEXO
 40
0.0625
  9
$DIMDLI
 40
0.38
  9
$DIMRND
 40
0.0
  9
$DIMDLE
 40
0.0
  9
$DIMEXE
 40
0.18
  9
$DIMTP
 40
0.0
  9
$DIMTM
 40
0.0
  9
$DIMTXT
 40
0.18
  9
$DIMCEN
 40
0.09
  9
$DIMTSZ
 40
0.0
  9
$DIMTOL
 70
     0
  9
$DIMLIM
 70
     0
  9
$DIMTIH
 70
     1
  9
$DIMTOH
 70
     1
  9
$DIMSE1
 70
     0
  9
$DIMSE2
 70
     0
  9
$DIMTAD
 70
     0
  9
$DIMZIN
 70
     0
  9
$DIMBLK
  1

  9
$DIMASO
 70
     1
  9
$DIMSHO
 70
     1
  9
$DIMPOST
  1

  9
$DIMAPOST
  1

  9
$DIMALT
 70
     0
  9
$DIMALTD
 70
     2
  9
$DIMALTF
 40
25.4
  9
$DIMLFAC
 40
1.0
  9
$DIMTOFL
 70
     0
  9
$DIMTVP
 40
0.0
  9
$DIMTIX
 70
     0
  9
$DIMSOXD
 70
     0
  9
$DIMSAH
 70
     0
  9
$DIMBLK1
  1

  9
$DIMBLK2
  1

  9
$DIMSTYLE
  2
Standard
  9
$DIMCLRD
 70
     0
  9
$DIMCLRE
 70
     0
  9
$DIMCLRT
 70
     0
  9
$DIMTFAC
 40
1.0
  9
$DIMGAP
 40
0.09
  9
$DIMJUST
 70
     0
  9
$DIMSD1
 70
     0
  9
$DIMSD2
 70
     0
  9
$DIMTOLJ
 70
     1
  9
$DIMTZIN
 70
     0
  9
$DIMALTZ
 70
     0
  9
$DIMALTTZ
 70
     0
  9
$DIMUPT
 70
     0
  9
$DIMDEC
 70
     4
  9
$DIMTDEC
 70
     4
  9
$DIMALTU
 70
     2
  9
$DIMALTTD
 70
     2
  9
$DIMTXSTY
  7
Standard
  9
$DIMAUNIT
 70
     0
  9
$DIMADEC
 70
     0
  9
$DIMALTRND
 40
0.0
  9
$DIMAZIN
 70
     0
  9
$DIMDSEP
 70
    46
  9
$DIMATFIT
 70
     3
  9
$DIMFRAC
 70
     0
  9
$DIMLDRBLK
  1

  9
$DIMLUNIT
 70
     2
  9
$DIMLWD
 70
    -2
  9
$DIMLWE
 70
    -2
  9
$DIMTMOVE
 70
     0
  9
$DIMFXL
 40
1.0
  9
$DIMFXLON
 70
     0
  9
$DIMJOGANG
 40
0.7853981633974483
  9
$DIMTFILL
 70
     0
  9
$DIMTFILLCLR
 70
     0
  9
$DIMARCSYM
 70
     0
  9
$DIMLTYPE
  6

  9
$DIMLTEX1
  6

  9
$DIMLTEX2
  6

  9
$DIMTXTDIRECTION
 70
     0
  9
$LUNITS
 70
     2
  9
$LUPREC
 70
     4
  9
$SKETCHINC
 40
0.1
  9
$FILLETRAD
 40
0.5
  9
$AUNITS
 70
     0
  9
$AUPREC
 70
     0
  9
$MENU
  1
.
  9
$ELEVATION
 40
0.0
  9
$PELEVATION
 40
0.0
  9
$THICKNESS
 40
0.0
  9
$LIMCHECK
 70
     0
  9
$CHAMFERA
 40
0.5
  9
$CHAMFERB
 40
0.5
  9
$CHAMFERC
 40
1.0
  9
$CHAMFERD
 40
0.0
  9
$SKPOLY
 70
     0
  9
$TDCREATE
 40
2457868.613657407
  9
$TDUCREATE
 40
2457868.571990741
  9
$TDUPDATE
 40
2457868.613657407
  9
$TDUUPDATE
 40
2457868.571990741
  9
$TDINDWG
 40
0.0000000116
  9
$TDUSRTIMER
 40
0.0000000116
  9
$USRTIMER
 70
     1
  9
$ANGBASE
 50
0.0
  9
$ANGDIR
 70
     0
  9
$PDMODE
 70
     0
  9
$PDSIZE
 40
0.0
  9
$PLINEWID
 40
0.0
  9
$SPLFRAME
 70
     0
  9
$SPLINETYPE
 70
     6
  9
$SPLINESEGS
 70
     8
  9
$HANDSEED
  5
77
  9
$SURFTAB1
 70
     6
  9
$SURFTAB2
 70
     6
  9
$SURFTYPE
 70
     6
  9
$SURFU
 70
     6
  9
$SURFV
 70
     6
  9
$UCSBASE
  2

  9
$UCSNAME
  2

  9
$UCSORG
 10
0.0
 20
0.0
 30
0.0
  9
$UCSXDIR
 10
1.0
 20
0.0
 30
0.0
  9
$UCSYDIR
 10
0.0
 20
1.0
 30
0.0
  9
$UCSORTHOREF
  2

  9
$UCSORTHOVIEW
 70
     0
  9
$UCSORGTOP
 10
0.0
 20
0.0
 30
0.0
  9
$UCSORGBOTTOM
 10
0.0
 20
0.0
 30
0.0
  9
$UCSORGLEFT
 10
0.0
 20
0.0
 30
0.0
  9
$UCSORGRIGHT
 10
0.0
 20
0.0
 30
0.0
  9
$UCSORGFRONT
 10
0.0
 20
0.0
 30
0.0
  9
$UCSORGBACK
 10
0.0
 20
0.0
 30
0.0
  9
$PUCSBASE
  2

  9
$PUCSNAME
  2

  9
$PUCSORG
 10
0.0
 20
0.0
 30
0.0
  9
$PUCSXDIR
 10
1.0
 20
0.0
 30
0.0
  9
$PUCSYDIR
 10
0.0
 20
1.0
 30
0.0
  9
$PUCSORTHOREF
  2

  9
$PUCSORTHOVIEW
 70
     0
  9
$PUCSORGTOP
 10
0.0
 20
0.0
 30
0.0
  9
$PUCSORGBOTTOM
 10
0.0
 20
0.0
 30
0.0
  9
$PUCSORGLEFT
 10
0.0
 20
0.0
 30
0.0
  9
$PUCSORGRIGHT
 10
0.0
 20
0.0
 30
0.0
  9
$PUCSORGFRONT
 10
0.0
 20
0.0
 30
0.0
  9
$PUCSORGBACK
 10
0.0
 20
0.0
 30
0.0
  9
$USERI1
 70
     0
  9
$USERI2
 70
     0
  9
$USERI3
 70
     0
  9
$USERI4
 70
     0
  9
$USERI5
 70
     0
  9
$USERR1
 40
0.0
  9
$USERR2
 40
0.0
  9
$USERR3
 40
0.0
  9
$USERR4
 40
0.0
  9
$USERR5
 40
0.0
  9
$WORLDVIEW
 70
     1
  9
$SHADEDGE
 70
     3
  9
$SHADEDIF
 70
    70
  9
$TILEMODE
 70
     1
  9
$MAXACTVP
 70
    64
  9
$PINSBASE
 10
0.0
 20
0.0
 30
0.0
  9
$PLIMCHECK
 70
     0
  9
$PEXTMIN
 10
1.000000000000000E+20
 20
1.000000000000000E+20
 30
1.000000000000000E+20
  9
$PEXTMAX
 10
-1.000000000000000E+20
 20
-1.000000000000000E+20
 30
-1.000000000000000E+20
  9
$PLIMMIN
 10
0.0
 20
0.0
  9
$PLIMMAX
 10
12.0
 20
9.0
  9
$UNITMODE
 70
     0
  9
$VISRETAIN
 70
     1
  9
$PLINEGEN
 70
     0
  9
$PSLTSCALE
 70
     1
  9
$TREEDEPTH
 70
  3020
  9
$CMLSTYLE
  2
Standard
  9
$CMLJUST
 70
     0
  9
$CMLSCALE
 40
1.0
  9
$PROXYGRAPHICS
 70
     1
  9
$MEASUREMENT
 70
     0
  9
$CELWEIGHT
370
    -1
  9
$ENDCAPS
280
     0
  9
$JOINSTYLE
280
     0
  9
$LWDISPLAY
290
     1
  9
$INSUNITS
 70
     1
  9
$HYPERLINKBASE
  1

  9
$STYLESHEET
  1

  9
$XEDIT
290
     1
  9
$CEPSNTYPE
380
     0
  9
$PSTYLEMODE
290
     1
  9
$FINGERPRINTGUID
  2
{1868745E-A75E-7A1B-2639-57052F9EA6F0}
  9
$VERSIONGUID
  2
{FAEB1C32-E019-11D5-929B-00C0DF256EC4}
  9
$EXTNAMES
290
     1
  9
$PSVPSCALE
 40
0.0
  9
$OLESTARTUP
290
     0
  9
$SORTENTS
280
   127
  9
$INDEXCTL
280
     0
  9
$HIDETEXT
280
     1
  9
$XCLIPFRAME
280
     2
  9
$HALOGAP
280
     0
  9
$OBSCOLOR
 70
   257
  9
$OBSLTYPE
280
     0
  9
$INTERSECTIONDISPLAY
280
     0
  9
$INTERSECTIONCOLOR
 70
   257
  9
$DIMASSOC
280
     2
  9
$PROJECTNAME
  1

  9
$CAMERADISPLAY
290
     0
  9
$LENSLENGTH
 40
50.0
  9
$CAMERAHEIGHT
 40
0.0
  9
$STEPSPERSEC
 40
2.0
  9
$STEPSIZE
 40
6.0
  9
$3DDWFPREC
 40
2.0
  9
$PSOLWIDTH
 40
0.25
  9
$PSOLHEIGHT
 40
4.0
  9
$LOFTANG1
 40
1.570796326794897
  9
$LOFTANG2
 40
1.570796326794897
  9
$LOFTMAG1
 40
0.0
  9
$LOFTMAG2
 40
0.0
  9
$LOFTPARAM
 70
     7
  9
$LOFTNORMALS
280
     1
  9
$LATITUDE
 40
37.795
  9
$LONGITUDE
 40
-122.394
  9
$NORTHDIRECTION
 40
0.0
  9
$TIMEZONE
 70
 -8000
  9
$LIGHTGLYPHDISPLAY
280
     1
  9
$TILEMODELIGHTSYNCH
280
     1
  9
$CMATERIAL
347
3C
  9
$SOLIDHIST
280
     1
  9
$SHOWHIST
280
     1
  9
$DWFFRAME
280
     2
  9
$DGNFRAME
280
     2
  9
$REALWORLDSCALE
290
     1
  9
$INTERFERECOLOR
 62
   256
  9
$CSHADOW
280
     0
  9
$SHADOWPLANELOCATION
 40
0.0
  0
ENDSEC
  0
SECTION
  2
CLASSES
  0
CLASS
  1
ACDBDICTIONARYWDFLT
  2
AcDbDictionaryWithDefault
  3
ObjectDBX Classes
 90
        0
 91
        4
280
     0
281
     0
  0
CLASS
  1
VISUALSTYLE
  2
AcDbVisualStyle
  3
ObjectDBX Classes
 90
     4095
 91
        4
280
     0
281
     0
  0
CLASS
  1
MATERIAL
  2
AcDbMaterial
  3
ObjectDBX Classes
 90
     1153
 91
        4
280
     0
281
     0
  0
CLASS
  1
SUN
  2
AcDbSun
  3
SCENEOE
 90
     1024
 91
        4
280
     0
281
     0
  0
ENDSEC
  0
SECTION
  2
TABLES
  0
TABLE
  2
VPORT
  5
8
330
0
100
AcDbSymbolTable
 70
     1
  0
VPORT
  5
29
330
8
100
AcDbSymbolTableRecord
100
AcDbViewportTableRecord
  2
*Active
 70
     0
 10
0.0
 20
0.0
 11
1.0
 21
1.0
 12
0.0
 22
0.0
 13
0.0
 23
0.0
 14
0.5
 24
0.5
 15
0.5
 25
0.5
 16
0.0
 26
0.0
 36
1.0
 17
148.5000416295416
 27
-105.0007777515277
 37
0.0
 40
210.0015555030554
 41
1.414275634995294
 42
50.0
 43
0.0
 44
0.0
 50
0.0
 51
0.0
 71
     0
 72
   100
 73
     1
 74
     3
 75
     0
 76
     0
 77
     0
 78
     0
281
     0
 65
     1
110
0.0
120
0.0
130
0.0
111
1.0
121
0.0
131
0.0
112
0.0
122
1.0
132
0.0
 79
     0
146
0.0
 60
     3
 61
     5
292
     1
282
     1
141
0.0
142
0.0
 63
   250
361
3F
  0
ENDTAB
  0
TABLE
  2
LTYPE
  5
5
330
0
100
AcDbSymbolTable
 70
     1
  0
LTYPE
  5
14
330
5
100
AcDbSymbolTableRecord
100
AcDbLinetypeTableRecord
  2
ByBlock
 70
     0
  3

 72
    65
 73
     0
 40
0.0
  0
LTYPE
  5
15
330
5
100
AcDbSymbolTableRecord
100
AcDbLinetypeTableRecord
  2
ByLayer
 70
     0
  3

 72
    65
 73
     0
 40
0.0
  0
LTYPE
  5
16
330
5
100
AcDbSymbolTableRecord
100
AcDbLinetypeTableRecord
  2
Continuous
 70
     0
  3
Solid line
 72
    65
 73
     0
 40
0.0
  0
ENDTAB
  0
TABLE
  2
LAYER
  5
2
330
0
100
AcDbSymbolTable
 70
     2
  0
LAYER
  5
10
330
2
100
AcDbSymbolTableRecord
100
AcDbLayerTableRecord
  2
0
 70
     0
 62
     7
  6
Continuous
370
    -3
390
F
347
3E
  0
LAYER
  5
40
330
2
100
AcDbSymbolTableRecord
100
AcDbLayerTableRecord
  2
Layer 1
 70
     0
 62
     7
  6
Continuous
370
    -3
390
F
347
3E
  0
ENDTAB
  0
TABLE
  2
STYLE
  5
3
330
0
100
AcDbSymbolTable
 70
     1
  0
STYLE
  5
11
330
3
100
AcDbSymbolTableRecord
100
AcDbTextStyleTableRecord
  2
Standard
 70
     0
 40
0.0
 41
1.0
 50
0.0
 71
     0
 42
0.2
  3
txt
  4

  0
ENDTAB
  0
TABLE
  2
VIEW
  5
6
330
0
100
AcDbSymbolTable
 70
     0
  0
ENDTAB
  0
TABLE
  2
UCS
  5
7
330
0
100
AcDbSymbolTable
 70
     0
  0
ENDTAB
  0
TABLE
  2
APPID
  5
9
330
0
100
AcDbSymbolTable
 70
     1
  0
APPID
  5
12
330
9
100
AcDbSymbolTableRecord
100
AcDbRegAppTableRecord
  2
ACAD
 70
     0
  0
ENDTAB
  0
TABLE
  2
DIMSTYLE
  5
A
330
0
100
AcDbSymbolTable
 70
     1
100
AcDbDimStyleTable
  0
DIMSTYLE
105
27
330
A
100
AcDbSymbolTableRecord
100
AcDbDimStyleTableRecord
  2
Standard
 70
     0
178
     0
340
11
  0
ENDTAB
  0
TABLE
  2
BLOCK_RECORD
  5
1
330
0
100
AcDbSymbolTable
 70
     7
  0
BLOCK_RECORD
  5
1F
330
1
100
AcDbSymbolTableRecord
100
AcDbBlockTableRecord
  2
*Model_Space
340
22
 70
     0
280
     1
281
     0
  0
BLOCK_RECORD
  5
1B
330
1
100
AcDbSymbolTableRecord
100
AcDbBlockTableRecord
  2
*Paper_Space
340
1E
 70
     0
280
     1
281
     0
  0
BLOCK_RECORD
  5
23
330
1
100
AcDbSymbolTableRecord
100
AcDbBlockTableRecord
  2
*Paper_Space0
340
26
 70
     0
280
     1
281
     0
  0
BLOCK_RECORD
  5
41
330
1
100
AcDbSymbolTableRecord
100
AcDbBlockTableRecord
  2
block 2
340
0
102
{BLKREFS
331
42
102
}
 70
     0
280
     1
281
     0
  0
BLOCK_RECORD
  5
45
330
1
100
AcDbSymbolTableRecord
100
AcDbBlockTableRecord
  2
block 3
340
0
102
{BLKREFS
331
46
102
}
 70
     0
280
     1
281
     0
  0
BLOCK_RECORD
  5
52
330
1
100
AcDbSymbolTableRecord
100
AcDbBlockTableRecord
  2
block 4
340
0
102
{BLKREFS
331
53
102
}
 70
     0
280
     1
281
     0
  0
BLOCK_RECORD
  5
58
330
1
100
AcDbSymbolTableRecord
100
AcDbBlockTableRecord
  2
block 5
340
0
102
{BLKREFS
331
59
102
}
 70
     0
280
     1
281
     0
  0
BLOCK_RECORD
  5
5E
330
1
100
AcDbSymbolTableRecord
100
AcDbBlockTableRecord
  2
block 6
340
0
102
{BLKREFS
331
5F
102
}
 70
     0
280
     1
281
     0
  0
BLOCK_RECORD
  5
6C
330
1
100
AcDbSymbolTableRecord
100
AcDbBlockTableRecord
  2
block 7
340
0
102
{BLKREFS
331
6D
102
}
 70
     0
280
     1
281
     0
  0
ENDTAB
  0
ENDSEC
  0
SECTION
  2
BLOCKS
  0
BLOCK
  5
20
330
1F
100
AcDbEntity
  8
0
100
AcDbBlockBegin
  2
*Model_Space
 70
     0
 10
0.0
 20
0.0
 30
0.0
  3
*Model_Space
  1

  0
ENDBLK
  5
21
330
1F
100
AcDbEntity
  8
0
100
AcDbBlockEnd
  0
BLOCK
  5
1C
330
1B
100
AcDbEntity
 67
     1
  8
0
100
AcDbBlockBegin
  2
*Paper_Space
 70
     0
 10
0.0
 20
0.0
 30
0.0
  3
*Paper_Space
  1

  0
ENDBLK
  5
1D
330
1B
100
AcDbEntity
 67
     1
  8
0
100
AcDbBlockEnd
  0
BLOCK
  5
24
330
23
100
AcDbEntity
  8
0
100
AcDbBlockBegin
  2
*Paper_Space0
 70
     0
 10
0.0
 20
0.0
 30
0.0
  3
*Paper_Space0
  1

  0
ENDBLK
  5
25
330
23
100
AcDbEntity
  8
0
100
AcDbBlockEnd
  0
BLOCK
  5
43
330
41
100
AcDbEntity
  8
0
100
AcDbBlockBegin
  2
block 2
 70
     0
 10
0.0
 20
0.0
 30
0.0
  3
block 2
  1

  0
INSERT
  5
46
330
41
100
AcDbEntity
  8
Layer 1
100
AcDbBlockReference
  2
block 3
 10
0.0
 20
0.0
 30
0.0
  0
INSERT
  5
53
330
41
100
AcDbEntity
  8
Layer 1
100
AcDbBlockReference
  2
block 4
 10
0.0
 20
0.0
 30
0.0
  0
INSERT
  5
59
330
41
100
AcDbEntity
  8
Layer 1
100
AcDbBlockReference
  2
block 5
 10
0.0
 20
0.0
 30
0.0
  0
INSERT
  5
5F
330
41
100
AcDbEntity
  8
Layer 1
100
AcDbBlockReference
  2
block 6
 10
0.0
 20
0.0
 30
0.0
  0
INSERT
  5
6D
330
41
100
AcDbEntity
  8
Layer 1
100
AcDbBlockReference
  2
block 7
 10
0.0
 20
0.0
 30
0.0
  0
ENDBLK
  5
44
330
41
100
AcDbEntity
  8
0
100
AcDbBlockEnd
  0
BLOCK
  5
47
330
45
100
AcDbEntity
  8
0
100
AcDbBlockBegin
  2
block 3
 70
     0
 10
0.0
 20
0.0
 30
0.0
  3
block 3
  1

  0
SPLINE
  5
49
330
45
100
AcDbEntity
  8
Layer 1
370
     0
100
AcDbSpline
210
0.0
220
0.0
230
1.0
 70
    11
 71
     3
 72
    56
 73
    52
 74
     0
 42
0.0000000001
 43
0.0000000001
 12
1.0
 22
0.0
 32
0.0
 13
1.0
 23
0.0
 33
0.0
 40
0.0
 40
0.0
 40
0.0
 40
0.0
 40
1.0
 40
1.0
 40
1.0
 40
2.0
 40
2.0
 40
2.0
 40
3.0
 40
3.0
 40
3.0
 40
4.0
 40
4.0
 40
4.0
 40
5.0
 40
5.0
 40
5.0
 40
6.0
 40
6.0
 40
6.0
 40
7.0
 40
7.0
 40
7.0
 40
8.0
 40
8.0
 40
8.0
 40
9.0
 40
9.0
 40
9.0
 40
10.0
 40
10.0
 40
10.0
 40
11.0
 40
11.0
 40
11.0
 40
12.0
 40
12.0
 40
12.0
 40
13.0
 40
13.0
 40
13.0
 40
14.0
 40
14.0
 40
14.0
 40
15.0
 40
15.0
 40
15.0
 40
16.0
 40
16.0
 40
16.0
 40
17.0
 40
17.0
 40
17.0
 40
17.0
 10
41.08422834560008
 20
-43.42132210908643
 30
0.0
 10
41.08422834560008
 20
-43.42132210908643
 30
0.0
 10
40.70895682479145
 20
-43.42132210908643
 30
0.0
 10
40.70895682479145
 20
-43.42132210908643
 30
0.0
 10
40.70895682479145
 20
-43.42132210908643
 30
0.0
 10
40.70895682479145
 20
-43.31777986689397
 30
0.0
 10
40.70895682479145
 20
-43.31777986689397
 30
0.0
 10
40.70895682479145
 20
-43.31777986689397
 30
0.0
 10
42.19061392894095
 20
-43.31777986689397
 30
0.0
 10
42.19061392894095
 20
-43.31777986689397
 30
0.0
 10
42.19061392894095
 20
-43.31777986689397
 30
0.0
 10
42.19061392894095
 20
-43.42132210908643
 30
0.0
 10
42.19061392894095
 20
-43.42132210908643
 30
0.0
 10
42.19061392894095
 20
-43.42132210908643
 30
0.0
 10
41.71183965573427
 20
-43.42132210908643
 30
0.0
 10
41.71183965573427
 20
-43.42132210908643
 30
0.0
 10
41.71183965573427
 20
-43.42132210908643
 30
0.0
 10
42.52706698137524
 20
-45.38819032300892
 30
0.0
 10
42.52706698137524
 20
-45.38819032300892
 30
0.0
 10
42.52706698137524
 20
-45.38819032300892
 30
0.0
 10
43.16115461787142
 20
-43.94539117702784
 30
0.0
 10
43.16115461787142
 20
-43.94539117702784
 30
0.0
 10
43.23231522825714
 20
-43.78364097717204
 30
0.0
 10
43.27113369663083
 20
-43.66070924568962
 30
0.0
 10
43.27113369663083
 20
-43.5895486353039
 30
0.0
 10
43.27113369663083
 20
-43.44071159837576
 30
0.0
 10
43.08999400748538
 20
-43.42132210908643
 30
0.0
 10
42.97997543893126
 20
-43.42132210908643
 30
0.0
 10
42.97997543893126
 20
-43.42132210908643
 30
0.0
 10
42.75354095505077
 20
-43.42132210908643
 30
0.0
 10
42.75354095505077
 20
-43.42132210908643
 30
0.0
 10
42.75354095505077
 20
-43.42132210908643
 30
0.0
 10
42.75354095505077
 20
-43.31777986689397
 30
0.0
 10
42.75354095505077
 20
-43.31777986689397
 30
0.0
 10
42.75354095505077
 20
-43.31777986689397
 30
0.0
 10
43.87935551747569
 20
-43.31777986689397
 30
0.0
 10
43.87935551747569
 20
-43.31777986689397
 30
0.0
 10
43.87935551747569
 20
-43.31777986689397
 30
0.0
 10
43.87935551747569
 20
-43.42132210908643
 30
0.0
 10
43.87935551747569
 20
-43.42132210908643
 30
0.0
 10
43.58172093341476
 20
-43.42132210908643
 30
0.0
 10
43.50408399666802
 20
-43.44718792473775
 30
0.0
 10
43.36819961246226
 20
-43.75129883516001
 30
0.0
 10
43.36819961246226
 20
-43.75129883516001
 30
0.0
 10
42.31354566042305
 20
-46.12578071190283
 30
0.0
 10
42.31354566042305
 20
-46.12578071190283
 30
0.0
 10
42.31354566042305
 20
-46.12578071190283
 30
0.0
 10
42.26181402912139
 20
-46.12578071190283
 30
0.0
 10
42.26181402912139
 20
-46.12578071190283
 30
0.0
 10
42.26181402912139
 20
-46.12578071190283
 30
0.0
 10
41.08422834560008
 20
-43.42132210908643
 30
0.0
 10
41.08422834560008
 20
-43.42132210908643
 30
0.0
  0
HATCH
  5
4A
330
45
100
AcDbEntity
  8
Layer 1
 62
   250
100
AcDbHatch
 10
0.0
 20
0.0
 30
0.0
210
0.0
220
0.0
230
1.0
  2
SOLID
 70
     1
 71
     0
 91
        1
 92
        1
 93
        1
 72
     4
 94
        3
 73
     0
 74
     1
 95
       56
 96
       52
 40
0.0
 40
0.0
 40
0.0
 40
0.0
 40
1.0
 40
1.0
 40
1.0
 40
2.0
 40
2.0
 40
2.0
 40
3.0
 40
3.0
 40
3.0
 40
4.0
 40
4.0
 40
4.0
 40
5.0
 40
5.0
 40
5.0
 40
6.0
 40
6.0
 40
6.0
 40
7.0
 40
7.0
 40
7.0
 40
8.0
 40
8.0
 40
8.0
 40
9.0
 40
9.0
 40
9.0
 40
10.0
 40
10.0
 40
10.0
 40
11.0
 40
11.0
 40
11.0
 40
12.0
 40
12.0
 40
12.0
 40
13.0
 40
13.0
 40
13.0
 40
14.0
 40
14.0
 40
14.0
 40
15.0
 40
15.0
 40
15.0
 40
16.0
 40
16.0
 40
16.0
 40
17.0
 40
17.0
 40
17.0
 40
17.0
 10
41.08422834560008
 20
-43.42132210908643
 10
41.08422834560008
 20
-43.42132210908643
 10
40.70895682479145
 20
-43.42132210908643
 10
40.70895682479145
 20
-43.42132210908643
 10
40.70895682479145
 20
-43.42132210908643
 10
40.70895682479145
 20
-43.31777986689397
 10
40.70895682479145
 20
-43.31777986689397
 10
40.70895682479145
 20
-43.31777986689397
 10
42.19061392894095
 20
-43.31777986689397
 10
42.19061392894095
 20
-43.31777986689397
 10
42.19061392894095
 20
-43.31777986689397
 10
42.19061392894095
 20
-43.42132210908643
 10
42.19061392894095
 20
-43.42132210908643
 10
42.19061392894095
 20
-43.42132210908643
 10
41.71183965573427
 20
-43.42132210908643
 10
41.71183965573427
 20
-43.42132210908643
 10
41.71183965573427
 20
-43.42132210908643
 10
42.52706698137524
 20
-45.38819032300892
 10
42.52706698137524
 20
-45.38819032300892
 10
42.52706698137524
 20
-45.38819032300892
 10
43.16115461787142
 20
-43.94539117702784
 10
43.16115461787142
 20
-43.94539117702784
 10
43.23231522825714
 20
-43.78364097717204
 10
43.27113369663083
 20
-43.66070924568962
 10
43.27113369663083
 20
-43.5895486353039
 10
43.27113369663083
 20
-43.44071159837576
 10
43.08999400748538
 20
-43.42132210908643
 10
42.97997543893126
 20
-43.42132210908643
 10
42.97997543893126
 20
-43.42132210908643
 10
42.75354095505077
 20
-43.42132210908643
 10
42.75354095505077
 20
-43.42132210908643
 10
42.75354095505077
 20
-43.42132210908643
 10
42.75354095505077
 20
-43.31777986689397
 10
42.75354095505077
 20
-43.31777986689397
 10
42.75354095505077
 20
-43.31777986689397
 10
43.87935551747569
 20
-43.31777986689397
 10
43.87935551747569
 20
-43.31777986689397
 10
43.87935551747569
 20
-43.31777986689397
 10
43.87935551747569
 20
-43.42132210908643
 10
43.87935551747569
 20
-43.42132210908643
 10
43.58172093341476
 20
-43.42132210908643
 10
43.50408399666802
 20
-43.44718792473775
 10
43.36819961246226
 20
-43.75129883516001
 10
43.36819961246226
 20
-43.75129883516001
 10
42.31354566042305
 20
-46.12578071190283
 10
42.31354566042305
 20
-46.12578071190283
 10
42.31354566042305
 20
-46.12578071190283
 10
42.26181402912139
 20
-46.12578071190283
 10
42.26181402912139
 20
-46.12578071190283
 10
42.26181402912139
 20
-46.12578071190283
 10
41.08422834560008
 20
-43.42132210908643
 10
41.08422834560008
 20
-43.42132210908643
 97
        0
 97
        0
 75
     2
 76
     1
 98
        0
  0
SPLINE
  5
4B
330
45
100
AcDbEntity
  8
Layer 1
370
     0
100
AcDbSpline
210
0.0
220
0.0
230
1.0
 70
    11
 71
     3
 72
    35
 73
    31
 74
     0
 42
0.0000000001
 43
0.0000000001
 12
1.0
 22
0.0
 32
0.0
 13
1.0
 23
0.0
 33
0.0
 40
0.0
 40
0.0
 40
0.0
 40
0.0
 40
1.0
 40
1.0
 40
1.0
 40
2.0
 40
2.0
 40
2.0
 40
3.0
 40
3.0
 40
3.0
 40
4.0
 40
4.0
 40
4.0
 40
5.0
 40
5.0
 40
5.0
 40
6.0
 40
6.0
 40
6.0
 40
7.0
 40
7.0
 40
7.0
 40
8.0
 40
8.0
 40
8.0
 40
9.0
 40
9.0
 40
9.0
 40
10.0
 40
10.0
 40
10.0
 40
10.0
 10
44.77861712663596
 20
-44.96762400746493
 30
0.0
 10
44.77214080027493
 20
-45.42704828117702
 30
0.0
 10
44.83686457409402
 20
-45.94460153296267
 30
0.0
 10
45.44504690514415
 20
-45.94460153296267
 30
0.0
 10
45.98854495216993
 20
-45.94460153296267
 30
0.0
 10
46.38968228862891
 20
-45.58232215467211
 30
0.0
 10
46.48027187809931
 20
-45.05173727057431
 30
0.0
 10
46.48027187809931
 20
-45.05173727057431
 30
0.0
 10
46.58377463049705
 20
-45.05173727057431
 30
0.0
 10
46.58377463049705
 20
-45.05173727057431
 30
0.0
 10
46.48027187809931
 20
-45.64700643869679
 30
0.0
 10
46.04031607326664
 20
-46.04814377515545
 30
0.0
 10
45.44504690514415
 20
-46.04814377515545
 30
0.0
 10
44.68802753716619
 20
-46.04814377515545
 30
0.0
 10
44.15748214286312
 20
-45.46582725975566
 30
0.0
 10
44.15748214286312
 20
-44.61178146574067
 30
0.0
 10
44.15748214286312
 20
-43.98420964540185
 30
0.0
 10
44.66216172151488
 20
-43.17545864612158
 30
0.0
 10
45.36740996839709
 20
-43.17545864612158
 30
0.0
 10
46.13086617294136
 20
-43.17545864612158
 30
0.0
 10
46.52556667283435
 20
-44.02950444013657
 30
0.0
 10
46.52556667283435
 20
-44.30123371875209
 30
0.0
 10
46.52556667283435
 20
-44.34009167692051
 30
0.0
 10
46.5061376937503
 20
-44.35944167641512
 30
0.0
 10
46.46731922537661
 20
-44.35944167641512
 30
0.0
 10
46.46731922537661
 20
-44.35944167641512
 30
0.0
 10
44.77861712663596
 20
-44.35944167641512
 30
0.0
 10
44.77861712663596
 20
-44.35944167641512
 30
0.0
 10
44.77861712663596
 20
-44.35944167641512
 30
0.0
 10
44.77861712663596
 20
-44.96762400746493
 30
0.0
 10
44.77861712663596
 20
-44.96762400746493
 30
0.0
  0
SPLINE
  5
4C
330
45
100
AcDbEntity
  8
Layer 1
370
     0
100
AcDbSpline
210
0.0
220
0.0
230
1.0
 70
    11
 71
     3
 72
    23
 73
    19
 74
     0
 42
0.0000000001
 43
0.0000000001
 12
1.0
 22
0.0
 32
0.0
 13
1.0
 23
0.0
 33
0.0
 40
0.0
 40
0.0
 40
0.0
 40
0.0
 40
1.0
 40
1.0
 40
1.0
 40
2.0
 40
2.0
 40
2.0
 40
3.0
 40
3.0
 40
3.0
 40
4.0
 40
4.0
 40
4.0
 40
5.0
 40
5.0
 40
5.0
 40
6.0
 40
6.0
 40
6.0
 40
6.0
 10
45.9044316890612
 20
-44.07479923487161
 30
0.0
 10
45.9044316890612
 20
-43.66070924568962
 30
0.0
 10
45.79445261030147
 20
-43.27896139851996
 30
0.0
 10
45.36740996839709
 20
-43.27896139851996
 30
0.0
 10
44.9145015108414
 20
-43.27896139851996
 30
0.0
 10
44.77861712663596
 20
-43.66070924568962
 30
0.0
 10
44.77861712663596
 20
-44.07479923487161
 30
0.0
 10
44.77861712663596
 20
-44.07479923487161
 30
0.0
 10
44.77861712663596
 20
-44.25593892401738
 30
0.0
 10
44.77861712663596
 20
-44.25593892401738
 30
0.0
 10
44.77861712663596
 20
-44.25593892401738
 30
0.0
 10
45.85913689432616
 20
-44.25593892401738
 30
0.0
 10
45.85913689432616
 20
-44.25593892401738
 30
0.0
 10
45.8914790363385
 20
-44.25593892401738
 30
0.0
 10
45.9044316890612
 20
-44.23654943472741
 30
0.0
 10
45.9044316890612
 20
-44.21064412928234
 30
0.0
 10
45.9044316890612
 20
-44.21064412928234
 30
0.0
 10
45.9044316890612
 20
-44.07479923487161
 30
0.0
 10
45.9044316890612
 20
-44.07479923487161
 30
0.0
  0
HATCH
  5
4D
330
45
100
AcDbEntity
  8
Layer 1
 62
   250
100
AcDbHatch
 10
0.0
 20
0.0
 30
0.0
210
0.0
220
0.0
230
1.0
  2
SOLID
 70
     1
 71
     0
 91
        2
 92
        1
 93
        1
 72
     4
 94
        3
 73
     0
 74
     1
 95
       35
 96
       31
 40
0.0
 40
0.0
 40
0.0
 40
0.0
 40
1.0
 40
1.0
 40
1.0
 40
2.0
 40
2.0
 40
2.0
 40
3.0
 40
3.0
 40
3.0
 40
4.0
 40
4.0
 40
4.0
 40
5.0
 40
5.0
 40
5.0
 40
6.0
 40
6.0
 40
6.0
 40
7.0
 40
7.0
 40
7.0
 40
8.0
 40
8.0
 40
8.0
 40
9.0
 40
9.0
 40
9.0
 40
10.0
 40
10.0
 40
10.0
 40
10.0
 10
44.77861712663596
 20
-44.96762400746493
 10
44.77214080027493
 20
-45.42704828117702
 10
44.83686457409402
 20
-45.94460153296267
 10
45.44504690514415
 20
-45.94460153296267
 10
45.98854495216993
 20
-45.94460153296267
 10
46.38968228862891
 20
-45.58232215467211
 10
46.48027187809931
 20
-45.05173727057431
 10
46.48027187809931
 20
-45.05173727057431
 10
46.58377463049705
 20
-45.05173727057431
 10
46.58377463049705
 20
-45.05173727057431
 10
46.48027187809931
 20
-45.64700643869679
 10
46.04031607326664
 20
-46.04814377515545
 10
45.44504690514415
 20
-46.04814377515545
 10
44.68802753716619
 20
-46.04814377515545
 10
44.15748214286312
 20
-45.46582725975566
 10
44.15748214286312
 20
-44.61178146574067
 10
44.15748214286312
 20
-43.98420964540185
 10
44.66216172151488
 20
-43.17545864612158
 10
45.36740996839709
 20
-43.17545864612158
 10
46.13086617294136
 20
-43.17545864612158
 10
46.52556667283435
 20
-44.02950444013657
 10
46.52556667283435
 20
-44.30123371875209
 10
46.52556667283435
 20
-44.34009167692051
 10
46.5061376937503
 20
-44.35944167641512
 10
46.46731922537661
 20
-44.35944167641512
 10
46.46731922537661
 20
-44.35944167641512
 10
44.77861712663596
 20
-44.35944167641512
 10
44.77861712663596
 20
-44.35944167641512
 10
44.77861712663596
 20
-44.35944167641512
 10
44.77861712663596
 20
-44.96762400746493
 10
44.77861712663596
 20
-44.96762400746493
 97
        0
 97
        0
 92
        1
 93
        1
 72
     4
 94
        3
 73
     0
 74
     1
 95
       23
 96
       19
 40
0.0
 40
0.0
 40
0.0
 40
0.0
 40
1.0
 40
1.0
 40
1.0
 40
2.0
 40
2.0
 40
2.0
 40
3.0
 40
3.0
 40
3.0
 40
4.0
 40
4.0
 40
4.0
 40
5.0
 40
5.0
 40
5.0
 40
6.0
 40
6.0
 40
6.0
 40
6.0
 10
45.9044316890612
 20
-44.07479923487161
 10
45.9044316890612
 20
-43.66070924568962
 10
45.79445261030147
 20
-43.27896139851996
 10
45.36740996839709
 20
-43.27896139851996
 10
44.9145015108414
 20
-43.27896139851996
 10
44.77861712663596
 20
-43.66070924568962
 10
44.77861712663596
 20
-44.07479923487161
 10
44.77861712663596
 20
-44.07479923487161
 10
44.77861712663596
 20
-44.25593892401738
 10
44.77861712663596
 20
-44.25593892401738
 10
44.77861712663596
 20
-44.25593892401738
 10
45.85913689432616
 20
-44.25593892401738
 10
45.85913689432616
 20
-44.25593892401738
 10
45.8914790363385
 20
-44.25593892401738
 10
45.9044316890612
 20
-44.23654943472741
 10
45.9044316890612
 20
-44.21064412928234
 10
45.9044316890612
 20
-44.21064412928234
 10
45.9044316890612
 20
-44.07479923487161
 10
45.9044316890612
 20
-44.07479923487161
 97
        0
 97
        0
 75
     2
 76
     1
 98
        0
  0
SPLINE
  5
4E
330
45
100
AcDbEntity
  8
Layer 1
370
     0
100
AcDbSpline
210
0.0
220
0.0
230
1.0
 70
    11
 71
     3
 72
    65
 73
    61
 74
     0
 42
0.0000000001
 43
0.0000000001
 12
1.0
 22
0.0
 32
0.0
 13
1.0
 23
0.0
 33
0.0
 40
0.0
 40
0.0
 40
0.0
 40
0.0
 40
1.0
 40
1.0
 40
1.0
 40
2.0
 40
2.0
 40
2.0
 40
3.0
 40
3.0
 40
3.0
 40
4.0
 40
4.0
 40
4.0
 40
5.0
 40
5.0
 40
5.0
 40
6.0
 40
6.0
 40
6.0
 40
7.0
 40
7.0
 40
7.0
 40
8.0
 40
8.0
 40
8.0
 40
9.0
 40
9.0
 40
9.0
 40
10.0
 40
10.0
 40
10.0
 40
11.0
 40
11.0
 40
11.0
 40
12.0
 40
12.0
 40
12.0
 40
13.0
 40
13.0
 40
13.0
 40
14.0
 40
14.0
 40
14.0
 40
15.0
 40
15.0
 40
15.0
 40
16.0
 40
16.0
 40
16.0
 40
17.0
 40
17.0
 40
17.0
 40
18.0
 40
18.0
 40
18.0
 40
19.0
 40
19.0
 40
19.0
 40
20.0
 40
20.0
 40
20.0
 40
20.0
 10
47.41183613947656
 20
-43.42132210908643
 30
0.0
 10
47.41183613947656
 20
-43.42132210908643
 30
0.0
 10
46.86833809245078
 20
-43.42132210908643
 30
0.0
 10
46.86833809245078
 20
-43.42132210908643
 30
0.0
 10
46.86833809245078
 20
-43.42132210908643
 30
0.0
 10
46.86833809245078
 20
-43.31777986689397
 30
0.0
 10
46.86833809245078
 20
-43.31777986689397
 30
0.0
 10
46.86833809245078
 20
-43.31777986689397
 30
0.0
 10
47.41183613947656
 20
-43.31777986689397
 30
0.0
 10
47.41183613947656
 20
-43.31777986689397
 30
0.0
 10
47.6188811340674
 20
-43.31777986689397
 30
0.0
 10
47.82592612865888
 20
-43.30482721417064
 30
0.0
 10
47.95533418650265
 20
-43.17545864612158
 30
0.0
 10
47.95533418650265
 20
-43.17545864612158
 30
0.0
 10
47.95533418650265
 20
-43.93891485066649
 30
0.0
 10
47.95533418650265
 20
-43.93891485066649
 30
0.0
 10
47.95533418650265
 20
-43.93891485066649
 30
0.0
 10
47.96824734943031
 20
-43.93891485066649
 30
0.0
 10
47.96824734943031
 20
-43.93891485066649
 30
0.0
 10
48.04592377597241
 20
-43.64775659296691
 30
0.0
 10
48.27235825985322
 20
-43.17545864612158
 30
0.0
 10
48.80290365415566
 20
-43.17545864612158
 30
0.0
 10
49.04229079075948
 20
-43.17545864612158
 30
0.0
 10
49.22994629606067
 20
-43.33073251961667
 30
0.0
 10
49.22994629606067
 20
-43.55716700349716
 30
0.0
 10
49.22994629606067
 20
-43.7253935297143
 30
0.0
 10
49.12640405386757
 20
-43.86127791391942
 30
0.0
 10
48.93231171199975
 20
-43.86127791391942
 30
0.0
 10
48.71879039104692
 20
-43.86127791391942
 30
0.0
 10
48.64762978066121
 20
-43.75129883516001
 30
0.0
 10
48.64762978066121
 20
-43.57659598258088
 30
0.0
 10
48.64762978066121
 20
-43.43423527201473
 30
0.0
 10
48.71879039104692
 20
-43.33720884597738
 30
0.0
 10
48.789990491228
 20
-43.29839037760433
 30
0.0
 10
48.76408518578229
 20
-43.27896139851996
 30
0.0
 10
48.73174304376994
 20
-43.27896139851996
 30
0.0
 10
48.6994009017576
 20
-43.27896139851996
 30
0.0
 10
48.43410845970902
 20
-43.27896139851996
 30
0.0
 10
47.95533418650265
 20
-43.69952771406331
 30
0.0
 10
47.95533418650265
 20
-44.5406208553556
 30
0.0
 10
47.95533418650265
 20
-44.5406208553556
 30
0.0
 10
47.95533418650265
 20
-45.86696459621561
 30
0.0
 10
47.95533418650265
 20
-45.86696459621561
 30
0.0
 10
47.95533418650265
 20
-45.86696459621561
 30
0.0
 10
48.54412702826315
 20
-45.86696459621561
 30
0.0
 10
48.54412702826315
 20
-45.86696459621561
 30
0.0
 10
48.54412702826315
 20
-45.86696459621561
 30
0.0
 10
48.54412702826315
 20
-45.97050683840839
 30
0.0
 10
48.54412702826315
 20
-45.97050683840839
 30
0.0
 10
48.54412702826315
 20
-45.97050683840839
 30
0.0
 10
46.86833809245078
 20
-45.97050683840839
 30
0.0
 10
46.86833809245078
 20
-45.97050683840839
 30
0.0
 10
46.86833809245078
 20
-45.97050683840839
 30
0.0
 10
46.86833809245078
 20
-45.86696459621561
 30
0.0
 10
46.86833809245078
 20
-45.86696459621561
 30
0.0
 10
46.86833809245078
 20
-45.86696459621561
 30
0.0
 10
47.41183613947656
 20
-45.86696459621561
 30
0.0
 10
47.41183613947656
 20
-45.86696459621561
 30
0.0
 10
47.41183613947656
 20
-45.86696459621561
 30
0.0
 10
47.41183613947656
 20
-43.42132210908643
 30
0.0
 10
47.41183613947656
 20
-43.42132210908643
 30
0.0
  0
HATCH
  5
4F
330
45
100
AcDbEntity
  8
Layer 1
 62
   250
100
AcDbHatch
 10
0.0
 20
0.0
 30
0.0
210
0.0
220
0.0
230
1.0
  2
SOLID
 70
     1
 71
     0
 91
        1
 92
        1
 93
        1
 72
     4
 94
        3
 73
     0
 74
     1
 95
       65
 96
       61
 40
0.0
 40
0.0
 40
0.0
 40
0.0
 40
1.0
 40
1.0
 40
1.0
 40
2.0
 40
2.0
 40
2.0
 40
3.0
 40
3.0
 40
3.0
 40
4.0
 40
4.0
 40
4.0
 40
5.0
 40
5.0
 40
5.0
 40
6.0
 40
6.0
 40
6.0
 40
7.0
 40
7.0
 40
7.0
 40
8.0
 40
8.0
 40
8.0
 40
9.0
 40
9.0
 40
9.0
 40
10.0
 40
10.0
 40
10.0
 40
11.0
 40
11.0
 40
11.0
 40
12.0
 40
12.0
 40
12.0
 40
13.0
 40
13.0
 40
13.0
 40
14.0
 40
14.0
 40
14.0
 40
15.0
 40
15.0
 40
15.0
 40
16.0
 40
16.0
 40
16.0
 40
17.0
 40
17.0
 40
17.0
 40
18.0
 40
18.0
 40
18.0
 40
19.0
 40
19.0
 40
19.0
 40
20.0
 40
20.0
 40
20.0
 40
20.0
 10
47.41183613947656
 20
-43.42132210908643
 10
47.41183613947656
 20
-43.42132210908643
 10
46.86833809245078
 20
-43.42132210908643
 10
46.86833809245078
 20
-43.42132210908643
 10
46.86833809245078
 20
-43.42132210908643
 10
46.86833809245078
 20
-43.31777986689397
 10
46.86833809245078
 20
-43.31777986689397
 10
46.86833809245078
 20
-43.31777986689397
 10
47.41183613947656
 20
-43.31777986689397
 10
47.41183613947656
 20
-43.31777986689397
 10
47.6188811340674
 20
-43.31777986689397
 10
47.82592612865888
 20
-43.30482721417064
 10
47.95533418650265
 20
-43.17545864612158
 10
47.95533418650265
 20
-43.17545864612158
 10
47.95533418650265
 20
-43.93891485066649
 10
47.95533418650265
 20
-43.93891485066649
 10
47.95533418650265
 20
-43.93891485066649
 10
47.96824734943031
 20
-43.93891485066649
 10
47.96824734943031
 20
-43.93891485066649
 10
48.04592377597241
 20
-43.64775659296691
 10
48.27235825985322
 20
-43.17545864612158
 10
48.80290365415566
 20
-43.17545864612158
 10
49.04229079075948
 20
-43.17545864612158
 10
49.22994629606067
 20
-43.33073251961667
 10
49.22994629606067
 20
-43.55716700349716
 10
49.22994629606067
 20
-43.7253935297143
 10
49.12640405386757
 20
-43.86127791391942
 10
48.93231171199975
 20
-43.86127791391942
 10
48.71879039104692
 20
-43.86127791391942
 10
48.64762978066121
 20
-43.75129883516001
 10
48.64762978066121
 20
-43.57659598258088
 10
48.64762978066121
 20
-43.43423527201473
 10
48.71879039104692
 20
-43.33720884597738
 10
48.789990491228
 20
-43.29839037760433
 10
48.76408518578229
 20
-43.27896139851996
 10
48.73174304376994
 20
-43.27896139851996
 10
48.6994009017576
 20
-43.27896139851996
 10
48.43410845970902
 20
-43.27896139851996
 10
47.95533418650265
 20
-43.69952771406331
 10
47.95533418650265
 20
-44.5406208553556
 10
47.95533418650265
 20
-44.5406208553556
 10
47.95533418650265
 20
-45.86696459621561
 10
47.95533418650265
 20
-45.86696459621561
 10
47.95533418650265
 20
-45.86696459621561
 10
48.54412702826315
 20
-45.86696459621561
 10
48.54412702826315
 20
-45.86696459621561
 10
48.54412702826315
 20
-45.86696459621561
 10
48.54412702826315
 20
-45.97050683840839
 10
48.54412702826315
 20
-45.97050683840839
 10
48.54412702826315
 20
-45.97050683840839
 10
46.86833809245078
 20
-45.97050683840839
 10
46.86833809245078
 20
-45.97050683840839
 10
46.86833809245078
 20
-45.97050683840839
 10
46.86833809245078
 20
-45.86696459621561
 10
46.86833809245078
 20
-45.86696459621561
 10
46.86833809245078
 20
-45.86696459621561
 10
47.41183613947656
 20
-45.86696459621561
 10
47.41183613947656
 20
-45.86696459621561
 10
47.41183613947656
 20
-45.86696459621561
 10
47.41183613947656
 20
-43.42132210908643
 10
47.41183613947656
 20
-43.42132210908643
 97
        0
 97
        0
 75
     2
 76
     1
 98
        0
  0
SPLINE
  5
50
330
45
100
AcDbEntity
  8
Layer 1
370
     0
100
AcDbSpline
210
0.0
220
0.0
230
1.0
 70
    11
 71
     3
 72
    98
 73
    94
 74
     0
 42
0.0000000001
 43
0.0000000001
 12
1.0
 22
0.0
 32
0.0
 13
1.0
 23
0.0
 33
0.0
 40
0.0
 40
0.0
 40
0.0
 40
0.0
 40
1.0
 40
1.0
 40
1.0
 40
2.0
 40
2.0
 40
2.0
 40
3.0
 40
3.0
 40
3.0
 40
4.0
 40
4.0
 40
4.0
 40
5.0
 40
5.0
 40
5.0
 40
6.0
 40
6.0
 40
6.0
 40
7.0
 40
7.0
 40
7.0
 40
8.0
 40
8.0
 40
8.0
 40
9.0
 40
9.0
 40
9.0
 40
10.0
 40
10.0
 40
10.0
 40
11.0
 40
11.0
 40
11.0
 40
12.0
 40
12.0
 40
12.0
 40
13.0
 40
13.0
 40
13.0
 40
14.0
 40
14.0
 40
14.0
 40
15.0
 40
15.0
 40
15.0
 40
16.0
 40
16.0
 40
16.0
 40
17.0
 40
17.0
 40
17.0
 40
18.0
 40
18.0
 40
18.0
 40
19.0
 40
19.0
 40
19.0
 40
20.0
 40
20.0
 40
20.0
 40
21.0
 40
21.0
 40
21.0
 40
22.0
 40
22.0
 40
22.0
 40
23.0
 40
23.0
 40
23.0
 40
24.0
 40
24.0
 40
24.0
 40
25.0
 40
25.0
 40
25.0
 40
26.0
 40
26.0
 40
26.0
 40
27.0
 40
27.0
 40
27.0
 40
28.0
 40
28.0
 40
28.0
 40
29.0
 40
29.0
 40
29.0
 40
30.0
 40
30.0
 40
30.0
 40
31.0
 40
31.0
 40
31.0
 40
31.0
 10
49.89625760518406
 20
-41.48024073122517
 30
0.0
 10
49.89625760518406
 20
-41.48024073122517
 30
0.0
 10
49.38510170016999
 20
-41.48024073122517
 30
0.0
 10
49.38510170016999
 20
-41.48024073122517
 30
0.0
 10
49.38510170016999
 20
-41.48024073122517
 30
0.0
 10
49.38510170016999
 20
-41.37673797882712
 30
0.0
 10
49.38510170016999
 20
-41.37673797882712
 30
0.0
 10
49.38510170016999
 20
-41.37673797882712
 30
0.0
 10
49.89625760518406
 20
-41.37673797882712
 30
0.0
 10
49.89625760518406
 20
-41.37673797882712
 30
0.0
 10
50.10330259977523
 20
-41.37673797882712
 30
0.0
 10
50.31034759436606
 20
-41.36378532610441
 30
0.0
 10
50.4397161624148
 20
-41.21498777897099
 30
0.0
 10
50.4397161624148
 20
-41.21498777897099
 30
0.0
 10
50.4397161624148
 20
-44.81882646033247
 30
0.0
 10
50.4397161624148
 20
-44.81882646033247
 30
0.0
 10
50.4397161624148
 20
-44.81882646033247
 30
0.0
 10
51.47498062516467
 20
-43.82245944554605
 30
0.0
 10
51.47498062516467
 20
-43.82245944554605
 30
0.0
 10
51.61730184593642
 20
-43.68657506134029
 30
0.0
 10
51.70141510904516
 20
-43.57011965621953
 30
0.0
 10
51.70141510904516
 20
-43.52482486148449
 30
0.0
 10
51.70141510904516
 20
-43.45366425109845
 30
0.0
 10
51.61082551957507
 20
-43.42132210908643
 30
0.0
 10
51.41025685134559
 20
-43.42132210908643
 30
0.0
 10
51.41025685134559
 20
-43.42132210908643
 30
0.0
 10
51.19025920403173
 20
-43.42132210908643
 30
0.0
 10
51.19025920403173
 20
-43.42132210908643
 30
0.0
 10
51.19025920403173
 20
-43.42132210908643
 30
0.0
 10
51.19025920403173
 20
-43.31777986689397
 30
0.0
 10
51.19025920403173
 20
-43.31777986689397
 30
0.0
 10
51.19025920403173
 20
-43.31777986689397
 30
0.0
 10
52.55546090306014
 20
-43.31777986689397
 30
0.0
 10
52.55546090306014
 20
-43.31777986689397
 30
0.0
 10
52.55546090306014
 20
-43.31777986689397
 30
0.0
 10
52.55546090306014
 20
-43.42132210908643
 30
0.0
 10
52.55546090306014
 20
-43.42132210908643
 30
0.0
 10
52.55546090306014
 20
-43.42132210908643
 30
0.0
 10
52.32902641917966
 20
-43.42132210908643
 30
0.0
 10
52.32902641917966
 20
-43.42132210908643
 30
0.0
 10
52.10902877186581
 20
-43.42132210908643
 30
0.0
 10
52.00552601946742
 20
-43.47305374038842
 30
0.0
 10
51.78552837215389
 20
-43.68009873497958
 30
0.0
 10
51.78552837215389
 20
-43.68009873497958
 30
0.0
 10
51.0673274725493
 20
-44.35944167641512
 30
0.0
 10
51.0673274725493
 20
-44.35944167641512
 30
0.0
 10
51.0673274725493
 20
-44.35944167641512
 30
0.0
 10
52.08316295621513
 20
-45.62110113325043
 30
0.0
 10
52.08316295621513
 20
-45.62110113325043
 30
0.0
 10
52.22548417698688
 20
-45.79580398582925
 30
0.0
 10
52.27725529808328
 20
-45.86696459621561
 30
0.0
 10
52.4001870295657
 20
-45.86696459621561
 30
0.0
 10
52.4001870295657
 20
-45.86696459621561
 30
0.0
 10
52.73016375563928
 20
-45.86696459621561
 30
0.0
 10
52.73016375563928
 20
-45.86696459621561
 30
0.0
 10
52.73016375563928
 20
-45.86696459621561
 30
0.0
 10
52.73016375563928
 20
-45.97050683840839
 30
0.0
 10
52.73016375563928
 20
-45.97050683840839
 30
0.0
 10
52.73016375563928
 20
-45.97050683840839
 30
0.0
 10
51.10614594092299
 20
-45.97050683840839
 30
0.0
 10
51.10614594092299
 20
-45.97050683840839
 30
0.0
 10
51.10614594092299
 20
-45.97050683840839
 30
0.0
 10
51.10614594092299
 20
-45.86696459621561
 30
0.0
 10
51.10614594092299
 20
-45.86696459621561
 30
0.0
 10
51.10614594092299
 20
-45.86696459621561
 30
0.0
 10
51.5720070512017
 20
-45.86696459621561
 30
0.0
 10
51.5720070512017
 20
-45.86696459621561
 30
0.0
 10
51.5720070512017
 20
-45.86696459621561
 30
0.0
 10
50.66619013609
 20
-44.74770533974148
 30
0.0
 10
50.66619013609
 20
-44.74770533974148
 30
0.0
 10
50.66619013609
 20
-44.74770533974148
 30
0.0
 10
50.4397161624148
 20
-44.96114768110358
 30
0.0
 10
50.4397161624148
 20
-44.96114768110358
 30
0.0
 10
50.4397161624148
 20
-44.96114768110358
 30
0.0
 10
50.4397161624148
 20
-45.86696459621561
 30
0.0
 10
50.4397161624148
 20
-45.86696459621561
 30
0.0
 10
50.4397161624148
 20
-45.86696459621561
 30
0.0
 10
50.89266410976553
 20
-45.86696459621561
 30
0.0
 10
50.89266410976553
 20
-45.86696459621561
 30
0.0
 10
50.89266410976553
 20
-45.86696459621561
 30
0.0
 10
50.89266410976553
 20
-45.97050683840839
 30
0.0
 10
50.89266410976553
 20
-45.97050683840839
 30
0.0
 10
50.89266410976553
 20
-45.97050683840839
 30
0.0
 10
49.38510170016999
 20
-45.97050683840839
 30
0.0
 10
49.38510170016999
 20
-45.97050683840839
 30
0.0
 10
49.38510170016999
 20
-45.97050683840839
 30
0.0
 10
49.38510170016999
 20
-45.86696459621561
 30
0.0
 10
49.38510170016999
 20
-45.86696459621561
 30
0.0
 10
49.38510170016999
 20
-45.86696459621561
 30
0.0
 10
49.89625760518406
 20
-45.86696459621561
 30
0.0
 10
49.89625760518406
 20
-45.86696459621561
 30
0.0
 10
49.89625760518406
 20
-45.86696459621561
 30
0.0
 10
49.89625760518406
 20
-41.48024073122517
 30
0.0
 10
49.89625760518406
 20
-41.48024073122517
 30
0.0
  0
HATCH
  5
51
330
45
100
AcDbEntity
  8
Layer 1
 62
   250
100
AcDbHatch
 10
0.0
 20
0.0
 30
0.0
210
0.0
220
0.0
230
1.0
  2
SOLID
 70
     1
 71
     0
 91
        1
 92
        1
 93
        1
 72
     4
 94
        3
 73
     0
 74
     1
 95
       98
 96
       94
 40
0.0
 40
0.0
 40
0.0
 40
0.0
 40
1.0
 40
1.0
 40
1.0
 40
2.0
 40
2.0
 40
2.0
 40
3.0
 40
3.0
 40
3.0
 40
4.0
 40
4.0
 40
4.0
 40
5.0
 40
5.0
 40
5.0
 40
6.0
 40
6.0
 40
6.0
 40
7.0
 40
7.0
 40
7.0
 40
8.0
 40
8.0
 40
8.0
 40
9.0
 40
9.0
 40
9.0
 40
10.0
 40
10.0
 40
10.0
 40
11.0
 40
11.0
 40
11.0
 40
12.0
 40
12.0
 40
12.0
 40
13.0
 40
13.0
 40
13.0
 40
14.0
 40
14.0
 40
14.0
 40
15.0
 40
15.0
 40
15.0
 40
16.0
 40
16.0
 40
16.0
 40
17.0
 40
17.0
 40
17.0
 40
18.0
 40
18.0
 40
18.0
 40
19.0
 40
19.0
 40
19.0
 40
20.0
 40
20.0
 40
20.0
 40
21.0
 40
21.0
 40
21.0
 40
22.0
 40
22.0
 40
22.0
 40
23.0
 40
23.0
 40
23.0
 40
24.0
 40
24.0
 40
24.0
 40
25.0
 40
25.0
 40
25.0
 40
26.0
 40
26.0
 40
26.0
 40
27.0
 40
27.0
 40
27.0
 40
28.0
 40
28.0
 40
28.0
 40
29.0
 40
29.0
 40
29.0
 40
30.0
 40
30.0
 40
30.0
 40
31.0
 40
31.0
 40
31.0
 40
31.0
 10
49.89625760518406
 20
-41.48024073122517
 10
49.89625760518406
 20
-41.48024073122517
 10
49.38510170016999
 20
-41.48024073122517
 10
49.38510170016999
 20
-41.48024073122517
 10
49.38510170016999
 20
-41.48024073122517
 10
49.38510170016999
 20
-41.37673797882712
 10
49.38510170016999
 20
-41.37673797882712
 10
49.38510170016999
 20
-41.37673797882712
 10
49.89625760518406
 20
-41.37673797882712
 10
49.89625760518406
 20
-41.37673797882712
 10
50.10330259977523
 20
-41.37673797882712
 10
50.31034759436606
 20
-41.36378532610441
 10
50.4397161624148
 20
-41.21498777897099
 10
50.4397161624148
 20
-41.21498777897099
 10
50.4397161624148
 20
-44.81882646033247
 10
50.4397161624148
 20
-44.81882646033247
 10
50.4397161624148
 20
-44.81882646033247
 10
51.47498062516467
 20
-43.82245944554605
 10
51.47498062516467
 20
-43.82245944554605
 10
51.61730184593642
 20
-43.68657506134029
 10
51.70141510904516
 20
-43.57011965621953
 10
51.70141510904516
 20
-43.52482486148449
 10
51.70141510904516
 20
-43.45366425109845
 10
51.61082551957507
 20
-43.42132210908643
 10
51.41025685134559
 20
-43.42132210908643
 10
51.41025685134559
 20
-43.42132210908643
 10
51.19025920403173
 20
-43.42132210908643
 10
51.19025920403173
 20
-43.42132210908643
 10
51.19025920403173
 20
-43.42132210908643
 10
51.19025920403173
 20
-43.31777986689397
 10
51.19025920403173
 20
-43.31777986689397
 10
51.19025920403173
 20
-43.31777986689397
 10
52.55546090306014
 20
-43.31777986689397
 10
52.55546090306014
 20
-43.31777986689397
 10
52.55546090306014
 20
-43.31777986689397
 10
52.55546090306014
 20
-43.42132210908643
 10
52.55546090306014
 20
-43.42132210908643
 10
52.55546090306014
 20
-43.42132210908643
 10
52.32902641917966
 20
-43.42132210908643
 10
52.32902641917966
 20
-43.42132210908643
 10
52.10902877186581
 20
-43.42132210908643
 10
52.00552601946742
 20
-43.47305374038842
 10
51.78552837215389
 20
-43.68009873497958
 10
51.78552837215389
 20
-43.68009873497958
 10
51.0673274725493
 20
-44.35944167641512
 10
51.0673274725493
 20
-44.35944167641512
 10
51.0673274725493
 20
-44.35944167641512
 10
52.08316295621513
 20
-45.62110113325043
 10
52.08316295621513
 20
-45.62110113325043
 10
52.22548417698688
 20
-45.79580398582925
 10
52.27725529808328
 20
-45.86696459621561
 10
52.4001870295657
 20
-45.86696459621561
 10
52.4001870295657
 20
-45.86696459621561
 10
52.73016375563928
 20
-45.86696459621561
 10
52.73016375563928
 20
-45.86696459621561
 10
52.73016375563928
 20
-45.86696459621561
 10
52.73016375563928
 20
-45.97050683840839
 10
52.73016375563928
 20
-45.97050683840839
 10
52.73016375563928
 20
-45.97050683840839
 10
51.10614594092299
 20
-45.97050683840839
 10
51.10614594092299
 20
-45.97050683840839
 10
51.10614594092299
 20
-45.97050683840839
 10
51.10614594092299
 20
-45.86696459621561
 10
51.10614594092299
 20
-45.86696459621561
 10
51.10614594092299
 20
-45.86696459621561
 10
51.5720070512017
 20
-45.86696459621561
 10
51.5720070512017
 20
-45.86696459621561
 10
51.5720070512017
 20
-45.86696459621561
 10
50.66619013609
 20
-44.74770533974148
 10
50.66619013609
 20
-44.74770533974148
 10
50.66619013609
 20
-44.74770533974148
 10
50.4397161624148
 20
-44.96114768110358
 10
50.4397161624148
 20
-44.96114768110358
 10
50.4397161624148
 20
-44.96114768110358
 10
50.4397161624148
 20
-45.86696459621561
 10
50.4397161624148
 20
-45.86696459621561
 10
50.4397161624148
 20
-45.86696459621561
 10
50.89266410976553
 20
-45.86696459621561
 10
50.89266410976553
 20
-45.86696459621561
 10
50.89266410976553
 20
-45.86696459621561
 10
50.89266410976553
 20
-45.97050683840839
 10
50.89266410976553
 20
-45.97050683840839
 10
50.89266410976553
 20
-45.97050683840839
 10
49.38510170016999
 20
-45.97050683840839
 10
49.38510170016999
 20
-45.97050683840839
 10
49.38510170016999
 20
-45.97050683840839
 10
49.38510170016999
 20
-45.86696459621561
 10
49.38510170016999
 20
-45.86696459621561
 10
49.38510170016999
 20
-45.86696459621561
 10
49.89625760518406
 20
-45.86696459621561
 10
49.89625760518406
 20
-45.86696459621561
 10
49.89625760518406
 20
-45.86696459621561
 10
49.89625760518406
 20
-41.48024073122517
 10
49.89625760518406
 20
-41.48024073122517
 97
        0
 97
        0
 75
     2
 76
     1
 98
        0
  0
ENDBLK
  5
48
330
45
100
AcDbEntity
  8
0
100
AcDbBlockEnd
  0
BLOCK
  5
54
330
52
100
AcDbEntity
  8
0
100
AcDbBlockBegin
  2
block 4
 70
     0
 10
0.0
 20
0.0
 30
0.0
  3
block 4
  1

  0
SPLINE
  5
56
330
52
100
AcDbEntity
  8
Layer 1
370
     0
100
AcDbSpline
210
0.0
220
0.0
230
1.0
 70
    11
 71
     3
 72
    50
 73
    46
 74
     0
 42
0.0000000001
 43
0.0000000001
 12
1.0
 22
0.0
 32
0.0
 13
1.0
 23
0.0
 33
0.0
 40
0.0
 40
0.0
 40
0.0
 40
0.0
 40
1.0
 40
1.0
 40
1.0
 40
2.0
 40
2.0
 40
2.0
 40
3.0
 40
3.0
 40
3.0
 40
4.0
 40
4.0
 40
4.0
 40
5.0
 40
5.0
 40
5.0
 40
6.0
 40
6.0
 40
6.0
 40
7.0
 40
7.0
 40
7.0
 40
8.0
 40
8.0
 40
8.0
 40
9.0
 40
9.0
 40
9.0
 40
10.0
 40
10.0
 40
10.0
 40
11.0
 40
11.0
 40
11.0
 40
12.0
 40
12.0
 40
12.0
 40
13.0
 40
13.0
 40
13.0
 40
14.0
 40
14.0
 40
14.0
 40
15.0
 40
15.0
 40
15.0
 40
15.0
 10
53.65031733614605
 20
-44.29597623658803
 30
0.0
 10
53.65031733614605
 20
-43.78610929627005
 30
0.0
 10
53.54831726977434
 20
-43.53835673749808
 30
0.0
 10
53.09660904210484
 20
-43.39269317279219
 30
0.0
 10
53.54831726977434
 20
-43.24698514423878
 30
0.0
 10
53.65031733614605
 20
-42.99927704931432
 30
0.0
 10
53.65031733614605
 20
-42.48932118130165
 30
0.0
 10
53.65031733614605
 20
-42.48932118130165
 30
0.0
 10
53.65031733614605
 20
-40.98857739743637
 30
0.0
 10
53.65031733614605
 20
-40.98857739743637
 30
0.0
 10
53.65031733614605
 20
-40.04154190761263
 30
0.0
 10
54.05098106678203
 20
-39.88124973704961
 30
0.0
 10
55.00530862761011
 20
-39.88124973704961
 30
0.0
 10
55.00530862761011
 20
-39.88124973704961
 30
0.0
 10
55.00530862761011
 20
-40.01966569459803
 30
0.0
 10
55.00530862761011
 20
-40.01966569459803
 30
0.0
 10
54.2622288066826
 20
-40.09254194079832
 30
0.0
 10
54.13110492013882
 20
-40.3984976760666
 30
0.0
 10
54.13110492013882
 20
-40.94486943525533
 30
0.0
 10
54.13110492013882
 20
-40.94486943525533
 30
0.0
 10
54.13110492013882
 20
-42.3727814367675
 30
0.0
 10
54.13110492013882
 20
-42.3727814367675
 30
0.0
 10
54.13110492013882
 20
-42.93373733796586
 30
0.0
 10
54.04368899577673
 20
-43.24698514423878
 30
0.0
 10
53.54102519876937
 20
-43.38540110178689
 30
0.0
 10
53.54102519876937
 20
-43.38540110178689
 30
0.0
 10
53.54102519876937
 20
-43.39998524379715
 30
0.0
 10
53.54102519876937
 20
-43.39998524379715
 30
0.0
 10
54.04368899577673
 20
-43.53835673749808
 30
0.0
 10
54.13110492013882
 20
-43.85164900761851
 30
0.0
 10
54.13110492013882
 20
-44.41256044496872
 30
0.0
 10
54.13110492013882
 20
-44.41256044496872
 30
0.0
 10
54.13110492013882
 20
-45.84047244648121
 30
0.0
 10
54.13110492013882
 20
-45.84047244648121
 30
0.0
 10
54.13110492013882
 20
-46.38684420567026
 30
0.0
 10
54.2622288066826
 20
-46.69284440478572
 30
0.0
 10
55.00530862761011
 20
-46.76567618713883
 30
0.0
 10
55.00530862761011
 20
-46.76567618713883
 30
0.0
 10
55.00530862761011
 20
-46.90404768083975
 30
0.0
 10
55.00530862761011
 20
-46.90404768083975
 30
0.0
 10
54.05098106678203
 20
-46.90404768083975
 30
0.0
 10
53.65031733614605
 20
-46.74379997412424
 30
0.0
 10
53.65031733614605
 20
-45.79672002045234
 30
0.0
 10
53.65031733614605
 20
-45.79672002045234
 30
0.0
 10
53.65031733614605
 20
-44.29597623658803
 30
0.0
 10
53.65031733614605
 20
-44.29597623658803
 30
0.0
  0
HATCH
  5
57
330
52
100
AcDbEntity
  8
Layer 1
 62
   250
100
AcDbHatch
 10
0.0
 20
0.0
 30
0.0
210
0.0
220
0.0
230
1.0
  2
SOLID
 70
     1
 71
     0
 91
        1
 92
        1
 93
        1
 72
     4
 94
        3
 73
     0
 74
     1
 95
       50
 96
       46
 40
0.0
 40
0.0
 40
0.0
 40
0.0
 40
1.0
 40
1.0
 40
1.0
 40
2.0
 40
2.0
 40
2.0
 40
3.0
 40
3.0
 40
3.0
 40
4.0
 40
4.0
 40
4.0
 40
5.0
 40
5.0
 40
5.0
 40
6.0
 40
6.0
 40
6.0
 40
7.0
 40
7.0
 40
7.0
 40
8.0
 40
8.0
 40
8.0
 40
9.0
 40
9.0
 40
9.0
 40
10.0
 40
10.0
 40
10.0
 40
11.0
 40
11.0
 40
11.0
 40
12.0
 40
12.0
 40
12.0
 40
13.0
 40
13.0
 40
13.0
 40
14.0
 40
14.0
 40
14.0
 40
15.0
 40
15.0
 40
15.0
 40
15.0
 10
53.65031733614605
 20
-44.29597623658803
 10
53.65031733614605
 20
-43.78610929627005
 10
53.54831726977434
 20
-43.53835673749808
 10
53.09660904210484
 20
-43.39269317279219
 10
53.54831726977434
 20
-43.24698514423878
 10
53.65031733614605
 20
-42.99927704931432
 10
53.65031733614605
 20
-42.48932118130165
 10
53.65031733614605
 20
-42.48932118130165
 10
53.65031733614605
 20
-40.98857739743637
 10
53.65031733614605
 20
-40.98857739743637
 10
53.65031733614605
 20
-40.04154190761263
 10
54.05098106678203
 20
-39.88124973704961
 10
55.00530862761011
 20
-39.88124973704961
 10
55.00530862761011
 20
-39.88124973704961
 10
55.00530862761011
 20
-40.01966569459803
 10
55.00530862761011
 20
-40.01966569459803
 10
54.2622288066826
 20
-40.09254194079832
 10
54.13110492013882
 20
-40.3984976760666
 10
54.13110492013882
 20
-40.94486943525533
 10
54.13110492013882
 20
-40.94486943525533
 10
54.13110492013882
 20
-42.3727814367675
 10
54.13110492013882
 20
-42.3727814367675
 10
54.13110492013882
 20
-42.93373733796586
 10
54.04368899577673
 20
-43.24698514423878
 10
53.54102519876937
 20
-43.38540110178689
 10
53.54102519876937
 20
-43.38540110178689
 10
53.54102519876937
 20
-43.39998524379715
 10
53.54102519876937
 20
-43.39998524379715
 10
54.04368899577673
 20
-43.53835673749808
 10
54.13110492013882
 20
-43.85164900761851
 10
54.13110492013882
 20
-44.41256044496872
 10
54.13110492013882
 20
-44.41256044496872
 10
54.13110492013882
 20
-45.84047244648121
 10
54.13110492013882
 20
-45.84047244648121
 10
54.13110492013882
 20
-46.38684420567026
 10
54.2622288066826
 20
-46.69284440478572
 10
55.00530862761011
 20
-46.76567618713883
 10
55.00530862761011
 20
-46.76567618713883
 10
55.00530862761011
 20
-46.90404768083975
 10
55.00530862761011
 20
-46.90404768083975
 10
54.05098106678203
 20
-46.90404768083975
 10
53.65031733614605
 20
-46.74379997412424
 10
53.65031733614605
 20
-45.79672002045234
 10
53.65031733614605
 20
-45.79672002045234
 10
53.65031733614605
 20
-44.29597623658803
 10
53.65031733614605
 20
-44.29597623658803
 97
        0
 97
        0
 75
     2
 76
     1
 98
        0
  0
ENDBLK
  5
55
330
52
100
AcDbEntity
  8
0
100
AcDbBlockEnd
  0
BLOCK
  5
5A
330
58
100
AcDbEntity
  8
0
100
AcDbBlockBegin
  2
block 5
 70
     0
 10
0.0
 20
0.0
 30
0.0
  3
block 5
  1

  0
SPLINE
  5
5C
330
58
100
AcDbEntity
  8
Layer 1
370
     0
100
AcDbSpline
210
0.0
220
0.0
230
1.0
 70
    11
 71
     3
 72
    50
 73
    46
 74
     0
 42
0.0000000001
 43
0.0000000001
 12
1.0
 22
0.0
 32
0.0
 13
1.0
 23
0.0
 33
0.0
 40
0.0
 40
0.0
 40
0.0
 40
0.0
 40
1.0
 40
1.0
 40
1.0
 40
2.0
 40
2.0
 40
2.0
 40
3.0
 40
3.0
 40
3.0
 40
4.0
 40
4.0
 40
4.0
 40
5.0
 40
5.0
 40
5.0
 40
6.0
 40
6.0
 40
6.0
 40
7.0
 40
7.0
 40
7.0
 40
8.0
 40
8.0
 40
8.0
 40
9.0
 40
9.0
 40
9.0
 40
10.0
 40
10.0
 40
10.0
 40
11.0
 40
11.0
 40
11.0
 40
12.0
 40
12.0
 40
12.0
 40
13.0
 40
13.0
 40
13.0
 40
14.0
 40
14.0
 40
14.0
 40
15.0
 40
15.0
 40
15.0
 40
15.0
 10
66.60342323028748
 20
-45.51253316196717
 30
0.0
 10
66.60342323028748
 20
-44.67961864347811
 30
0.0
 10
66.7332298052665
 20
-44.21440138646133
 30
0.0
 10
67.47958459852813
 20
-44.0089293308497
 30
0.0
 10
67.47958459852813
 20
-44.0089293308497
 30
0.0
 10
67.47958459852813
 20
-43.98727289311068
 30
0.0
 10
67.47958459852813
 20
-43.98727289311068
 30
0.0
 10
66.7332298052665
 20
-43.78173481177455
 30
0.0
 10
66.60342323028748
 20
-43.31658358048291
 30
0.0
 10
66.60342323028748
 20
-42.48360303626806
 30
0.0
 10
66.60342323028748
 20
-42.48360303626806
 30
0.0
 10
66.60342323028748
 20
-40.36325290969124
 30
0.0
 10
66.60342323028748
 20
-40.36325290969124
 30
0.0
 10
66.60342323028748
 20
-39.55192880321573
 30
0.0
 10
66.40864734209553
 20
-39.09760579079185
 30
0.0
 10
65.30522542905551
 20
-38.98938962782637
 30
0.0
 10
65.30522542905551
 20
-38.98938962782637
 30
0.0
 10
65.30522542905551
 20
-38.78385154649055
 30
0.0
 10
65.30522542905551
 20
-38.78385154649055
 30
0.0
 10
66.72240158639715
 20
-38.78385154649055
 30
0.0
 10
67.31729336694362
 20
-39.02187428443442
 30
0.0
 10
67.31729336694362
 20
-40.42815619718059
 30
0.0
 10
67.31729336694362
 20
-40.42815619718059
 30
0.0
 10
67.31729336694362
 20
-42.65665646099742
 30
0.0
 10
67.31729336694362
 20
-42.65665646099742
 30
0.0
 10
67.31729336694362
 20
-43.41390549885453
 30
0.0
 10
67.46875637965942
 20
-43.78173481177455
 30
0.0
 10
68.13944569228815
 20
-43.99810111198003
 30
0.0
 10
67.46875637965942
 20
-44.21440138646133
 30
0.0
 10
67.31729336694362
 20
-44.58229672510714
 30
0.0
 10
67.31729336694362
 20
-45.33941371151457
 30
0.0
 10
67.31729336694362
 20
-45.33941371151457
 30
0.0
 10
67.31729336694362
 20
-47.56791397533044
 30
0.0
 10
67.31729336694362
 20
-47.56791397533044
 30
0.0
 10
67.31729336694362
 20
-48.97426191380241
 30
0.0
 10
66.72240158639715
 20
-49.21221862602048
 30
0.0
 10
65.30522542905551
 20
-49.21221862602048
 30
0.0
 10
65.30522542905551
 20
-49.21221862602048
 30
0.0
 10
65.30522542905551
 20
-49.00674657040886
 30
0.0
 10
65.30522542905551
 20
-49.00674657040886
 30
0.0
 10
66.40864734209553
 20
-48.89859643316885
 30
0.0
 10
66.60342323028748
 20
-48.44420739502014
 30
0.0
 10
66.60342323028748
 20
-47.63288328854399
 30
0.0
 10
66.60342323028748
 20
-47.63288328854399
 30
0.0
 10
66.60342323028748
 20
-45.51253316196717
 30
0.0
 10
66.60342323028748
 20
-45.51253316196717
 30
0.0
  0
HATCH
  5
5D
330
58
100
AcDbEntity
  8
Layer 1
 62
   250
100
AcDbHatch
 10
0.0
 20
0.0
 30
0.0
210
0.0
220
0.0
230
1.0
  2
SOLID
 70
     1
 71
     0
 91
        1
 92
        1
 93
        1
 72
     4
 94
        3
 73
     0
 74
     1
 95
       50
 96
       46
 40
0.0
 40
0.0
 40
0.0
 40
0.0
 40
1.0
 40
1.0
 40
1.0
 40
2.0
 40
2.0
 40
2.0
 40
3.0
 40
3.0
 40
3.0
 40
4.0
 40
4.0
 40
4.0
 40
5.0
 40
5.0
 40
5.0
 40
6.0
 40
6.0
 40
6.0
 40
7.0
 40
7.0
 40
7.0
 40
8.0
 40
8.0
 40
8.0
 40
9.0
 40
9.0
 40
9.0
 40
10.0
 40
10.0
 40
10.0
 40
11.0
 40
11.0
 40
11.0
 40
12.0
 40
12.0
 40
12.0
 40
13.0
 40
13.0
 40
13.0
 40
14.0
 40
14.0
 40
14.0
 40
15.0
 40
15.0
 40
15.0
 40
15.0
 10
66.60342323028748
 20
-45.51253316196717
 10
66.60342323028748
 20
-44.67961864347811
 10
66.7332298052665
 20
-44.21440138646133
 10
67.47958459852813
 20
-44.0089293308497
 10
67.47958459852813
 20
-44.0089293308497
 10
67.47958459852813
 20
-43.98727289311068
 10
67.47958459852813
 20
-43.98727289311068
 10
66.7332298052665
 20
-43.78173481177455
 10
66.60342323028748
 20
-43.31658358048291
 10
66.60342323028748
 20
-42.48360303626806
 10
66.60342323028748
 20
-42.48360303626806
 10
66.60342323028748
 20
-40.36325290969124
 10
66.60342323028748
 20
-40.36325290969124
 10
66.60342323028748
 20
-39.55192880321573
 10
66.40864734209553
 20
-39.09760579079185
 10
65.30522542905551
 20
-38.98938962782637
 10
65.30522542905551
 20
-38.98938962782637
 10
65.30522542905551
 20
-38.78385154649055
 10
65.30522542905551
 20
-38.78385154649055
 10
66.72240158639715
 20
-38.78385154649055
 10
67.31729336694362
 20
-39.02187428443442
 10
67.31729336694362
 20
-40.42815619718059
 10
67.31729336694362
 20
-40.42815619718059
 10
67.31729336694362
 20
-42.65665646099742
 10
67.31729336694362
 20
-42.65665646099742
 10
67.31729336694362
 20
-43.41390549885453
 10
67.46875637965942
 20
-43.78173481177455
 10
68.13944569228815
 20
-43.99810111198003
 10
67.46875637965942
 20
-44.21440138646133
 10
67.31729336694362
 20
-44.58229672510714
 10
67.31729336694362
 20
-45.33941371151457
 10
67.31729336694362
 20
-45.33941371151457
 10
67.31729336694362
 20
-47.56791397533044
 10
67.31729336694362
 20
-47.56791397533044
 10
67.31729336694362
 20
-48.97426191380241
 10
66.72240158639715
 20
-49.21221862602048
 10
65.30522542905551
 20
-49.21221862602048
 10
65.30522542905551
 20
-49.21221862602048
 10
65.30522542905551
 20
-49.00674657040886
 10
65.30522542905551
 20
-49.00674657040886
 10
66.40864734209553
 20
-48.89859643316885
 10
66.60342323028748
 20
-48.44420739502014
 10
66.60342323028748
 20
-47.63288328854399
 10
66.60342323028748
 20
-47.63288328854399
 10
66.60342323028748
 20
-45.51253316196717
 10
66.60342323028748
 20
-45.51253316196717
 97
        0
 97
        0
 75
     2
 76
     1
 98
        0
  0
ENDBLK
  5
5B
330
58
100
AcDbEntity
  8
0
100
AcDbBlockEnd
  0
BLOCK
  5
60
330
5E
100
AcDbEntity
  8
0
100
AcDbBlockBegin
  2
block 6
 70
     0
 10
0.0
 20
0.0
 30
0.0
  3
block 6
  1

  0
SPLINE
  5
62
330
5E
100
AcDbEntity
  8
Layer 1
370
     0
100
AcDbSpline
210
0.0
220
0.0
230
1.0
 70
    11
 71
     3
 72
    71
 73
    67
 74
     0
 42
0.0000000001
 43
0.0000000001
 12
1.0
 22
0.0
 32
0.0
 13
1.0
 23
0.0
 33
0.0
 40
0.0
 40
0.0
 40
0.0
 40
0.0
 40
1.0
 40
1.0
 40
1.0
 40
2.0
 40
2.0
 40
2.0
 40
3.0
 40
3.0
 40
3.0
 40
4.0
 40
4.0
 40
4.0
 40
5.0
 40
5.0
 40
5.0
 40
6.0
 40
6.0
 40
6.0
 40
7.0
 40
7.0
 40
7.0
 40
8.0
 40
8.0
 40
8.0
 40
9.0
 40
9.0
 40
9.0
 40
10.0
 40
10.0
 40
10.0
 40
11.0
 40
11.0
 40
11.0
 40
12.0
 40
12.0
 40
12.0
 40
13.0
 40
13.0
 40
13.0
 40
14.0
 40
14.0
 40
14.0
 40
15.0
 40
15.0
 40
15.0
 40
16.0
 40
16.0
 40
16.0
 40
17.0
 40
17.0
 40
17.0
 40
18.0
 40
18.0
 40
18.0
 40
19.0
 40
19.0
 40
19.0
 40
20.0
 40
20.0
 40
20.0
 40
21.0
 40
21.0
 40
21.0
 40
22.0
 40
22.0
 40
22.0
 40
22.0
 10
55.09666816344455
 20
-45.03230829148994
 30
0.0
 10
55.09666816344455
 20
-45.03230829148994
 30
0.0
 10
55.18078142655296
 20
-45.03230829148994
 30
0.0
 10
55.18078142655296
 20
-45.03230829148994
 30
0.0
 10
55.23255254764968
 20
-45.36228501756288
 30
0.0
 10
55.40077907386682
 20
-45.94460153296267
 30
0.0
 10
56.08016150509804
 20
-45.94460153296267
 30
0.0
 10
56.4360040468223
 20
-45.94460153296267
 30
0.0
 10
56.7077333254375
 20
-45.71169072272116
 30
0.0
 10
56.7077333254375
 20
-45.3429350180686
 30
0.0
 10
56.7077333254375
 20
-44.83177911305517
 30
0.0
 10
56.31954864170122
 20
-44.82530278669318
 30
0.0
 10
55.97661926290462
 20
-44.78644482852573
 30
0.0
 10
55.55605294736127
 20
-44.74122901338013
 30
0.0
 10
55.14843928454094
 20
-44.68302105571679
 30
0.0
 10
55.14843928454094
 20
-44.0100754610522
 30
0.0
 10
55.14843928454094
 20
-43.54425384056854
 30
0.0
 10
55.45255019496354
 20
-43.17545864612158
 30
0.0
 10
55.95722977361529
 20
-43.17545864612158
 30
0.0
 10
56.3065959889782
 20
-43.17545864612158
 30
0.0
 10
56.54598312558139
 20
-43.40189313000239
 30
0.0
 10
56.61070689940048
 20
-43.40189313000239
 30
0.0
 10
56.64952536777417
 20
-43.40189313000239
 30
0.0
 10
56.65600169413584
 20
-43.35659833526702
 30
0.0
 10
56.65600169413584
 20
-43.26600874579726
 30
0.0
 10
56.65600169413584
 20
-43.26600874579726
 30
0.0
 10
56.65600169413584
 20
-43.21427711449559
 30
0.0
 10
56.65600169413584
 20
-43.21427711449559
 30
0.0
 10
56.65600169413584
 20
-43.21427711449559
 30
0.0
 10
56.74659128360592
 20
-43.21427711449559
 30
0.0
 10
56.74659128360592
 20
-43.21427711449559
 30
0.0
 10
56.74659128360592
 20
-43.21427711449559
 30
0.0
 10
56.77245709925659
 20
-43.98420964540185
 30
0.0
 10
56.77245709925659
 20
-43.98420964540185
 30
0.0
 10
56.77245709925659
 20
-43.98420964540185
 30
0.0
 10
56.68834383614786
 20
-43.98420964540185
 30
0.0
 10
56.68834383614786
 20
-43.98420964540185
 30
0.0
 10
56.64304904141282
 20
-43.61541445095489
 30
0.0
 10
56.44895669954467
 20
-43.27896139851996
 30
0.0
 10
55.93780079453125
 20
-43.27896139851996
 30
0.0
 10
55.60782406845798
 20
-43.27896139851996
 30
0.0
 10
55.34253162640908
 20
-43.46014057746044
 30
0.0
 10
55.34253162640908
 20
-43.79655414010001
 30
0.0
 10
55.34253162640908
 20
-44.13300719253463
 30
0.0
 10
55.59487141573496
 20
-44.24950208745075
 30
0.0
 10
56.02191405763998
 20
-44.27532841330638
 30
0.0
 10
56.02191405763998
 20
-44.27532841330638
 30
0.0
 10
56.24191170495352
 20
-44.2882810660294
 30
0.0
 10
56.24191170495352
 20
-44.2882810660294
 30
0.0
 10
56.76598077289556
 20
-44.32066269783614
 30
0.0
 10
56.97950209384775
 20
-44.60530513937996
 30
0.0
 10
56.97950209384775
 20
-45.05173727057431
 30
0.0
 10
56.97950209384775
 20
-45.6534827650575
 30
0.0
 10
56.57836475738813
 20
-46.04814377515545
 30
0.0
 10
56.08016150509804
 20
-46.04814377515545
 30
0.0
 10
55.56900560008397
 20
-46.04814377515545
 30
0.0
 10
55.4137317265892
 20
-45.76989868038353
 30
0.0
 10
55.28432366874574
 20
-45.76989868038353
 30
0.0
 10
55.20021040563733
 20
-45.76989868038353
 30
0.0
 10
55.21959989492633
 20
-45.87344092257695
 30
0.0
 10
55.20668673199868
 20
-46.00936479657648
 30
0.0
 10
55.20668673199868
 20
-46.00936479657648
 30
0.0
 10
55.10962081616693
 20
-46.00936479657648
 30
0.0
 10
55.10962081616693
 20
-46.00936479657648
 30
0.0
 10
55.10962081616693
 20
-46.00936479657648
 30
0.0
 10
55.09666816344455
 20
-45.03230829148994
 30
0.0
 10
55.09666816344455
 20
-45.03230829148994
 30
0.0
  0
HATCH
  5
63
330
5E
100
AcDbEntity
  8
Layer 1
 62
   250
100
AcDbHatch
 10
0.0
 20
0.0
 30
0.0
210
0.0
220
0.0
230
1.0
  2
SOLID
 70
     1
 71
     0
 91
        1
 92
        1
 93
        1
 72
     4
 94
        3
 73
     0
 74
     1
 95
       71
 96
       67
 40
0.0
 40
0.0
 40
0.0
 40
0.0
 40
1.0
 40
1.0
 40
1.0
 40
2.0
 40
2.0
 40
2.0
 40
3.0
 40
3.0
 40
3.0
 40
4.0
 40
4.0
 40
4.0
 40
5.0
 40
5.0
 40
5.0
 40
6.0
 40
6.0
 40
6.0
 40
7.0
 40
7.0
 40
7.0
 40
8.0
 40
8.0
 40
8.0
 40
9.0
 40
9.0
 40
9.0
 40
10.0
 40
10.0
 40
10.0
 40
11.0
 40
11.0
 40
11.0
 40
12.0
 40
12.0
 40
12.0
 40
13.0
 40
13.0
 40
13.0
 40
14.0
 40
14.0
 40
14.0
 40
15.0
 40
15.0
 40
15.0
 40
16.0
 40
16.0
 40
16.0
 40
17.0
 40
17.0
 40
17.0
 40
18.0
 40
18.0
 40
18.0
 40
19.0
 40
19.0
 40
19.0
 40
20.0
 40
20.0
 40
20.0
 40
21.0
 40
21.0
 40
21.0
 40
22.0
 40
22.0
 40
22.0
 40
22.0
 10
55.09666816344455
 20
-45.03230829148994
 10
55.09666816344455
 20
-45.03230829148994
 10
55.18078142655296
 20
-45.03230829148994
 10
55.18078142655296
 20
-45.03230829148994
 10
55.23255254764968
 20
-45.36228501756288
 10
55.40077907386682
 20
-45.94460153296267
 10
56.08016150509804
 20
-45.94460153296267
 10
56.4360040468223
 20
-45.94460153296267
 10
56.7077333254375
 20
-45.71169072272116
 10
56.7077333254375
 20
-45.3429350180686
 10
56.7077333254375
 20
-44.83177911305517
 10
56.31954864170122
 20
-44.82530278669318
 10
55.97661926290462
 20
-44.78644482852573
 10
55.55605294736127
 20
-44.74122901338013
 10
55.14843928454094
 20
-44.68302105571679
 10
55.14843928454094
 20
-44.0100754610522
 10
55.14843928454094
 20
-43.54425384056854
 10
55.45255019496354
 20
-43.17545864612158
 10
55.95722977361529
 20
-43.17545864612158
 10
56.3065959889782
 20
-43.17545864612158
 10
56.54598312558139
 20
-43.40189313000239
 10
56.61070689940048
 20
-43.40189313000239
 10
56.64952536777417
 20
-43.40189313000239
 10
56.65600169413584
 20
-43.35659833526702
 10
56.65600169413584
 20
-43.26600874579726
 10
56.65600169413584
 20
-43.26600874579726
 10
56.65600169413584
 20
-43.21427711449559
 10
56.65600169413584
 20
-43.21427711449559
 10
56.65600169413584
 20
-43.21427711449559
 10
56.74659128360592
 20
-43.21427711449559
 10
56.74659128360592
 20
-43.21427711449559
 10
56.74659128360592
 20
-43.21427711449559
 10
56.77245709925659
 20
-43.98420964540185
 10
56.77245709925659
 20
-43.98420964540185
 10
56.77245709925659
 20
-43.98420964540185
 10
56.68834383614786
 20
-43.98420964540185
 10
56.68834383614786
 20
-43.98420964540185
 10
56.64304904141282
 20
-43.61541445095489
 10
56.44895669954467
 20
-43.27896139851996
 10
55.93780079453125
 20
-43.27896139851996
 10
55.60782406845798
 20
-43.27896139851996
 10
55.34253162640908
 20
-43.46014057746044
 10
55.34253162640908
 20
-43.79655414010001
 10
55.34253162640908
 20
-44.13300719253463
 10
55.59487141573496
 20
-44.24950208745075
 10
56.02191405763998
 20
-44.27532841330638
 10
56.02191405763998
 20
-44.27532841330638
 10
56.24191170495352
 20
-44.2882810660294
 10
56.24191170495352
 20
-44.2882810660294
 10
56.76598077289556
 20
-44.32066269783614
 10
56.97950209384775
 20
-44.60530513937996
 10
56.97950209384775
 20
-45.05173727057431
 10
56.97950209384775
 20
-45.6534827650575
 10
56.57836475738813
 20
-46.04814377515545
 10
56.08016150509804
 20
-46.04814377515545
 10
55.56900560008397
 20
-46.04814377515545
 10
55.4137317265892
 20
-45.76989868038353
 10
55.28432366874574
 20
-45.76989868038353
 10
55.20021040563733
 20
-45.76989868038353
 10
55.21959989492633
 20
-45.87344092257695
 10
55.20668673199868
 20
-46.00936479657648
 10
55.20668673199868
 20
-46.00936479657648
 10
55.10962081616693
 20
-46.00936479657648
 10
55.10962081616693
 20
-46.00936479657648
 10
55.10962081616693
 20
-46.00936479657648
 10
55.09666816344455
 20
-45.03230829148994
 10
55.09666816344455
 20
-45.03230829148994
 97
        0
 97
        0
 75
     2
 76
     1
 98
        0
  0
SPLINE
  5
64
330
5E
100
AcDbEntity
  8
Layer 1
370
     0
100
AcDbSpline
210
0.0
220
0.0
230
1.0
 70
    11
 71
     3
 72
    50
 73
    46
 74
     0
 42
0.0000000001
 43
0.0000000001
 12
1.0
 22
0.0
 32
0.0
 13
1.0
 23
0.0
 33
0.0
 40
0.0
 40
0.0
 40
0.0
 40
0.0
 40
1.0
 40
1.0
 40
1.0
 40
2.0
 40
2.0
 40
2.0
 40
3.0
 40
3.0
 40
3.0
 40
4.0
 40
4.0
 40
4.0
 40
5.0
 40
5.0
 40
5.0
 40
6.0
 40
6.0
 40
6.0
 40
7.0
 40
7.0
 40
7.0
 40
8.0
 40
8.0
 40
8.0
 40
9.0
 40
9.0
 40
9.0
 40
10.0
 40
10.0
 40
10.0
 40
11.0
 40
11.0
 40
11.0
 40
12.0
 40
12.0
 40
12.0
 40
13.0
 40
13.0
 40
13.0
 40
14.0
 40
14.0
 40
14.0
 40
15.0
 40
15.0
 40
15.0
 40
15.0
 10
57.92405849774242
 20
-43.42132210908643
 30
0.0
 10
57.92405849774242
 20
-43.42132210908643
 30
0.0
 10
57.36113147163228
 20
-43.42132210908643
 30
0.0
 10
57.36113147163228
 20
-43.42132210908643
 30
0.0
 10
57.36113147163228
 20
-43.42132210908643
 30
0.0
 10
57.36113147163228
 20
-43.31777986689397
 30
0.0
 10
57.36113147163228
 20
-43.31777986689397
 30
0.0
 10
58.03403757650214
 20
-43.33073251961667
 30
0.0
 10
58.27990103946668
 20
-43.04605058827845
 30
0.0
 10
58.38991960802113
 20
-42.41196295178259
 30
0.0
 10
58.38991960802113
 20
-42.41196295178259
 30
0.0
 10
58.46755654476883
 20
-42.41196295178259
 30
0.0
 10
58.46755654476883
 20
-42.41196295178259
 30
0.0
 10
58.46755654476883
 20
-42.41196295178259
 30
0.0
 10
58.46755654476883
 20
-43.31777986689397
 30
0.0
 10
58.46755654476883
 20
-43.31777986689397
 30
0.0
 10
58.46755654476883
 20
-43.31777986689397
 30
0.0
 10
59.36042080715688
 20
-43.31777986689397
 30
0.0
 10
59.36042080715688
 20
-43.31777986689397
 30
0.0
 10
59.36042080715688
 20
-43.31777986689397
 30
0.0
 10
59.36042080715688
 20
-43.42132210908643
 30
0.0
 10
59.36042080715688
 20
-43.42132210908643
 30
0.0
 10
59.36042080715688
 20
-43.42132210908643
 30
0.0
 10
58.46755654476883
 20
-43.42132210908643
 30
0.0
 10
58.46755654476883
 20
-43.42132210908643
 30
0.0
 10
58.46755654476883
 20
-43.42132210908643
 30
0.0
 10
58.46755654476883
 20
-45.5952748073948
 30
0.0
 10
58.46755654476883
 20
-45.5952748073948
 30
0.0
 10
58.46755654476883
 20
-45.86048826985362
 30
0.0
 10
58.57753562352856
 20
-45.94460153296267
 30
0.0
 10
58.7845806181194
 20
-45.94460153296267
 30
0.0
 10
59.10808101783132
 20
-45.94460153296267
 30
0.0
 10
59.25044172839715
 20
-45.64700643869679
 30
0.0
 10
59.28926019677116
 20
-45.53698787014234
 30
0.0
 10
59.28926019677116
 20
-45.53698787014234
 30
0.0
 10
59.38632611260259
 20
-45.55641684922543
 30
0.0
 10
59.38632611260259
 20
-45.55641684922543
 30
0.0
 10
59.34103131786755
 20
-45.71169072272116
 30
0.0
 10
59.15337581256604
 20
-46.04814377515545
 30
0.0
 10
58.67460153935935
 20
-46.04814377515545
 30
0.0
 10
58.22169308180334
 20
-46.04814377515545
 30
0.0
 10
57.92405849774242
 20
-45.89934622802235
 30
0.0
 10
57.92405849774242
 20
-45.47230358611829
 30
0.0
 10
57.92405849774242
 20
-45.47230358611829
 30
0.0
 10
57.92405849774242
 20
-43.42132210908643
 30
0.0
 10
57.92405849774242
 20
-43.42132210908643
 30
0.0
  0
HATCH
  5
65
330
5E
100
AcDbEntity
  8
Layer 1
 62
   250
100
AcDbHatch
 10
0.0
 20
0.0
 30
0.0
210
0.0
220
0.0
230
1.0
  2
SOLID
 70
     1
 71
     0
 91
        1
 92
        1
 93
        1
 72
     4
 94
        3
 73
     0
 74
     1
 95
       50
 96
       46
 40
0.0
 40
0.0
 40
0.0
 40
0.0
 40
1.0
 40
1.0
 40
1.0
 40
2.0
 40
2.0
 40
2.0
 40
3.0
 40
3.0
 40
3.0
 40
4.0
 40
4.0
 40
4.0
 40
5.0
 40
5.0
 40
5.0
 40
6.0
 40
6.0
 40
6.0
 40
7.0
 40
7.0
 40
7.0
 40
8.0
 40
8.0
 40
8.0
 40
9.0
 40
9.0
 40
9.0
 40
10.0
 40
10.0
 40
10.0
 40
11.0
 40
11.0
 40
11.0
 40
12.0
 40
12.0
 40
12.0
 40
13.0
 40
13.0
 40
13.0
 40
14.0
 40
14.0
 40
14.0
 40
15.0
 40
15.0
 40
15.0
 40
15.0
 10
57.92405849774242
 20
-43.42132210908643
 10
57.92405849774242
 20
-43.42132210908643
 10
57.36113147163228
 20
-43.42132210908643
 10
57.36113147163228
 20
-43.42132210908643
 10
57.36113147163228
 20
-43.42132210908643
 10
57.36113147163228
 20
-43.31777986689397
 10
57.36113147163228
 20
-43.31777986689397
 10
58.03403757650214
 20
-43.33073251961667
 10
58.27990103946668
 20
-43.04605058827845
 10
58.38991960802113
 20
-42.41196295178259
 10
58.38991960802113
 20
-42.41196295178259
 10
58.46755654476883
 20
-42.41196295178259
 10
58.46755654476883
 20
-42.41196295178259
 10
58.46755654476883
 20
-42.41196295178259
 10
58.46755654476883
 20
-43.31777986689397
 10
58.46755654476883
 20
-43.31777986689397
 10
58.46755654476883
 20
-43.31777986689397
 10
59.36042080715688
 20
-43.31777986689397
 10
59.36042080715688
 20
-43.31777986689397
 10
59.36042080715688
 20
-43.31777986689397
 10
59.36042080715688
 20
-43.42132210908643
 10
59.36042080715688
 20
-43.42132210908643
 10
59.36042080715688
 20
-43.42132210908643
 10
58.46755654476883
 20
-43.42132210908643
 10
58.46755654476883
 20
-43.42132210908643
 10
58.46755654476883
 20
-43.42132210908643
 10
58.46755654476883
 20
-45.5952748073948
 10
58.46755654476883
 20
-45.5952748073948
 10
58.46755654476883
 20
-45.86048826985362
 10
58.57753562352856
 20
-45.94460153296267
 10
58.7845806181194
 20
-45.94460153296267
 10
59.10808101783132
 20
-45.94460153296267
 10
59.25044172839715
 20
-45.64700643869679
 10
59.28926019677116
 20
-45.53698787014234
 10
59.28926019677116
 20
-45.53698787014234
 10
59.38632611260259
 20
-45.55641684922543
 10
59.38632611260259
 20
-45.55641684922543
 10
59.34103131786755
 20
-45.71169072272116
 10
59.15337581256604
 20
-46.04814377515545
 10
58.67460153935935
 20
-46.04814377515545
 10
58.22169308180334
 20
-46.04814377515545
 10
57.92405849774242
 20
-45.89934622802235
 10
57.92405849774242
 20
-45.47230358611829
 10
57.92405849774242
 20
-45.47230358611829
 10
57.92405849774242
 20
-43.42132210908643
 10
57.92405849774242
 20
-43.42132210908643
 97
        0
 97
        0
 75
     2
 76
     1
 98
        0
  0
SPLINE
  5
66
330
5E
100
AcDbEntity
  8
Layer 1
370
     0
100
AcDbSpline
210
0.0
220
0.0
230
1.0
 70
    11
 71
     3
 72
    35
 73
    31
 74
     0
 42
0.0000000001
 43
0.0000000001
 12
1.0
 22
0.0
 32
0.0
 13
1.0
 23
0.0
 33
0.0
 40
0.0
 40
0.0
 40
0.0
 40
0.0
 40
1.0
 40
1.0
 40
1.0
 40
2.0
 40
2.0
 40
2.0
 40
3.0
 40
3.0
 40
3.0
 40
4.0
 40
4.0
 40
4.0
 40
5.0
 40
5.0
 40
5.0
 40
6.0
 40
6.0
 40
6.0
 40
7.0
 40
7.0
 40
7.0
 40
8.0
 40
8.0
 40
8.0
 40
9.0
 40
9.0
 40
9.0
 40
10.0
 40
10.0
 40
10.0
 40
10.0
 10
60.31789037398016
 20
-44.96762400746493
 30
0.0
 10
60.31141404761913
 20
-45.42704828117702
 30
0.0
 10
60.37609833164318
 20
-45.94460153296267
 30
0.0
 10
60.98432015248804
 20
-45.94460153296267
 30
0.0
 10
61.52777870971941
 20
-45.94460153296267
 30
0.0
 10
61.92891604617807
 20
-45.58232215467211
 30
0.0
 10
62.01950563564847
 20
-45.05173727057431
 30
0.0
 10
62.01950563564847
 20
-45.05173727057431
 30
0.0
 10
62.12304787784157
 20
-45.05173727057431
 30
0.0
 10
62.12304787784157
 20
-45.05173727057431
 30
0.0
 10
62.01950563564847
 20
-45.64700643869679
 30
0.0
 10
61.57958932061052
 20
-46.04814377515545
 30
0.0
 10
60.98432015248804
 20
-46.04814377515545
 30
0.0
 10
60.22730078450976
 20
-46.04814377515545
 30
0.0
 10
59.696755390207
 20
-45.46582725975566
 30
0.0
 10
59.696755390207
 20
-44.61178146574067
 30
0.0
 10
59.696755390207
 20
-43.98420964540185
 30
0.0
 10
60.2014349688594
 20
-43.17545864612158
 30
0.0
 10
60.90668321574098
 20
-43.17545864612158
 30
0.0
 10
61.67009993049084
 20
-43.17545864612158
 30
0.0
 10
62.06483992017888
 20
-44.02950444013657
 30
0.0
 10
62.06483992017888
 20
-44.30123371875209
 30
0.0
 10
62.06483992017888
 20
-44.34009167692051
 30
0.0
 10
62.04541094109387
 20
-44.35944167641512
 30
0.0
 10
62.00655298292578
 20
-44.35944167641512
 30
0.0
 10
62.00655298292578
 20
-44.35944167641512
 30
0.0
 10
60.31789037398016
 20
-44.35944167641512
 30
0.0
 10
60.31789037398016
 20
-44.35944167641512
 30
0.0
 10
60.31789037398016
 20
-44.35944167641512
 30
0.0
 10
60.31789037398016
 20
-44.96762400746493
 30
0.0
 10
60.31789037398016
 20
-44.96762400746493
 30
0.0
  0
SPLINE
  5
67
330
5E
100
AcDbEntity
  8
Layer 1
370
     0
100
AcDbSpline
210
0.0
220
0.0
230
1.0
 70
    11
 71
     3
 72
    23
 73
    19
 74
     0
 42
0.0000000001
 43
0.0000000001
 12
1.0
 22
0.0
 32
0.0
 13
1.0
 23
0.0
 33
0.0
 40
0.0
 40
0.0
 40
0.0
 40
0.0
 40
1.0
 40
1.0
 40
1.0
 40
2.0
 40
2.0
 40
2.0
 40
3.0
 40
3.0
 40
3.0
 40
4.0
 40
4.0
 40
4.0
 40
5.0
 40
5.0
 40
5.0
 40
6.0
 40
6.0
 40
6.0
 40
6.0
 10
61.44366544661068
 20
-44.07479923487161
 30
0.0
 10
61.44366544661068
 20
-43.66070924568962
 30
0.0
 10
61.33372585764567
 20
-43.27896139851996
 30
0.0
 10
60.90668321574098
 20
-43.27896139851996
 30
0.0
 10
60.45373526839056
 20
-43.27896139851996
 30
0.0
 10
60.31789037398016
 20
-43.66070924568962
 30
0.0
 10
60.31789037398016
 20
-44.07479923487161
 30
0.0
 10
60.31789037398016
 20
-44.07479923487161
 30
0.0
 10
60.31789037398016
 20
-44.25593892401738
 30
0.0
 10
60.31789037398016
 20
-44.25593892401738
 30
0.0
 10
60.31789037398016
 20
-44.25593892401738
 30
0.0
 10
61.39841014167036
 20
-44.25593892401738
 30
0.0
 10
61.39841014167036
 20
-44.25593892401738
 30
0.0
 10
61.43071279388734
 20
-44.25593892401738
 30
0.0
 10
61.44366544661068
 20
-44.23654943472741
 30
0.0
 10
61.44366544661068
 20
-44.21064412928234
 30
0.0
 10
61.44366544661068
 20
-44.21064412928234
 30
0.0
 10
61.44366544661068
 20
-44.07479923487161
 30
0.0
 10
61.44366544661068
 20
-44.07479923487161
 30
0.0
  0
HATCH
  5
68
330
5E
100
AcDbEntity
  8
Layer 1
 62
   250
100
AcDbHatch
 10
0.0
 20
0.0
 30
0.0
210
0.0
220
0.0
230
1.0
  2
SOLID
 70
     1
 71
     0
 91
        2
 92
        1
 93
        1
 72
     4
 94
        3
 73
     0
 74
     1
 95
       35
 96
       31
 40
0.0
 40
0.0
 40
0.0
 40
0.0
 40
1.0
 40
1.0
 40
1.0
 40
2.0
 40
2.0
 40
2.0
 40
3.0
 40
3.0
 40
3.0
 40
4.0
 40
4.0
 40
4.0
 40
5.0
 40
5.0
 40
5.0
 40
6.0
 40
6.0
 40
6.0
 40
7.0
 40
7.0
 40
7.0
 40
8.0
 40
8.0
 40
8.0
 40
9.0
 40
9.0
 40
9.0
 40
10.0
 40
10.0
 40
10.0
 40
10.0
 10
60.31789037398016
 20
-44.96762400746493
 10
60.31141404761913
 20
-45.42704828117702
 10
60.37609833164318
 20
-45.94460153296267
 10
60.98432015248804
 20
-45.94460153296267
 10
61.52777870971941
 20
-45.94460153296267
 10
61.92891604617807
 20
-45.58232215467211
 10
62.01950563564847
 20
-45.05173727057431
 10
62.01950563564847
 20
-45.05173727057431
 10
62.12304787784157
 20
-45.05173727057431
 10
62.12304787784157
 20
-45.05173727057431
 10
62.01950563564847
 20
-45.64700643869679
 10
61.57958932061052
 20
-46.04814377515545
 10
60.98432015248804
 20
-46.04814377515545
 10
60.22730078450976
 20
-46.04814377515545
 10
59.696755390207
 20
-45.46582725975566
 10
59.696755390207
 20
-44.61178146574067
 10
59.696755390207
 20
-43.98420964540185
 10
60.2014349688594
 20
-43.17545864612158
 10
60.90668321574098
 20
-43.17545864612158
 10
61.67009993049084
 20
-43.17545864612158
 10
62.06483992017888
 20
-44.02950444013657
 10
62.06483992017888
 20
-44.30123371875209
 10
62.06483992017888
 20
-44.34009167692051
 10
62.04541094109387
 20
-44.35944167641512
 10
62.00655298292578
 20
-44.35944167641512
 10
62.00655298292578
 20
-44.35944167641512
 10
60.31789037398016
 20
-44.35944167641512
 10
60.31789037398016
 20
-44.35944167641512
 10
60.31789037398016
 20
-44.35944167641512
 10
60.31789037398016
 20
-44.96762400746493
 10
60.31789037398016
 20
-44.96762400746493
 97
        0
 97
        0
 92
        1
 93
        1
 72
     4
 94
        3
 73
     0
 74
     1
 95
       23
 96
       19
 40
0.0
 40
0.0
 40
0.0
 40
0.0
 40
1.0
 40
1.0
 40
1.0
 40
2.0
 40
2.0
 40
2.0
 40
3.0
 40
3.0
 40
3.0
 40
4.0
 40
4.0
 40
4.0
 40
5.0
 40
5.0
 40
5.0
 40
6.0
 40
6.0
 40
6.0
 40
6.0
 10
61.44366544661068
 20
-44.07479923487161
 10
61.44366544661068
 20
-43.66070924568962
 10
61.33372585764567
 20
-43.27896139851996
 10
60.90668321574098
 20
-43.27896139851996
 10
60.45373526839056
 20
-43.27896139851996
 10
60.31789037398016
 20
-43.66070924568962
 10
60.31789037398016
 20
-44.07479923487161
 10
60.31789037398016
 20
-44.07479923487161
 10
60.31789037398016
 20
-44.25593892401738
 10
60.31789037398016
 20
-44.25593892401738
 10
60.31789037398016
 20
-44.25593892401738
 10
61.39841014167036
 20
-44.25593892401738
 10
61.39841014167036
 20
-44.25593892401738
 10
61.43071279388734
 20
-44.25593892401738
 10
61.44366544661068
 20
-44.23654943472741
 10
61.44366544661068
 20
-44.21064412928234
 10
61.44366544661068
 20
-44.21064412928234
 10
61.44366544661068
 20
-44.07479923487161
 10
61.44366544661068
 20
-44.07479923487161
 97
        0
 97
        0
 75
     2
 76
     1
 98
        0
  0
SPLINE
  5
69
330
5E
100
AcDbEntity
  8
Layer 1
370
     0
100
AcDbSpline
210
0.0
220
0.0
230
1.0
 70
    11
 71
     3
 72
    53
 73
    49
 74
     0
 42
0.0000000001
 43
0.0000000001
 12
1.0
 22
0.0
 32
0.0
 13
1.0
 23
0.0
 33
0.0
 40
0.0
 40
0.0
 40
0.0
 40
0.0
 40
1.0
 40
1.0
 40
1.0
 40
2.0
 40
2.0
 40
2.0
 40
3.0
 40
3.0
 40
3.0
 40
4.0
 40
4.0
 40
4.0
 40
5.0
 40
5.0
 40
5.0
 40
6.0
 40
6.0
 40
6.0
 40
7.0
 40
7.0
 40
7.0
 40
8.0
 40
8.0
 40
8.0
 40
9.0
 40
9.0
 40
9.0
 40
10.0
 40
10.0
 40
10.0
 40
11.0
 40
11.0
 40
11.0
 40
12.0
 40
12.0
 40
12.0
 40
13.0
 40
13.0
 40
13.0
 40
14.0
 40
14.0
 40
14.0
 40
15.0
 40
15.0
 40
15.0
 40
16.0
 40
16.0
 40
16.0
 40
16.0
 10
64.86624596944127
 20
-45.49820889156305
 30
0.0
 10
64.86624596944127
 20
-45.49820889156305
 30
0.0
 10
64.85329331671889
 20
-45.49820889156305
 30
0.0
 10
64.85329331671889
 20
-45.49820889156305
 30
0.0
 10
64.75622740088681
 20
-45.71816704908251
 30
0.0
 10
64.45215598025926
 20
-46.04814377515545
 30
0.0
 10
64.0056843592702
 20
-46.04814377515545
 30
0.0
 10
63.19693335999057
 20
-46.04814377515545
 30
0.0
 10
62.67290378184357
 20
-45.36876134392423
 30
0.0
 10
62.67290378184357
 20
-44.61178146574067
 30
0.0
 10
62.67290378184357
 20
-43.9777333190405
 30
0.0
 10
63.18398070726755
 20
-43.17545864612158
 30
0.0
 10
63.96042905433021
 20
-43.17545864612158
 30
0.0
 10
64.42625067481323
 20
-43.17545864612158
 30
0.0
 10
64.73687740139253
 20
-43.53130118784648
 30
0.0
 10
64.85329331671889
 20
-43.83541209826875
 30
0.0
 10
64.85329331671889
 20
-43.83541209826875
 30
0.0
 10
64.86624596944127
 20
-43.83541209826875
 30
0.0
 10
64.86624596944127
 20
-43.83541209826875
 30
0.0
 10
64.86624596944127
 20
-43.83541209826875
 30
0.0
 10
64.86624596944127
 20
-41.48024073122517
 30
0.0
 10
64.86624596944127
 20
-41.48024073122517
 30
0.0
 10
64.86624596944127
 20
-41.48024073122517
 30
0.0
 10
64.34861373806649
 20
-41.48024073122517
 30
0.0
 10
64.34861373806649
 20
-41.48024073122517
 30
0.0
 10
64.34861373806649
 20
-41.48024073122517
 30
0.0
 10
64.34861373806649
 20
-41.37673797882712
 30
0.0
 10
64.34861373806649
 20
-41.37673797882712
 30
0.0
 10
64.34861373806649
 20
-41.37673797882712
 30
0.0
 10
64.86624596944127
 20
-41.37673797882712
 30
0.0
 10
64.86624596944127
 20
-41.37673797882712
 30
0.0
 10
65.07333045382747
 20
-41.37673797882712
 30
0.0
 10
65.28033595862327
 20
-41.36378532610441
 30
0.0
 10
65.40970452667231
 20
-41.21498777897099
 30
0.0
 10
65.40970452667231
 20
-41.21498777897099
 30
0.0
 10
65.40970452667231
 20
-45.86696459621561
 30
0.0
 10
65.40970452667231
 20
-45.86696459621561
 30
0.0
 10
65.40970452667231
 20
-45.86696459621561
 30
0.0
 10
65.85617614766106
 20
-45.86696459621561
 30
0.0
 10
65.85617614766106
 20
-45.86696459621561
 30
0.0
 10
65.85617614766106
 20
-45.86696459621561
 30
0.0
 10
65.85617614766106
 20
-45.97050683840839
 30
0.0
 10
65.85617614766106
 20
-45.97050683840839
 30
0.0
 10
65.85617614766106
 20
-45.97050683840839
 30
0.0
 10
64.86624596944127
 20
-45.97050683840839
 30
0.0
 10
64.86624596944127
 20
-45.97050683840839
 30
0.0
 10
64.86624596944127
 20
-45.97050683840839
 30
0.0
 10
64.86624596944127
 20
-45.49820889156305
 30
0.0
 10
64.86624596944127
 20
-45.49820889156305
 30
0.0
  0
SPLINE
  5
6A
330
5E
100
AcDbEntity
  8
Layer 1
370
     0
100
AcDbSpline
210
0.0
220
0.0
230
1.0
 70
    11
 71
     3
 72
    20
 73
    16
 74
     0
 42
0.0000000001
 43
0.0000000001
 12
1.0
 22
0.0
 32
0.0
 13
1.0
 23
0.0
 33
0.0
 40
0.0
 40
0.0
 40
0.0
 40
0.0
 40
1.0
 40
1.0
 40
1.0
 40
2.0
 40
2.0
 40
2.0
 40
3.0
 40
3.0
 40
3.0
 40
4.0
 40
4.0
 40
4.0
 40
5.0
 40
5.0
 40
5.0
 40
5.0
 10
64.86624596944127
 20
-44.28180473966805
 30
0.0
 10
64.86624596944127
 20
-43.80950679282336
 30
0.0
 10
64.49749026478904
 20
-43.27896139851996
 30
0.0
 10
63.96042905433021
 20
-43.27896139851996
 30
0.0
 10
63.39106519165344
 20
-43.27896139851996
 30
0.0
 10
63.293999275822
 20
-43.7253935297143
 30
0.0
 10
63.293999275822
 20
-44.61178146574067
 30
0.0
 10
63.293999275822
 20
-45.57584582831075
 30
0.0
 10
63.37163621256939
 20
-45.94460153296267
 30
0.0
 10
64.0056843592702
 20
-45.94460153296267
 30
0.0
 10
64.44567965389824
 20
-45.94460153296267
 30
0.0
 10
64.87272229580229
 20
-45.57584582831075
 30
0.0
 10
64.86624596944127
 20
-45.03878461785161
 30
0.0
 10
64.86624596944127
 20
-45.03878461785161
 30
0.0
 10
64.86624596944127
 20
-44.28180473966805
 30
0.0
 10
64.86624596944127
 20
-44.28180473966805
 30
0.0
  0
HATCH
  5
6B
330
5E
100
AcDbEntity
  8
Layer 1
 62
   250
100
AcDbHatch
 10
0.0
 20
0.0
 30
0.0
210
0.0
220
0.0
230
1.0
  2
SOLID
 70
     1
 71
     0
 91
        2
 92
        1
 93
        1
 72
     4
 94
        3
 73
     0
 74
     1
 95
       53
 96
       49
 40
0.0
 40
0.0
 40
0.0
 40
0.0
 40
1.0
 40
1.0
 40
1.0
 40
2.0
 40
2.0
 40
2.0
 40
3.0
 40
3.0
 40
3.0
 40
4.0
 40
4.0
 40
4.0
 40
5.0
 40
5.0
 40
5.0
 40
6.0
 40
6.0
 40
6.0
 40
7.0
 40
7.0
 40
7.0
 40
8.0
 40
8.0
 40
8.0
 40
9.0
 40
9.0
 40
9.0
 40
10.0
 40
10.0
 40
10.0
 40
11.0
 40
11.0
 40
11.0
 40
12.0
 40
12.0
 40
12.0
 40
13.0
 40
13.0
 40
13.0
 40
14.0
 40
14.0
 40
14.0
 40
15.0
 40
15.0
 40
15.0
 40
16.0
 40
16.0
 40
16.0
 40
16.0
 10
64.86624596944127
 20
-45.49820889156305
 10
64.86624596944127
 20
-45.49820889156305
 10
64.85329331671889
 20
-45.49820889156305
 10
64.85329331671889
 20
-45.49820889156305
 10
64.75622740088681
 20
-45.71816704908251
 10
64.45215598025926
 20
-46.04814377515545
 10
64.0056843592702
 20
-46.04814377515545
 10
63.19693335999057
 20
-46.04814377515545
 10
62.67290378184357
 20
-45.36876134392423
 10
62.67290378184357
 20
-44.61178146574067
 10
62.67290378184357
 20
-43.9777333190405
 10
63.18398070726755
 20
-43.17545864612158
 10
63.96042905433021
 20
-43.17545864612158
 10
64.42625067481323
 20
-43.17545864612158
 10
64.73687740139253
 20
-43.53130118784648
 10
64.85329331671889
 20
-43.83541209826875
 10
64.85329331671889
 20
-43.83541209826875
 10
64.86624596944127
 20
-43.83541209826875
 10
64.86624596944127
 20
-43.83541209826875
 10
64.86624596944127
 20
-43.83541209826875
 10
64.86624596944127
 20
-41.48024073122517
 10
64.86624596944127
 20
-41.48024073122517
 10
64.86624596944127
 20
-41.48024073122517
 10
64.34861373806649
 20
-41.48024073122517
 10
64.34861373806649
 20
-41.48024073122517
 10
64.34861373806649
 20
-41.48024073122517
 10
64.34861373806649
 20
-41.37673797882712
 10
64.34861373806649
 20
-41.37673797882712
 10
64.34861373806649
 20
-41.37673797882712
 10
64.86624596944127
 20
-41.37673797882712
 10
64.86624596944127
 20
-41.37673797882712
 10
65.07333045382747
 20
-41.37673797882712
 10
65.28033595862327
 20
-41.36378532610441
 10
65.40970452667231
 20
-41.21498777897099
 10
65.40970452667231
 20
-41.21498777897099
 10
65.40970452667231
 20
-45.86696459621561
 10
65.40970452667231
 20
-45.86696459621561
 10
65.40970452667231
 20
-45.86696459621561
 10
65.85617614766106
 20
-45.86696459621561
 10
65.85617614766106
 20
-45.86696459621561
 10
65.85617614766106
 20
-45.86696459621561
 10
65.85617614766106
 20
-45.97050683840839
 10
65.85617614766106
 20
-45.97050683840839
 10
65.85617614766106
 20
-45.97050683840839
 10
64.86624596944127
 20
-45.97050683840839
 10
64.86624596944127
 20
-45.97050683840839
 10
64.86624596944127
 20
-45.97050683840839
 10
64.86624596944127
 20
-45.49820889156305
 10
64.86624596944127
 20
-45.49820889156305
 97
        0
 97
        0
 92
        1
 93
        1
 72
     4
 94
        3
 73
     0
 74
     1
 95
       20
 96
       16
 40
0.0
 40
0.0
 40
0.0
 40
0.0
 40
1.0
 40
1.0
 40
1.0
 40
2.0
 40
2.0
 40
2.0
 40
3.0
 40
3.0
 40
3.0
 40
4.0
 40
4.0
 40
4.0
 40
5.0
 40
5.0
 40
5.0
 40
5.0
 10
64.86624596944127
 20
-44.28180473966805
 10
64.86624596944127
 20
-43.80950679282336
 10
64.49749026478904
 20
-43.27896139851996
 10
63.96042905433021
 20
-43.27896139851996
 10
63.39106519165344
 20
-43.27896139851996
 10
63.293999275822
 20
-43.7253935297143
 10
63.293999275822
 20
-44.61178146574067
 10
63.293999275822
 20
-45.57584582831075
 10
63.37163621256939
 20
-45.94460153296267
 10
64.0056843592702
 20
-45.94460153296267
 10
64.44567965389824
 20
-45.94460153296267
 10
64.87272229580229
 20
-45.57584582831075
 10
64.86624596944127
 20
-45.03878461785161
 10
64.86624596944127
 20
-45.03878461785161
 10
64.86624596944127
 20
-44.28180473966805
 10
64.86624596944127
 20
-44.28180473966805
 97
        0
 97
        0
 75
     2
 76
     1
 98
        0
  0
ENDBLK
  5
61
330
5E
100
AcDbEntity
  8
0
100
AcDbBlockEnd
  0
BLOCK
  5
6E
330
6C
100
AcDbEntity
  8
0
100
AcDbBlockBegin
  2
block 7
 70
     0
 10
0.0
 20
0.0
 30
0.0
  3
block 7
  1

  0
SPLINE
  5
70
330
6C
100
AcDbEntity
  8
Layer 1
370
     0
100
AcDbSpline
210
0.0
220
0.0
230
1.0
 70
    11
 71
     3
 72
    35
 73
    31
 74
     0
 42
0.0000000001
 43
0.0000000001
 12
1.0
 22
0.0
 32
0.0
 13
1.0
 23
0.0
 33
0.0
 40
0.0
 40
0.0
 40
0.0
 40
0.0
 40
1.0
 40
1.0
 40
1.0
 40
2.0
 40
2.0
 40
2.0
 40
3.0
 40
3.0
 40
3.0
 40
4.0
 40
4.0
 40
4.0
 40
5.0
 40
5.0
 40
5.0
 40
6.0
 40
6.0
 40
6.0
 40
7.0
 40
7.0
 40
7.0
 40
8.0
 40
8.0
 40
8.0
 40
9.0
 40
9.0
 40
9.0
 40
10.0
 40
10.0
 40
10.0
 40
10.0
 10
69.1949047213607
 20
-44.73966403989098
 30
0.0
 10
69.18842839499966
 20
-45.19908831360274
 30
0.0
 10
69.25311267902403
 20
-45.7166415653884
 30
0.0
 10
69.86133449986889
 20
-45.7166415653884
 30
0.0
 10
70.40479305709995
 20
-45.7166415653884
 30
0.0
 10
70.8059303935586
 20
-45.35436218709783
 30
0.0
 10
70.89651998302901
 20
-44.82377730300036
 30
0.0
 10
70.89651998302901
 20
-44.82377730300036
 30
0.0
 10
71.00006222522211
 20
-44.82377730300036
 30
0.0
 10
71.00006222522211
 20
-44.82377730300036
 30
0.0
 10
70.89651998302901
 20
-45.4190464711222
 30
0.0
 10
70.45660366799106
 20
-45.8201838075815
 30
0.0
 10
69.86133449986889
 20
-45.8201838075815
 30
0.0
 10
69.10431513189093
 20
-45.8201838075815
 30
0.0
 10
68.57373024779281
 20
-45.23786729218171
 30
0.0
 10
68.57373024779281
 20
-44.38382149816672
 30
0.0
 10
68.57373024779281
 20
-43.75624967782726
 30
0.0
 10
69.07840982644457
 20
-42.94749867854762
 30
0.0
 10
69.7836975631212
 20
-42.94749867854762
 30
0.0
 10
70.5471142778717
 20
-42.94749867854762
 30
0.0
 10
70.9418542675591
 20
-43.80154447256262
 30
0.0
 10
70.9418542675591
 20
-44.07327375117814
 30
0.0
 10
70.9418542675591
 20
-44.11213170934624
 30
0.0
 10
70.92242528847409
 20
-44.13148170884052
 30
0.0
 10
70.8835673303063
 20
-44.13148170884052
 30
0.0
 10
70.8835673303063
 20
-44.13148170884052
 30
0.0
 10
69.1949047213607
 20
-44.13148170884052
 30
0.0
 10
69.1949047213607
 20
-44.13148170884052
 30
0.0
 10
69.1949047213607
 20
-44.13148170884052
 30
0.0
 10
69.1949047213607
 20
-44.73966403989098
 30
0.0
 10
69.1949047213607
 20
-44.73966403989098
 30
0.0
  0
SPLINE
  5
71
330
6C
100
AcDbEntity
  8
Layer 1
370
     0
100
AcDbSpline
210
0.0
220
0.0
230
1.0
 70
    11
 71
     3
 72
    23
 73
    19
 74
     0
 42
0.0000000001
 43
0.0000000001
 12
1.0
 22
0.0
 32
0.0
 13
1.0
 23
0.0
 33
0.0
 40
0.0
 40
0.0
 40
0.0
 40
0.0
 40
1.0
 40
1.0
 40
1.0
 40
2.0
 40
2.0
 40
2.0
 40
3.0
 40
3.0
 40
3.0
 40
4.0
 40
4.0
 40
4.0
 40
5.0
 40
5.0
 40
5.0
 40
6.0
 40
6.0
 40
6.0
 40
6.0
 10
70.32067979399089
 20
-43.84683926729734
 30
0.0
 10
70.32067979399089
 20
-43.43274927811502
 30
0.0
 10
70.21074020502685
 20
-43.05100143094569
 30
0.0
 10
69.7836975631212
 20
-43.05100143094569
 30
0.0
 10
69.33074961577142
 20
-43.05100143094569
 30
0.0
 10
69.1949047213607
 20
-43.43274927811502
 30
0.0
 10
69.1949047213607
 20
-43.84683926729734
 30
0.0
 10
69.1949047213607
 20
-43.84683926729734
 30
0.0
 10
69.1949047213607
 20
-44.02797895644278
 30
0.0
 10
69.1949047213607
 20
-44.02797895644278
 30
0.0
 10
69.1949047213607
 20
-44.02797895644278
 30
0.0
 10
70.27542448905089
 20
-44.02797895644278
 30
0.0
 10
70.27542448905089
 20
-44.02797895644278
 30
0.0
 10
70.30772714126819
 20
-44.02797895644278
 30
0.0
 10
70.32067979399089
 20
-44.00858946715346
 30
0.0
 10
70.32067979399089
 20
-43.98268416170774
 30
0.0
 10
70.32067979399089
 20
-43.98268416170774
 30
0.0
 10
70.32067979399089
 20
-43.84683926729734
 30
0.0
 10
70.32067979399089
 20
-43.84683926729734
 30
0.0
  0
HATCH
  5
72
330
6C
100
AcDbEntity
  8
Layer 1
 62
   250
100
AcDbHatch
 10
0.0
 20
0.0
 30
0.0
210
0.0
220
0.0
230
1.0
  2
SOLID
 70
     1
 71
     0
 91
        2
 92
        1
 93
        1
 72
     4
 94
        3
 73
     0
 74
     1
 95
       35
 96
       31
 40
0.0
 40
0.0
 40
0.0
 40
0.0
 40
1.0
 40
1.0
 40
1.0
 40
2.0
 40
2.0
 40
2.0
 40
3.0
 40
3.0
 40
3.0
 40
4.0
 40
4.0
 40
4.0
 40
5.0
 40
5.0
 40
5.0
 40
6.0
 40
6.0
 40
6.0
 40
7.0
 40
7.0
 40
7.0
 40
8.0
 40
8.0
 40
8.0
 40
9.0
 40
9.0
 40
9.0
 40
10.0
 40
10.0
 40
10.0
 40
10.0
 10
69.1949047213607
 20
-44.73966403989098
 10
69.18842839499966
 20
-45.19908831360274
 10
69.25311267902403
 20
-45.7166415653884
 10
69.86133449986889
 20
-45.7166415653884
 10
70.40479305709995
 20
-45.7166415653884
 10
70.8059303935586
 20
-45.35436218709783
 10
70.89651998302901
 20
-44.82377730300036
 10
70.89651998302901
 20
-44.82377730300036
 10
71.00006222522211
 20
-44.82377730300036
 10
71.00006222522211
 20
-44.82377730300036
 10
70.89651998302901
 20
-45.4190464711222
 10
70.45660366799106
 20
-45.8201838075815
 10
69.86133449986889
 20
-45.8201838075815
 10
69.10431513189093
 20
-45.8201838075815
 10
68.57373024779281
 20
-45.23786729218171
 10
68.57373024779281
 20
-44.38382149816672
 10
68.57373024779281
 20
-43.75624967782726
 10
69.07840982644457
 20
-42.94749867854762
 10
69.7836975631212
 20
-42.94749867854762
 10
70.5471142778717
 20
-42.94749867854762
 10
70.9418542675591
 20
-43.80154447256262
 10
70.9418542675591
 20
-44.07327375117814
 10
70.9418542675591
 20
-44.11213170934624
 10
70.92242528847409
 20
-44.13148170884052
 10
70.8835673303063
 20
-44.13148170884052
 10
70.8835673303063
 20
-44.13148170884052
 10
69.1949047213607
 20
-44.13148170884052
 10
69.1949047213607
 20
-44.13148170884052
 10
69.1949047213607
 20
-44.13148170884052
 10
69.1949047213607
 20
-44.73966403989098
 10
69.1949047213607
 20
-44.73966403989098
 97
        0
 97
        0
 92
        1
 93
        1
 72
     4
 94
        3
 73
     0
 74
     1
 95
       23
 96
       19
 40
0.0
 40
0.0
 40
0.0
 40
0.0
 40
1.0
 40
1.0
 40
1.0
 40
2.0
 40
2.0
 40
2.0
 40
3.0
 40
3.0
 40
3.0
 40
4.0
 40
4.0
 40
4.0
 40
5.0
 40
5.0
 40
5.0
 40
6.0
 40
6.0
 40
6.0
 40
6.0
 10
70.32067979399089
 20
-43.84683926729734
 10
70.32067979399089
 20
-43.43274927811502
 10
70.21074020502685
 20
-43.05100143094569
 10
69.7836975631212
 20
-43.05100143094569
 10
69.33074961577142
 20
-43.05100143094569
 10
69.1949047213607
 20
-43.43274927811502
 10
69.1949047213607
 20
-43.84683926729734
 10
69.1949047213607
 20
-43.84683926729734
 10
69.1949047213607
 20
-44.02797895644278
 10
69.1949047213607
 20
-44.02797895644278
 10
69.1949047213607
 20
-44.02797895644278
 10
70.27542448905089
 20
-44.02797895644278
 10
70.27542448905089
 20
-44.02797895644278
 10
70.30772714126819
 20
-44.02797895644278
 10
70.32067979399089
 20
-44.00858946715346
 10
70.32067979399089
 20
-43.98268416170774
 10
70.32067979399089
 20
-43.98268416170774
 10
70.32067979399089
 20
-43.84683926729734
 10
70.32067979399089
 20
-43.84683926729734
 97
        0
 97
        0
 75
     2
 76
     1
 98
        0
  0
SPLINE
  5
73
330
6C
100
AcDbEntity
  8
Layer 1
370
     0
100
AcDbSpline
210
0.0
220
0.0
230
1.0
 70
    11
 71
     3
 72
    50
 73
    46
 74
     0
 42
0.0000000001
 43
0.0000000001
 12
1.0
 22
0.0
 32
0.0
 13
1.0
 23
0.0
 33
0.0
 40
0.0
 40
0.0
 40
0.0
 40
0.0
 40
1.0
 40
1.0
 40
1.0
 40
2.0
 40
2.0
 40
2.0
 40
3.0
 40
3.0
 40
3.0
 40
4.0
 40
4.0
 40
4.0
 40
5.0
 40
5.0
 40
5.0
 40
6.0
 40
6.0
 40
6.0
 40
7.0
 40
7.0
 40
7.0
 40
8.0
 40
8.0
 40
8.0
 40
9.0
 40
9.0
 40
9.0
 40
10.0
 40
10.0
 40
10.0
 40
11.0
 40
11.0
 40
11.0
 40
12.0
 40
12.0
 40
12.0
 40
13.0
 40
13.0
 40
13.0
 40
14.0
 40
14.0
 40
14.0
 40
15.0
 40
15.0
 40
15.0
 40
15.0
 10
71.82808424440626
 20
-43.19336214151216
 30
0.0
 10
71.82808424440626
 20
-43.19336214151216
 30
0.0
 10
71.26519670809115
 20
-43.19336214151216
 30
0.0
 10
71.26519670809115
 20
-43.19336214151216
 30
0.0
 10
71.26519670809115
 20
-43.19336214151216
 30
0.0
 10
71.26519670809115
 20
-43.0898198993197
 30
0.0
 10
71.26519670809115
 20
-43.0898198993197
 30
0.0
 10
71.93810281296071
 20
-43.10277255204208
 30
0.0
 10
72.18396627592556
 20
-42.81809062070386
 30
0.0
 10
72.29398484448001
 20
-42.184002984208
 30
0.0
 10
72.29398484448001
 20
-42.184002984208
 30
0.0
 10
72.37162178122675
 20
-42.184002984208
 30
0.0
 10
72.37162178122675
 20
-42.184002984208
 30
0.0
 10
72.37162178122675
 20
-42.184002984208
 30
0.0
 10
72.37162178122675
 20
-43.0898198993197
 30
0.0
 10
72.37162178122675
 20
-43.0898198993197
 30
0.0
 10
72.37162178122675
 20
-43.0898198993197
 30
0.0
 10
73.26448604361576
 20
-43.0898198993197
 30
0.0
 10
73.26448604361576
 20
-43.0898198993197
 30
0.0
 10
73.26448604361576
 20
-43.0898198993197
 30
0.0
 10
73.26448604361576
 20
-43.19336214151216
 30
0.0
 10
73.26448604361576
 20
-43.19336214151216
 30
0.0
 10
73.26448604361576
 20
-43.19336214151216
 30
0.0
 10
72.37162178122675
 20
-43.19336214151216
 30
0.0
 10
72.37162178122675
 20
-43.19336214151216
 30
0.0
 10
72.37162178122675
 20
-43.19336214151216
 30
0.0
 10
72.37162178122675
 20
-45.36731483982053
 30
0.0
 10
72.37162178122675
 20
-45.36731483982053
 30
0.0
 10
72.37162178122675
 20
-45.63252830227967
 30
0.0
 10
72.4815613701924
 20
-45.7166415653884
 30
0.0
 10
72.68864585457732
 20
-45.7166415653884
 30
0.0
 10
73.01214625428987
 20
-45.7166415653884
 30
0.0
 10
73.15446747506131
 20
-45.4190464711222
 30
0.0
 10
73.19332543322972
 20
-45.30902790256775
 30
0.0
 10
73.19332543322972
 20
-45.30902790256775
 30
0.0
 10
73.29039134906179
 20
-45.32845688165148
 30
0.0
 10
73.29039134906179
 20
-45.32845688165148
 30
0.0
 10
73.24505706453107
 20
-45.48373075514689
 30
0.0
 10
73.05740155922987
 20
-45.8201838075815
 30
0.0
 10
72.5786272860235
 20
-45.8201838075815
 30
0.0
 10
72.12575831826254
 20
-45.8201838075815
 30
0.0
 10
71.82808424440626
 20
-45.67138626044776
 30
0.0
 10
71.82808424440626
 20
-45.2443436185437
 30
0.0
 10
71.82808424440626
 20
-45.2443436185437
 30
0.0
 10
71.82808424440626
 20
-43.19336214151216
 30
0.0
 10
71.82808424440626
 20
-43.19336214151216
 30
0.0
  0
HATCH
  5
74
330
6C
100
AcDbEntity
  8
Layer 1
 62
   250
100
AcDbHatch
 10
0.0
 20
0.0
 30
0.0
210
0.0
220
0.0
230
1.0
  2
SOLID
 70
     1
 71
     0
 91
        1
 92
        1
 93
        1
 72
     4
 94
        3
 73
     0
 74
     1
 95
       50
 96
       46
 40
0.0
 40
0.0
 40
0.0
 40
0.0
 40
1.0
 40
1.0
 40
1.0
 40
2.0
 40
2.0
 40
2.0
 40
3.0
 40
3.0
 40
3.0
 40
4.0
 40
4.0
 40
4.0
 40
5.0
 40
5.0
 40
5.0
 40
6.0
 40
6.0
 40
6.0
 40
7.0
 40
7.0
 40
7.0
 40
8.0
 40
8.0
 40
8.0
 40
9.0
 40
9.0
 40
9.0
 40
10.0
 40
10.0
 40
10.0
 40
11.0
 40
11.0
 40
11.0
 40
12.0
 40
12.0
 40
12.0
 40
13.0
 40
13.0
 40
13.0
 40
14.0
 40
14.0
 40
14.0
 40
15.0
 40
15.0
 40
15.0
 40
15.0
 10
71.82808424440626
 20
-43.19336214151216
 10
71.82808424440626
 20
-43.19336214151216
 10
71.26519670809115
 20
-43.19336214151216
 10
71.26519670809115
 20
-43.19336214151216
 10
71.26519670809115
 20
-43.19336214151216
 10
71.26519670809115
 20
-43.0898198993197
 10
71.26519670809115
 20
-43.0898198993197
 10
71.93810281296071
 20
-43.10277255204208
 10
72.18396627592556
 20
-42.81809062070386
 10
72.29398484448001
 20
-42.184002984208
 10
72.29398484448001
 20
-42.184002984208
 10
72.37162178122675
 20
-42.184002984208
 10
72.37162178122675
 20
-42.184002984208
 10
72.37162178122675
 20
-42.184002984208
 10
72.37162178122675
 20
-43.0898198993197
 10
72.37162178122675
 20
-43.0898198993197
 10
72.37162178122675
 20
-43.0898198993197
 10
73.26448604361576
 20
-43.0898198993197
 10
73.26448604361576
 20
-43.0898198993197
 10
73.26448604361576
 20
-43.0898198993197
 10
73.26448604361576
 20
-43.19336214151216
 10
73.26448604361576
 20
-43.19336214151216
 10
73.26448604361576
 20
-43.19336214151216
 10
72.37162178122675
 20
-43.19336214151216
 10
72.37162178122675
 20
-43.19336214151216
 10
72.37162178122675
 20
-43.19336214151216
 10
72.37162178122675
 20
-45.36731483982053
 10
72.37162178122675
 20
-45.36731483982053
 10
72.37162178122675
 20
-45.63252830227967
 10
72.4815613701924
 20
-45.7166415653884
 10
72.68864585457732
 20
-45.7166415653884
 10
73.01214625428987
 20
-45.7166415653884
 10
73.15446747506131
 20
-45.4190464711222
 10
73.19332543322972
 20
-45.30902790256775
 10
73.19332543322972
 20
-45.30902790256775
 10
73.29039134906179
 20
-45.32845688165148
 10
73.29039134906179
 20
-45.32845688165148
 10
73.24505706453107
 20
-45.48373075514689
 10
73.05740155922987
 20
-45.8201838075815
 10
72.5786272860235
 20
-45.8201838075815
 10
72.12575831826254
 20
-45.8201838075815
 10
71.82808424440626
 20
-45.67138626044776
 10
71.82808424440626
 20
-45.2443436185437
 10
71.82808424440626
 20
-45.2443436185437
 10
71.82808424440626
 20
-43.19336214151216
 10
71.82808424440626
 20
-43.19336214151216
 97
        0
 97
        0
 75
     2
 76
     1
 98
        0
  0
ENDBLK
  5
6F
330
6C
100
AcDbEntity
  8
0
100
AcDbBlockEnd
  0
ENDSEC
  0
SECTION
  2
ENTITIES
  0
INSERT
  5
42
330
1F
100
AcDbEntity
  8
Layer 1
100
AcDbBlockReference
  2
block 2
 10
0.0
 20
0.0
 30
0.0
  0
ENDSEC
  0
SECTION
  2
OBJECTS
  0
DICTIONARY
  5
C
330
0
100
AcDbDictionary
281
     1
  3
ACAD_GROUP
350
D
  3
ACAD_LAYOUT
350
1A
  3
ACAD_MATERIAL
350
3B
  3
ACAD_MLEADERSTYLE
350
76
  3
ACAD_MLINESTYLE
350
17
  3
ACAD_PLOTSETTINGS
350
19
  3
ACAD_PLOTSTYLENAME
350
E
  3
ACAD_TABLESTYLE
350
75
  3
ACAD_VISUALSTYLE
350
2A
  0
SUN
  5
3F
330
29
100
AcDbSun
 90
        1
290
     0
 63
     7
421
 16777215
 40
1.0
291
     1
 91
  2455826
 92
 54000000
292
     0
 70
     2
 71
   256
280
     1
  0
DICTIONARY
  5
D
102
{ACAD_REACTORS
330
C
102
}
330
C
100
AcDbDictionary
281
     1
  0
DICTIONARY
  5
1A
102
{ACAD_REACTORS
330
C
102
}
330
C
100
AcDbDictionary
281
     1
  3
Layout1
350
1E
  3
Layout2
350
26
  3
Model
350
22
  0
DICTIONARY
  5
3B
102
{ACAD_REACTORS
330
C
102
}
330
C
100
AcDbDictionary
281
     1
  3
ByBlock
350
3D
  3
ByLayer
350
3C
  3
Global
350
3E
  0
DICTIONARY
  5
76
102
{ACAD_REACTORS
330
C
102
}
330
C
100
AcDbDictionary
281
     1
  0
DICTIONARY
  5
17
102
{ACAD_REACTORS
330
C
102
}
330
C
100
AcDbDictionary
281
     1
  3
Standard
350
18
  0
DICTIONARY
  5
19
102
{ACAD_REACTORS
330
C
102
}
330
C
100
AcDbDictionary
281
     1
  0
ACDBDICTIONARYWDFLT
  5
E
102
{ACAD_REACTORS
330
C
102
}
330
C
100
AcDbDictionary
281
     1
  3
Normal
350
F
100
AcDbDictionaryWithDefault
340
F
  0
DICTIONARY
  5
75
102
{ACAD_REACTORS
330
C
102
}
330
C
100
AcDbDictionary
281
     1
  0
DICTIONARY
  5
2A
102
{ACAD_REACTORS
330
C
102
}
330
C
100
AcDbDictionary
281
     1
  3
2dWireframe
350
2F
  3
3D Hidden
350
31
  3
3dWireframe
350
30
  3
Basic
350
32
  3
Brighten
350
36
  3
ColorChange
350
3A
  3
Conceptual
350
34
  3
Dim
350
35
  3
Facepattern
350
39
  3
Flat
350
2B
  3
FlatWithEdges
350
2C
  3
Gouraud
350
2D
  3
GouraudWithEdges
350
2E
  3
Linepattern
350
38
  3
Realistic
350
33
  3
Thicken
350
37
  0
LAYOUT
  5
1E
102
{ACAD_REACTORS
330
1A
102
}
330
1A
100
AcDbPlotSettings
  1

  2
none_device
  4

  6

 40
0.0
 41
0.0
 42
0.0
 43
0.0
 44
0.0
 45
0.0
 46
0.0
 47
0.0
 48
0.0
 49
0.0
140
0.0
141
0.0
142
1.0
143
1.0
 70
   688
 72
     0
 73
     0
 74
     5
  7

 75
    16
 76
     0
 77
     2
 78
   300
147
1.0
148
0.0
149
0.0
100
AcDbLayout
  1
Layout1
 70
     1
 71
     1
 10
0.0
 20
0.0
 11
12.0
 21
9.0
 12
0.0
 22
0.0
 32
0.0
 14
1.000000000000000E+20
 24
1.000000000000000E+20
 34
1.000000000000000E+20
 15
-1.000000000000000E+20
 25
-1.000000000000000E+20
 35
-1.000000000000000E+20
146
0.0
 13
0.0
 23
0.0
 33
0.0
 16
1.0
 26
0.0
 36
0.0
 17
0.0
 27
1.0
 37
0.0
 76
     0
330
1B
  0
LAYOUT
  5
26
102
{ACAD_REACTORS
330
1A
102
}
330
1A
100
AcDbPlotSettings
  1

  2
none_device
  4

  6

 40
0.0
 41
0.0
 42
0.0
 43
0.0
 44
0.0
 45
0.0
 46
0.0
 47
0.0
 48
0.0
 49
0.0
140
0.0
141
0.0
142
1.0
143
1.0
 70
   688
 72
     0
 73
     0
 74
     5
  7

 75
    16
 76
     0
 77
     2
 78
   300
147
1.0
148
0.0
149
0.0
100
AcDbLayout
  1
Layout2
 70
     1
 71
     2
 10
0.0
 20
0.0
 11
0.0
 21
0.0
 12
0.0
 22
0.0
 32
0.0
 14
0.0
 24
0.0
 34
0.0
 15
0.0
 25
0.0
 35
0.0
146
0.0
 13
0.0
 23
0.0
 33
0.0
 16
1.0
 26
0.0
 36
0.0
 17
0.0
 27
1.0
 37
0.0
 76
     0
330
23
  0
LAYOUT
  5
22
102
{ACAD_REACTORS
330
1A
102
}
330
1A
100
AcDbPlotSettings
  1

  2
none_device
  4

  6

 40
0.0
 41
0.0
 42
0.0
 43
0.0
 44
0.0
 45
0.0
 46
0.0
 47
0.0
 48
0.0
 49
0.0
140
0.0
141
0.0
142
1.0
143
1.0
 70
  1712
 72
     0
 73
     0
 74
     0
  7

 75
     0
 76
     0
 77
     2
 78
   300
147
1.0
148
0.0
149
0.0
100
AcDbLayout
  1
Model
 70
     1
 71
     0
 10
0.0
 20
0.0
 11
12.0
 21
9.0
 12
0.0
 22
0.0
 32
0.0
 14
1.000000000000000E+20
 24
1.000000000000000E+20
 34
1.000000000000000E+20
 15
-1.000000000000000E+20
 25
-1.000000000000000E+20
 35
-1.000000000000000E+20
146
0.0
 13
0.0
 23
0.0
 33
0.0
 16
1.0
 26
0.0
 36
0.0
 17
0.0
 27
1.0
 37
0.0
 76
     0
330
1F
331
29
  0
MATERIAL
  5
3D
102
{ACAD_REACTORS
330
3B
102
}
330
3B
100
AcDbMaterial
  1
ByBlock
 72
     1
 94
      127
  0
MATERIAL
  5
3C
102
{ACAD_REACTORS
330
3B
102
}
330
3B
100
AcDbMaterial
  1
ByLayer
 72
     1
 94
      127
  0
MATERIAL
  5
3E
102
{ACAD_REACTORS
330
3B
102
}
330
3B
100
AcDbMaterial
  1
Global
 72
     1
 94
      127
  0
MLINESTYLE
  5
18
102
{ACAD_REACTORS
330
17
102
}
330
17
100
AcDbMlineStyle
  2
Standard
 70
     0
  3

 62
   256
 51
90.0
 52
90.0
 71
     2
 49
0.5
 62
   256
  6
BYLAYER
 49
-0.5
 62
   256
  6
BYLAYER
  0
ACDBPLACEHOLDER
  5
F
102
{ACAD_REACTORS
330
E
102
}
330
E
  0
VISUALSTYLE
  5
2F
102
{ACAD_REACTORS
330
2A
102
}
330
2A
100
AcDbVisualStyle
  2
2dWireframe
 70
     4
177
     2
291
     0
 71
     0
176
     1
 72
     2
176
     1
 73
     0
176
     1
 90
        0
176
     1
 40
-0.6
176
     1
 41
-30.0
176
     1
 62
     5
 63
     7
421
 16777215
176
     1
 74
     1
176
     1
 91
        4
176
     1
 64
     7
176
     1
 65
   257
176
     1
 75
     1
176
     1
175
     1
176
     1
 42
1.0
176
     1
 92
        0
176
     1
 66
   257
176
     1
 43
1.0
176
     1
 76
     1
176
     1
 77
     6
176
     1
 78
     2
176
     1
 67
     7
176
     1
 79
     5
176
     1
170
     0
176
     1
171
     0
176
     1
290
     0
176
     1
 93
        1
176
     1
 44
0.0
176
     1
173
     0
176
     1
  0
VISUALSTYLE
  5
31
102
{ACAD_REACTORS
330
2A
102
}
330
2A
100
AcDbVisualStyle
  2
3D Hidden
 70
     6
177
     2
291
     0
 71
     1
176
     1
 72
     2
176
     1
 73
     2
176
     1
 90
        0
176
     1
 40
-0.6
176
     1
 41
-30.0
176
     1
 62
     5
 63
     7
421
 16777215
176
     1
 74
     2
176
     1
 91
        2
176
     1
 64
     7
176
     1
 65
   257
176
     1
 75
     2
176
     1
175
     1
176
     1
 42
40.0
176
     1
 92
        0
176
     1
 66
   257
176
     1
 43
1.0
176
     1
 76
     1
176
     1
 77
     6
176
     1
 78
     2
176
     1
 67
     7
176
     1
 79
     3
176
     1
170
     0
176
     1
171
     0
176
     1
290
     0
176
     1
 93
        1
176
     1
 44
0.0
176
     1
173
     0
176
     1
  0
VISUALSTYLE
  5
30
102
{ACAD_REACTORS
330
2A
102
}
330
2A
100
AcDbVisualStyle
  2
3dWireframe
 70
     5
177
     2
291
     0
 71
     0
176
     1
 72
     2
176
     1
 73
     0
176
     1
 90
        0
176
     1
 40
-0.6
176
     1
 41
-30.0
176
     1
 62
     5
 63
     7
421
 16777215
176
     1
 74
     1
176
     1
 91
        4
176
     1
 64
     7
176
     1
 65
   257
176
     1
 75
     1
176
     1
175
     1
176
     1
 42
1.0
176
     1
 92
        0
176
     1
 66
   257
176
     1
 43
1.0
176
     1
 76
     1
176
     1
 77
     6
176
     1
 78
     2
176
     1
 67
     7
176
     1
 79
     5
176
     1
170
     0
176
     1
171
     0
176
     1
290
     0
176
     1
 93
        1
176
     1
 44
0.0
176
     1
173
     0
176
     1
  0
VISUALSTYLE
  5
32
102
{ACAD_REACTORS
330
2A
102
}
330
2A
100
AcDbVisualStyle
  2
Basic
 70
     7
177
     2
291
     1
 71
     1
176
     1
 72
     0
176
     1
 73
     1
176
     1
 90
        0
176
     1
 40
-0.6
176
     1
 41
-30.0
176
     1
 62
     5
 63
     7
421
 16777215
176
     1
 74
     0
176
     1
 91
        4
176
     1
 64
     7
176
     1
 65
   257
176
     1
 75
     1
176
     1
175
     1
176
     1
 42
1.0
176
     1
 92
        8
176
     1
 66
     7
176
     1
 43
1.0
176
     1
 76
     1
176
     1
 77
     6
176
     1
 78
     2
176
     1
 67
     7
176
     1
 79
     5
176
     1
170
     0
176
     1
171
     0
176
     1
290
     0
176
     1
 93
        1
176
     1
 44
0.0
176
     1
173
     0
176
     1
  0
VISUALSTYLE
  5
36
102
{ACAD_REACTORS
330
2A
102
}
330
2A
100
AcDbVisualStyle
  2
Brighten
 70
    12
177
     2
291
     1
 71
     2
176
     1
 72
     2
176
     1
 73
     0
176
     1
 90
        0
176
     1
 40
-0.6
176
     1
 41
-30.0
176
     1
 62
     5
 63
     7
421
 16777215
176
     1
 74
     1
176
     1
 91
        4
176
     1
 64
     7
176
     1
 65
   257
176
     1
 75
     1
176
     1
175
     1
176
     1
 42
1.0
176
     1
 92
        8
176
     1
 66
     7
176
     1
 43
1.0
176
     1
 76
     1
176
     1
 77
     6
176
     1
 78
     2
176
     1
 67
     7
176
     1
 79
     5
176
     1
170
     0
176
     1
171
     0
176
     1
290
     0
176
     1
 93
        1
176
     1
 44
50.0
176
     1
173
     0
176
     1
  0
VISUALSTYLE
  5
3A
102
{ACAD_REACTORS
330
2A
102
}
330
2A
100
AcDbVisualStyle
  2
ColorChange
 70
    16
177
     2
291
     1
 71
     2
176
     1
 72
     2
176
     1
 73
     3
176
     1
 90
        0
176
     1
 40
-0.6
176
     1
 41
-30.0
176
     1
 62
     5
 63
     8
421
  8421504
176
     1
 74
     1
176
     1
 91
        4
176
     1
 64
     7
176
     1
 65
   257
176
     1
 75
     1
176
     1
175
     1
176
     1
 42
1.0
176
     1
 92
        8
176
     1
 66
     8
424
  8421504
176
     1
 43
1.0
176
     1
 76
     1
176
     1
 77
     6
176
     1
 78
     2
176
     1
 67
     7
176
     1
 79
     5
176
     1
170
     0
176
     1
171
     0
176
     1
290
     0
176
     1
 93
        1
176
     1
 44
0.0
176
     1
173
     0
176
     1
  0
VISUALSTYLE
  5
34
102
{ACAD_REACTORS
330
2A
102
}
330
2A
100
AcDbVisualStyle
  2
Conceptual
 70
     9
177
     2
291
     0
 71
     3
176
     1
 72
     2
176
     1
 73
     0
176
     1
 90
        0
176
     1
 40
-0.6
176
     1
 41
-30.0
176
     1
 62
     5
 63
     7
421
 16777215
176
     1
 74
     2
176
     1
 91
        2
176
     1
 64
     7
176
     1
 65
   257
176
     1
 75
     1
176
     1
175
     1
176
     1
 42
40.0
176
     1
 92
        8
176
     1
 66
     7
176
     1
 43
1.0
176
     1
 76
     1
176
     1
 77
     6
176
     1
 78
     2
176
     1
 67
     7
176
     1
 79
     3
176
     1
170
     0
176
     1
171
     0
176
     1
290
     0
176
     1
 93
        1
176
     1
 44
0.0
176
     1
173
     0
176
     1
  0
VISUALSTYLE
  5
35
102
{ACAD_REACTORS
330
2A
102
}
330
2A
100
AcDbVisualStyle
  2
Dim
 70
    11
177
     2
291
     1
 71
     2
176
     1
 72
     2
176
     1
 73
     0
176
     1
 90
        0
176
     1
 40
-0.6
176
     1
 41
-30.0
176
     1
 62
     5
 63
     7
421
 16777215
176
     1
 74
     1
176
     1
 91
        4
176
     1
 64
     7
176
     1
 65
   257
176
     1
 75
     1
176
     1
175
     1
176
     1
 42
1.0
176
     1
 92
        8
176
     1
 66
     7
176
     1
 43
1.0
176
     1
 76
     1
176
     1
 77
     6
176
     1
 78
     2
176
     1
 67
     7
176
     1
 79
     5
176
     1
170
     0
176
     1
171
     0
176
     1
290
     0
176
     1
 93
        1
176
     1
 44
-50.0
176
     1
173
     0
176
     1
  0
VISUALSTYLE
  5
39
102
{ACAD_REACTORS
330
2A
102
}
330
2A
100
AcDbVisualStyle
  2
Facepattern
 70
    15
177
     2
291
     1
 71
     2
176
     1
 72
     2
176
     1
 73
     0
176
     1
 90
        0
176
     1
 40
-0.6
176
     1
 41
-30.0
176
     1
 62
     5
 63
     7
421
 16777215
176
     1
 74
     1
176
     1
 91
        4
176
     1
 64
     7
176
     1
 65
   257
176
     1
 75
     1
176
     1
175
     1
176
     1
 42
1.0
176
     1
 92
        8
176
     1
 66
     7
176
     1
 43
1.0
176
     1
 76
     1
176
     1
 77
     6
176
     1
 78
     2
176
     1
 67
     7
176
     1
 79
     5
176
     1
170
     0
176
     1
171
     0
176
     1
290
     0
176
     1
 93
        1
176
     1
 44
0.0
176
     1
173
     0
176
     1
  0
VISUALSTYLE
  5
2B
102
{ACAD_REACTORS
330
2A
102
}
330
2A
100
AcDbVisualStyle
  2
Flat
 70
     0
177
     2
291
     1
 71
     2
176
     1
 72
     1
176
     1
 73
     1
176
     1
 90
        2
176
     1
 40
-0.6
176
     1
 41
30.0
176
     1
 62
     5
 63
     7
421
 16777215
176
     1
 74
     0
176
     1
 91
        4
176
     1
 64
     7
176
     1
 65
   257
176
     1
 75
     1
176
     1
175
     1
176
     1
 42
1.0
176
     1
 92
        8
176
     1
 66
     7
176
     1
 43
1.0
176
     1
 76
     1
176
     1
 77
     6
176
     1
 78
     2
176
     1
 67
     7
176
     1
 79
     5
176
     1
170
     0
176
     1
171
     0
176
     1
290
     0
176
     1
 93
       13
176
     1
 44
0.0
176
     1
173
     0
176
     1
  0
VISUALSTYLE
  5
2C
102
{ACAD_REACTORS
330
2A
102
}
330
2A
100
AcDbVisualStyle
  2
FlatWithEdges
 70
     1
177
     2
291
     1
 71
     2
176
     1
 72
     1
176
     1
 73
     1
176
     1
 90
        2
176
     1
 40
-0.6
176
     1
 41
30.0
176
     1
 62
     5
 63
     7
421
 16777215
176
     1
 74
     1
176
     1
 91
        4
176
     1
 64
     7
176
     1
 65
   257
176
     1
 75
     1
176
     1
175
     1
176
     1
 42
1.0
176
     1
 92
        0
176
     1
 66
   257
176
     1
 43
1.0
176
     1
 76
     1
176
     1
 77
     6
176
     1
 78
     2
176
     1
 67
     7
176
     1
 79
     5
176
     1
170
     0
176
     1
171
     0
176
     1
290
     0
176
     1
 93
       13
176
     1
 44
0.0
176
     1
173
     0
176
     1
  0
VISUALSTYLE
  5
2D
102
{ACAD_REACTORS
330
2A
102
}
330
2A
100
AcDbVisualStyle
  2
Gouraud
 70
     2
177
     2
291
     1
 71
     2
176
     1
 72
     2
176
     1
 73
     1
176
     1
 90
        2
176
     1
 40
-0.6
176
     1
 41
30.0
176
     1
 62
     5
 63
     7
421
 16777215
176
     1
 74
     0
176
     1
 91
        4
176
     1
 64
     7
176
     1
 65
   257
176
     1
 75
     1
176
     1
175
     1
176
     1
 42
1.0
176
     1
 92
        0
176
     1
 66
     7
176
     1
 43
1.0
176
     1
 76
     1
176
     1
 77
     6
176
     1
 78
     2
176
     1
 67
     7
176
     1
 79
     5
176
     1
170
     0
176
     1
171
     0
176
     1
290
     0
176
     1
 93
       13
176
     1
 44
0.0
176
     1
173
     0
176
     1
  0
VISUALSTYLE
  5
2E
102
{ACAD_REACTORS
330
2A
102
}
330
2A
100
AcDbVisualStyle
  2
GouraudWithEdges
 70
     3
177
     2
291
     1
 71
     2
176
     1
 72
     2
176
     1
 73
     1
176
     1
 90
        2
176
     1
 40
-0.6
176
     1
 41
30.0
176
     1
 62
     5
 63
     7
421
 16777215
176
     1
 74
     1
176
     1
 91
        4
176
     1
 64
     7
176
     1
 65
   257
176
     1
 75
     1
176
     1
175
     1
176
     1
 42
1.0
176
     1
 92
        0
176
     1
 66
   257
176
     1
 43
1.0
176
     1
 76
     1
176
     1
 77
     6
176
     1
 78
     2
176
     1
 67
     7
176
     1
 79
     5
176
     1
170
     0
176
     1
171
     0
176
     1
290
     0
176
     1
 93
       13
176
     1
 44
0.0
176
     1
173
     0
176
     1
  0
VISUALSTYLE
  5
38
102
{ACAD_REACTORS
330
2A
102
}
330
2A
100
AcDbVisualStyle
  2
Linepattern
 70
    14
177
     2
291
     1
 71
     2
176
     1
 72
     2
176
     1
 73
     0
176
     1
 90
        0
176
     1
 40
-0.6
176
     1
 41
-30.0
176
     1
 62
     5
 63
     7
421
 16777215
176
     1
 74
     1
176
     1
 91
        4
176
     1
 64
     7
176
     1
 65
   257
176
     1
 75
     7
176
     1
175
     7
176
     1
 42
1.0
176
     1
 92
        8
176
     1
 66
     7
176
     1
 43
1.0
176
     1
 76
     1
176
     1
 77
     6
176
     1
 78
     2
176
     1
 67
     7
176
     1
 79
     5
176
     1
170
     0
176
     1
171
     0
176
     1
290
     0
176
     1
 93
        1
176
     1
 44
0.0
176
     1
173
     0
176
     1
  0
VISUALSTYLE
  5
33
102
{ACAD_REACTORS
330
2A
102
}
330
2A
100
AcDbVisualStyle
  2
Realistic
 70
     8
177
     2
291
     0
 71
     2
176
     1
 72
     2
176
     1
 73
     0
176
     1
 90
        0
176
     1
 40
-0.6
176
     1
 41
-30.0
176
     1
 62
     5
 63
     7
421
 16777215
176
     1
 74
     1
176
     1
 91
        0
176
     1
 64
     7
176
     1
 65
   257
176
     1
 75
     1
176
     1
175
     1
176
     1
 42
1.0
176
     1
 92
        8
176
     1
 66
     8
424
  7895160
176
     1
 43
1.0
176
     1
 76
     1
176
     1
 77
     6
176
     1
 78
     2
176
     1
 67
     7
176
     1
 79
     5
176
     1
170
     0
176
     1
171
     0
176
     1
290
     0
176
     1
 93
       13
176
     1
 44
0.0
176
     1
173
     0
176
     1
  0
VISUALSTYLE
  5
37
102
{ACAD_REACTORS
330
2A
102
}
330
2A
100
AcDbVisualStyle
  2
Thicken
 70
    13
177
     2
291
     1
 71
     2
176
     1
 72
     2
176
     1
 73
     0
176
     1
 90
        0
176
     1
 40
-0.6
176
     1
 41
-30.0
176
     1
 62
     5
 63
     7
421
 16777215
176
     1
 74
     1
176
     1
 91
        4
176
     1
 64
     7
176
     1
 65
   257
176
     1
 75
     1
176
     1
175
     1
176
     1
 42
1.0
176
     1
 92
       12
176
     1
 66
     7
176
     1
 43
1.0
176
     1
 76
     1
176
     1
 77
     6
176
     1
 78
     2
176
     1
 67
     7
176
     1
 79
     5
176
     1
170
     0
176
     1
171
     0
176
     1
290
     0
176
     1
 93
        1
176
     1
 44
0.0
176
     1
173
     0
176
     1
  0
ENDSEC
  0
EOF
