0
SECTION
2
HEADER
9
$INSUNITS
70
4
9
$ACADVER
1
AC1014
9
$HANDSEED
5
FFFF
0
ENDSEC
0
SECTION
2
TABLES
0
TABLE
2
VPORT
5
8
100
AcDbSymbolTable
0
ENDTAB
0
TABLE
2
LTYPE
5
5
100
AcDbSymbolTable
0
LTYPE
5
14
100
AcDbSymbolTableRecord
100
AcDbLinetypeTableRecord
2
BYBLOCK
70
0
0
LTYPE
5
15
100
AcDbSymbolTableRecord
100
AcDbLinetypeTableRecord
2
BYLAYER
70
0
0
ENDTAB
0
TABLE
2
LAYER
5
2
100
AcDbSymbolTable
70
2
0
LAYER
5
50
100
AcDbSymbolTableRecord
100
AcDbLayerTableRecord
2
0
70
0
6
CONTINUOUS
0
ENDTAB
0
TABLE
2
STYLE
5
3
100
AcDbSymbolTable
70
1
0
STYLE
5
11
100
AcDbSymbolTableRecord
100
AcDbTextStyleTableRecord
2
STANDARD
70
0
0
ENDTAB
0
TABLE
2
VIEW
5
6
100
AcDbSymbolTable
70
0
0
ENDTAB
0
TABLE
2
UCS
5
7
100
AcDbSymbolTable
70
0
0
ENDTAB
0
TABLE
2
APPID
5
9
100
AcDbSymbolTable
70
2
0
APPID
5
12
100
AcDbSymbolTableRecord
100
AcDbRegAppTableRecord
2
ACAD
70
0
0
ENDTAB
0
TABLE
2
DIMSTYLE
5
A
100
AcDbSymbolTable
70
1
0
ENDTAB
0
TABLE
2
BLOCK_RECORD
5
1
100
AcDbSymbolTable
70
1
0
BLOCK_RECORD
5
1F
100
AcDbSymbolTableRecord
100
AcDbBlockTableRecord
2
*MODEL_SPACE
0
BLOCK_RECORD
5
1B
100
AcDbSymbolTableRecord
100
AcDbBlockTableRecord
2
*PAPER_SPACE
0
ENDTAB
0
ENDSEC
0
SECTION
2
BLOCKS
0
BLOCK
5
20
100
AcDbEntity
100
AcDbBlockBegin
2
*MODEL_SPACE
0
ENDBLK
5
21
100
AcDbEntity
100
AcDbBlockEnd
0
BLOCK
5
1C
100
AcDbEntity
100
AcDbBlockBegin
2
*PAPER_SPACE
0
ENDBLK
5
1D
100
AcDbEntity
100
AcDbBlockEnd
0
ENDSEC
0
SECTION
2
ENTITIES
0
CIRCLE
5
100
100
AcDbEntity
8
0
100
AcDbCircle
10
90.531609527490033
20
442.44633561275583
30
-3.2418512319054571e-13
40
2.0000000000000107
0
CIRCLE
5
101
100
AcDbEntity
8
0
100
AcDbCircle
10
90.531609527490033
20
407.44633561275583
30
-2.7977620220553945e-13
40
2.0000000000000107
0
CIRCLE
5
102
100
AcDbEntity
8
0
100
AcDbCircle
10
90.531609527490033
20
372.44633561275583
30
-2.3536728122053319e-13
40
2.0000000000000107
0
CIRCLE
5
103
100
AcDbEntity
8
0
100
AcDbCircle
10
90.531609527490033
20
337.44633561275583
30
-1.865174681370263e-13
40
2.0000000000000107
0
CIRCLE
5
104
100
AcDbEntity
8
0
100
AcDbCircle
10
90.531609527490033
20
302.44633561275583
30
2.3092638912203256e-13
40
2.0000000000000107
0
CIRCLE
5
105
100
AcDbEntity
8
0
100
AcDbCircle
10
90.531609527490033
20
267.44633561275583
30
2.3092638912203256e-13
40
2.0000000000000107
0
CIRCLE
5
106
100
AcDbEntity
8
0
100
AcDbCircle
10
90.531609527490033
20
232.44633561275583
30
2.3092638912203256e-13
40
2.0000000000000107
0
CIRCLE
5
107
100
AcDbEntity
8
0
100
AcDbCircle
10
90.531609527490033
20
197.44633561275583
30
2.3092638912203256e-13
40
2.0000000000000107
0
CIRCLE
5
108
100
AcDbEntity
8
0
100
AcDbCircle
10
90.531609527490033
20
162.44633561275583
30
2.3092638912203256e-13
40
2.0000000000000107
0
CIRCLE
5
109
100
AcDbEntity
8
0
100
AcDbCircle
10
90.531609527490033
20
127.44633561275583
30
2.2648549702353193e-13
40
2.0000000000000107
0
CIRCLE
5
110
100
AcDbEntity
8
0
100
AcDbCircle
10
90.531609527490033
20
92.446335612755831
30
2.2648549702353193e-13
40
2.0000000000000107
0
CIRCLE
5
111
100
AcDbEntity
8
0
100
AcDbCircle
10
90.531609527490033
20
57.446335612755831
30
2.2648549702353193e-13
40
2.0000000000000107
0
CIRCLE
5
112
100
AcDbEntity
8
0
100
AcDbCircle
10
90.531609527490033
20
22.446335612755828
30
2.2648549702353193e-13
40
2.0000000000000107
0
CIRCLE
5
113
100
AcDbEntity
8
0
100
AcDbCircle
10
25.531609527489742
20
442.44633561275583
30
-3.2418512319054571e-13
40
2.0000000000000107
0
CIRCLE
5
114
100
AcDbEntity
8
0
100
AcDbCircle
10
25.531609527489742
20
407.44633561275583
30
-2.7977620220553945e-13
40
2.0000000000000107
0
CIRCLE
5
115
100
AcDbEntity
8
0
100
AcDbCircle
10
25.531609527489742
20
372.44633561275583
30
-2.3536728122053319e-13
40
2.0000000000000107
0
CIRCLE
5
116
100
AcDbEntity
8
0
100
AcDbCircle
10
25.531609527489742
20
337.44633561275583
30
-1.865174681370263e-13
40
2.0000000000000107
0
CIRCLE
5
117
100
AcDbEntity
8
0
100
AcDbCircle
10
25.531609527489742
20
302.44633561275583
30
2.3092638912203256e-13
40
2.0000000000000107
0
CIRCLE
5
118
100
AcDbEntity
8
0
100
AcDbCircle
10
25.531609527489742
20
267.44633561275583
30
2.3092638912203256e-13
40
2.0000000000000107
0
CIRCLE
5
119
100
AcDbEntity
8
0
100
AcDbCircle
10
25.531609527489742
20
232.44633561275583
30
2.3092638912203256e-13
40
2.0000000000000107
0
CIRCLE
5
120
100
AcDbEntity
8
0
100
AcDbCircle
10
25.531609527489742
20
197.44633561275583
30
2.3092638912203256e-13
40
2.0000000000000107
0
CIRCLE
5
121
100
AcDbEntity
8
0
100
AcDbCircle
10
25.531609527489742
20
162.44633561275583
30
2.3092638912203256e-13
40
2.0000000000000107
0
CIRCLE
5
122
100
AcDbEntity
8
0
100
AcDbCircle
10
25.531609527489742
20
127.44633561275583
30
2.2648549702353193e-13
40
2.0000000000000107
0
CIRCLE
5
123
100
AcDbEntity
8
0
100
AcDbCircle
10
25.531609527489742
20
92.446335612755831
30
2.2648549702353193e-13
40
2.0000000000000107
0
CIRCLE
5
124
100
AcDbEntity
8
0
100
AcDbCircle
10
25.531609527489742
20
57.446335612755831
30
2.2648549702353193e-13
40
2.0000000000000107
0
CIRCLE
5
125
100
AcDbEntity
8
0
100
AcDbCircle
10
25.531609527489742
20
22.446335612755828
30
2.2648549702353193e-13
40
2.0000000000000107
0
LWPOLYLINE
5
126
100
AcDbEntity
8
0
100
AcDbPolyline
90
4
70
1
43
0.0
10
33.031609527489692
20
37.446335509249245
10
37.031609527489707
20
37.446335612755831
10
37.031609527489707
20
82.446335509249238
10
33.031609527489692
20
82.446335509249238
0
LWPOLYLINE
5
127
100
AcDbEntity
8
0
100
AcDbPolyline
90
4
70
1
43
0.0
10
33.031609527489692
20
107.44633550924924
10
37.031609527489707
20
107.44633561275583
10
37.031609527489707
20
152.44633550924925
10
33.031609527489692
20
152.44633550924925
0
LWPOLYLINE
5
128
100
AcDbEntity
8
0
100
AcDbPolyline
90
4
70
1
43
0.0
10
33.031609527489692
20
177.44633550924928
10
37.031609527489707
20
177.44633561275583
10
37.031609527489707
20
222.44633550924925
10
33.031609527489692
20
222.4463355092492
0
LWPOLYLINE
5
129
100
AcDbEntity
8
0
100
AcDbPolyline
90
4
70
1
43
0.0
10
33.031609527489692
20
247.44633550924928
10
37.031609527489707
20
247.44633561275583
10
37.031609527489707
20
292.44633550924925
10
33.031609527489692
20
292.4463355092492
0
LWPOLYLINE
5
130
100
AcDbEntity
8
0
100
AcDbPolyline
90
4
70
1
43
0.0
10
33.031609527489692
20
317.44633550924925
10
37.031609527489707
20
317.44633561275583
10
37.031609527489707
20
362.44633550924925
10
33.031609527489692
20
362.44633550924914
0
LWPOLYLINE
5
131
100
AcDbEntity
8
0
100
AcDbPolyline
90
4
70
1
43
0.0
10
33.031609527489692
20
387.44633550924925
10
37.031609527489707
20
387.44633561275583
10
37.031609527489707
20
432.44633550924925
10
33.031609527489692
20
432.44633550924925
0
LWPOLYLINE
5
132
100
AcDbEntity
8
0
100
AcDbPolyline
90
4
70
1
43
0.0
10
79.031609527489891
20
387.44633561275583
10
83.031609527489906
20
387.44633550924925
10
83.031609527489906
20
432.44633550924925
10
79.031609527489891
20
432.44633550924925
0
LWPOLYLINE
5
133
100
AcDbEntity
8
0
100
AcDbPolyline
90
4
70
1
43
0.0
10
79.031609527489891
20
317.44633561275583
10
83.031609527489906
20
317.44633550924925
10
83.031609527489906
20
362.44633550924925
10
79.031609527489891
20
362.44633550924925
0
LWPOLYLINE
5
134
100
AcDbEntity
8
0
100
AcDbPolyline
90
4
70
1
43
0.0
10
79.031609527489891
20
247.4463356127558
10
83.031609527489906
20
247.44633550924925
10
83.031609527489906
20
292.44633550924925
10
79.031609527489891
20
292.44633550924925
0
LWPOLYLINE
5
135
100
AcDbEntity
8
0
100
AcDbPolyline
90
4
70
1
43
0.0
10
79.031609527489891
20
177.4463356127558
10
83.031609527489906
20
177.44633550924925
10
83.031609527489906
20
222.44633550924925
10
79.031609527489891
20
222.44633550924925
0
LWPOLYLINE
5
136
100
AcDbEntity
8
0
100
AcDbPolyline
90
4
70
1
43
0.0
10
79.031609527489891
20
107.44633561275583
10
83.031609527489906
20
107.44633550924924
10
83.031609527489906
20
152.44633550924925
10
79.031609527489891
20
152.44633550924925
0
LWPOLYLINE
5
137
100
AcDbEntity
8
0
100
AcDbPolyline
90
4
70
1
43
0.0
10
79.031609527489891
20
37.446335612755831
10
83.031609527489906
20
37.446335509249238
10
83.031609527489906
20
82.446335509249238
10
79.031609527489891
20
82.446335509249238
0
LWPOLYLINE
5
138
100
AcDbEntity
8
0
100
AcDbPolyline
90
20
70
1
43
0.0
10
98.031609527489977
20
452.44633561275583
10
94.031609527489962
20
452.44633561275583
10
94.031609527489962
20
448.44633561275589
10
98.031609527489977
20
448.44633561275589
10
98.031609527489977
20
12.446335612755828
10
18.031609527489625
20
12.446335612755846
10
18.031609527489625
20
462.44633561275583
10
47.031609527489749
20
462.44633561275583
10
47.031609527489749
20
452.44633561275583
10
43.031609527489735
20
452.44633561275583
10
43.031609527489735
20
448.44633561275589
10
47.031609527489749
20
448.44633561275589
10
47.031609527489749
20
262.44633561275583
10
54.031609527489778
20
262.44633561275583
10
54.031609527489792
20
141.4463356127558
10
62.03160952748982
20
141.44633561275583
10
62.03160952748982
20
262.44633561275583
10
69.031609527489849
20
262.44633561275583
10
69.031609527489849
20
462.44633561275583
10
98.031609527489977
20
462.44633561275583
0
CIRCLE
5
139
100
AcDbEntity
8
0
100
AcDbCircle
10
180.53160952749042
20
442.44633561275583
30
-3.2418512319054571e-13
40
2.0000000000000107
0
CIRCLE
5
140
100
AcDbEntity
8
0
100
AcDbCircle
10
180.53160952749042
20
407.44633561275583
30
-2.7977620220553945e-13
40
2.0000000000000107
0
CIRCLE
5
141
100
AcDbEntity
8
0
100
AcDbCircle
10
180.53160952749042
20
372.44633561275583
30
-2.3536728122053319e-13
40
2.0000000000000107
0
CIRCLE
5
142
100
AcDbEntity
8
0
100
AcDbCircle
10
180.53160952749042
20
337.44633561275583
30
-1.865174681370263e-13
40
2.0000000000000107
0
CIRCLE
5
143
100
AcDbEntity
8
0
100
AcDbCircle
10
180.53160952749042
20
302.44633561275583
30
2.3092638912203256e-13
40
2.0000000000000107
0
CIRCLE
5
144
100
AcDbEntity
8
0
100
AcDbCircle
10
180.53160952749042
20
267.44633561275583
30
2.3092638912203256e-13
40
2.0000000000000107
0
CIRCLE
5
145
100
AcDbEntity
8
0
100
AcDbCircle
10
180.53160952749042
20
232.44633561275583
30
2.3092638912203256e-13
40
2.0000000000000107
0
CIRCLE
5
146
100
AcDbEntity
8
0
100
AcDbCircle
10
180.53160952749042
20
197.44633561275583
30
2.3092638912203256e-13
40
2.0000000000000107
0
CIRCLE
5
147
100
AcDbEntity
8
0
100
AcDbCircle
10
180.53160952749042
20
162.44633561275583
30
2.3092638912203256e-13
40
2.0000000000000107
0
CIRCLE
5
148
100
AcDbEntity
8
0
100
AcDbCircle
10
180.53160952749042
20
127.44633561275583
30
2.2648549702353193e-13
40
2.0000000000000107
0
CIRCLE
5
149
100
AcDbEntity
8
0
100
AcDbCircle
10
180.53160952749042
20
92.446335612755831
30
2.2648549702353193e-13
40
2.0000000000000107
0
CIRCLE
5
150
100
AcDbEntity
8
0
100
AcDbCircle
10
180.53160952749042
20
57.446335612755831
30
2.2648549702353193e-13
40
2.0000000000000107
0
CIRCLE
5
151
100
AcDbEntity
8
0
100
AcDbCircle
10
180.53160952749042
20
22.446335612755828
30
2.2648549702353193e-13
40
2.0000000000000107
0
CIRCLE
5
152
100
AcDbEntity
8
0
100
AcDbCircle
10
115.53160952749013
20
442.44633561275583
30
-3.2418512319054571e-13
40
2.0000000000000107
0
CIRCLE
5
153
100
AcDbEntity
8
0
100
AcDbCircle
10
115.53160952749013
20
407.44633561275583
30
-2.7977620220553945e-13
40
2.0000000000000107
0
CIRCLE
5
154
100
AcDbEntity
8
0
100
AcDbCircle
10
115.53160952749013
20
372.44633561275583
30
-2.3536728122053319e-13
40
2.0000000000000107
0
CIRCLE
5
155
100
AcDbEntity
8
0
100
AcDbCircle
10
115.53160952749013
20
337.44633561275583
30
-1.865174681370263e-13
40
2.0000000000000107
0
CIRCLE
5
156
100
AcDbEntity
8
0
100
AcDbCircle
10
115.53160952749013
20
302.44633561275583
30
2.3092638912203256e-13
40
2.0000000000000107
0
CIRCLE
5
157
100
AcDbEntity
8
0
100
AcDbCircle
10
115.53160952749013
20
267.44633561275583
30
2.3092638912203256e-13
40
2.0000000000000107
0
CIRCLE
5
158
100
AcDbEntity
8
0
100
AcDbCircle
10
115.53160952749013
20
232.44633561275583
30
2.3092638912203256e-13
40
2.0000000000000107
0
CIRCLE
5
159
100
AcDbEntity
8
0
100
AcDbCircle
10
115.53160952749013
20
197.44633561275583
30
2.3092638912203256e-13
40
2.0000000000000107
0
CIRCLE
5
160
100
AcDbEntity
8
0
100
AcDbCircle
10
115.53160952749013
20
162.44633561275583
30
2.3092638912203256e-13
40
2.0000000000000107
0
CIRCLE
5
161
100
AcDbEntity
8
0
100
AcDbCircle
10
115.53160952749013
20
127.44633561275583
30
2.2648549702353193e-13
40
2.0000000000000107
0
CIRCLE
5
162
100
AcDbEntity
8
0
100
AcDbCircle
10
115.53160952749013
20
92.446335612755831
30
2.2648549702353193e-13
40
2.0000000000000107
0
CIRCLE
5
163
100
AcDbEntity
8
0
100
AcDbCircle
10
115.53160952749013
20
57.446335612755831
30
2.2648549702353193e-13
40
2.0000000000000107
0
CIRCLE
5
164
100
AcDbEntity
8
0
100
AcDbCircle
10
115.53160952749013
20
22.446335612755828
30
2.2648549702353193e-13
40
2.0000000000000107
0
LWPOLYLINE
5
165
100
AcDbEntity
8
0
100
AcDbPolyline
90
4
70
1
43
0.0
10
123.03160952749008
20
37.446335509249245
10
127.03160952749009
20
37.446335612755831
10
127.0316095274901
20
82.446335509249238
10
123.03160952749009
20
82.446335509249238
0
LWPOLYLINE
5
166
100
AcDbEntity
8
0
100
AcDbPolyline
90
4
70
1
43
0.0
10
123.03160952749008
20
107.44633550924924
10
127.03160952749009
20
107.44633561275583
10
127.0316095274901
20
152.44633550924925
10
123.03160952749009
20
152.44633550924925
0
LWPOLYLINE
5
167
100
AcDbEntity
8
0
100
AcDbPolyline
90
4
70
1
43
0.0
10
123.03160952749008
20
177.44633550924928
10
127.03160952749009
20
177.44633561275583
10
127.0316095274901
20
222.44633550924925
10
123.03160952749009
20
222.4463355092492
0
LWPOLYLINE
5
168
100
AcDbEntity
8
0
100
AcDbPolyline
90
4
70
1
43
0.0
10
123.03160952749008
20
247.44633550924928
10
127.03160952749009
20
247.44633561275583
10
127.0316095274901
20
292.44633550924925
10
123.03160952749009
20
292.4463355092492
0
LWPOLYLINE
5
169
100
AcDbEntity
8
0
100
AcDbPolyline
90
4
70
1
43
0.0
10
123.03160952749008
20
317.44633550924925
10
127.03160952749009
20
317.44633561275583
10
127.0316095274901
20
362.44633550924925
10
123.03160952749009
20
362.44633550924914
0
LWPOLYLINE
5
170
100
AcDbEntity
8
0
100
AcDbPolyline
90
4
70
1
43
0.0
10
123.03160952749008
20
387.44633550924925
10
127.03160952749009
20
387.44633561275583
10
127.0316095274901
20
432.44633550924925
10
123.03160952749009
20
432.44633550924925
0
LWPOLYLINE
5
171
100
AcDbEntity
8
0
100
AcDbPolyline
90
4
70
1
43
0.0
10
169.0316095274903
20
387.44633561275583
10
173.03160952749033
20
387.44633550924925
10
173.03160952749033
20
432.44633550924925
10
169.0316095274903
20
432.44633550924925
0
LWPOLYLINE
5
172
100
AcDbEntity
8
0
100
AcDbPolyline
90
4
70
1
43
0.0
10
169.0316095274903
20
317.44633561275583
10
173.03160952749033
20
317.44633550924925
10
173.03160952749033
20
362.44633550924925
10
169.0316095274903
20
362.44633550924925
0
LWPOLYLINE
5
173
100
AcDbEntity
8
0
100
AcDbPolyline
90
4
70
1
43
0.0
10
169.0316095274903
20
247.4463356127558
10
173.03160952749033
20
247.44633550924925
10
173.03160952749033
20
292.44633550924925
10
169.0316095274903
20
292.44633550924925
0
LWPOLYLINE
5
174
100
AcDbEntity
8
0
100
AcDbPolyline
90
4
70
1
43
0.0
10
169.0316095274903
20
177.4463356127558
10
173.03160952749033
20
177.44633550924925
10
173.03160952749033
20
222.44633550924925
10
169.0316095274903
20
222.44633550924925
0
LWPOLYLINE
5
175
100
AcDbEntity
8
0
100
AcDbPolyline
90
4
70
1
43
0.0
10
169.0316095274903
20
107.44633561275583
10
173.03160952749033
20
107.44633550924924
10
173.03160952749033
20
152.44633550924925
10
169.0316095274903
20
152.44633550924925
0
LWPOLYLINE
5
176
100
AcDbEntity
8
0
100
AcDbPolyline
90
4
70
1
43
0.0
10
169.0316095274903
20
37.446335612755831
10
173.03160952749033
20
37.446335509249238
10
173.03160952749033
20
82.446335509249238
10
169.0316095274903
20
82.446335509249238
0
LWPOLYLINE
5
177
100
AcDbEntity
8
0
100
AcDbPolyline
90
20
70
1
43
0.0
10
188.03160952749039
20
452.44633561275583
10
184.03160952749036
20
452.44633561275583
10
184.03160952749036
20
448.44633561275589
10
188.03160952749039
20
448.44633561275589
10
188.03160952749039
20
12.446335612755828
10
108.03160952749002
20
12.446335612755846
10
108.03160952749002
20
462.44633561275583
10
137.03160952749013
20
462.44633561275583
10
137.03160952749013
20
452.44633561275583
10
133.03160952749013
20
452.44633561275583
10
133.03160952749013
20
448.44633561275589
10
137.03160952749013
20
448.44633561275589
10
137.03160952749013
20
262.44633561275583
10
144.03160952749016
20
262.44633561275583
10
144.03160952749016
20
141.4463356127558
10
152.03160952749022
20
141.44633561275583
10
152.03160952749022
20
262.44633561275583
10
159.03160952749025
20
262.44633561275583
10
159.03160952749028
20
462.44633561275583
10
188.03160952749039
20
462.44633561275583
0
CIRCLE
5
178
100
AcDbEntity
8
0
100
AcDbCircle
10
268.12595025286419
20
48.804829265186413
30
-1.794120407794253e-12
40
1.9999999999999942
0
CIRCLE
5
179
100
AcDbEntity
8
0
100
AcDbCircle
10
268.12595025286419
20
118.80482926518641
30
-1.8030021919912542e-12
40
1.9999999999999942
0
CIRCLE
5
180
100
AcDbEntity
8
0
100
AcDbCircle
10
268.12595025286419
20
188.80482926518647
30
-1.8074430840897548e-12
40
1.9999999999999942
0
CIRCLE
5
181
100
AcDbEntity
8
0
100
AcDbCircle
10
268.12595025286424
20
258.80482926518647
30
-1.8163248682867561e-12
40
1.9999999999999942
0
CIRCLE
5
182
100
AcDbEntity
8
0
100
AcDbCircle
10
268.12595025286424
20
328.80482926518653
30
-1.8252066524837574e-12
40
1.9999999999999942
0
CIRCLE
5
183
100
AcDbEntity
8
0
100
AcDbCircle
10
203.12595025286438
20
48.804829265186427
30
-2.5224267119483557e-12
40
1.9999999999999942
0
CIRCLE
5
184
100
AcDbEntity
8
0
100
AcDbCircle
10
203.12595025286438
20
118.80482926518641
30
-2.5313084961453569e-12
40
1.9999999999999942
0
CIRCLE
5
185
100
AcDbEntity
8
0
100
AcDbCircle
10
203.12595025286438
20
188.80482926518647
30
-2.5357493882438575e-12
40
1.9999999999999942
0
CIRCLE
5
186
100
AcDbEntity
8
0
100
AcDbCircle
10
203.12595025286441
20
258.80482926518647
30
-2.5446311724408588e-12
40
1.9999999999999942
0
CIRCLE
5
187
100
AcDbEntity
8
0
100
AcDbCircle
10
203.12595025286441
20
328.80482926518653
30
-2.55351295663786e-12
40
1.9999999999999942
0
CIRCLE
5
188
100
AcDbEntity
8
0
100
AcDbCircle
10
268.1259502528643
20
398.80482926518653
30
-1.8340884366807586e-12
40
1.9999999999999942
0
CIRCLE
5
189
100
AcDbEntity
8
0
100
AcDbCircle
10
203.12595025286441
20
398.80482926518653
30
-2.5623947408348613e-12
40
1.9999999999999942
0
LWPOLYLINE
5
190
100
AcDbEntity
8
0
100
AcDbPolyline
90
4
70
1
43
0.0
10
231.86922459474511
20
399.12545873350206
10
234.93340236722059
20
396.55430829475563
10
252.93145543844395
20
418.00355270208706
10
249.86727766596823
20
420.57470314083326
0
LWPOLYLINE
5
191
100
AcDbEntity
8
0
100
AcDbPolyline
90
88
70
1
43
0.0
10
256.6259502528643
20
319.30482910992657
10
256.6259502528643
20
268.30482931693967
10
275.6259502528643
20
268.30482931693967
10
275.6259502528643
20
264.30482931693967
10
281.6259502528643
20
264.30482931693967
10
281.6259502528643
20
254.3048293169397
10
275.6259502528643
20
254.30482931693967
10
275.6259502528643
20
224.30482931693967
10
260.62595025286436
20
224.30482931693967
10
260.6259502528643
20
249.30482921343309
10
256.6259502528643
20
249.30482910992652
10
256.6259502528643
20
198.30482931693965
10
275.6259502528643
20
198.30482931693962
10
275.6259502528643
20
154.30482931693965
10
260.6259502528643
20
154.30482931693967
10
260.6259502528643
20
179.30482921343309
10
256.6259502528643
20
179.30482910992649
10
256.6259502528643
20
128.30482931693962
10
281.62595025286424
20
128.30482931693962
10
281.6259502528643
20
113.30482931693959
10
275.6259502528643
20
113.30482931693962
10
275.6259502528643
20
84.304829316939617
10
260.6259502528643
20
84.304829316939617
10
260.6259502528643
20
109.30482921343305
10
256.6259502528643
20
109.30482910992646
10
256.6259502528643
20
58.304829316939632
10
275.62595025286424
20
58.304829316939617
10
275.6259502528643
20
14.304829316939605
10
260.6259502528643
20
14.30482931693961
10
260.6259502528643
20
39.304829213433038
10
256.6259502528643
20
39.304829213433024
10
256.6259502528643
20
14.304829316939609
10
214.62595025286424
20
14.304829316939621
10
214.62595025286424
20
39.304829213433038
10
210.62595025286427
20
39.304829213433045
10
210.62595025286427
20
14.304829316939621
10
195.6259502528643
20
14.304829316939625
10
195.6259502528643
20
58.304829316939646
10
214.6259502528643
20
58.304829316939617
10
214.62595025286424
20
109.30482910992646
10
210.62595025286427
20
109.30482921343307
10
210.62595025286427
20
84.304829316939646
10
195.62595025286436
20
84.304829316939646
10
195.62595025286436
20
113.30482931693963
10
189.62595025286433
20
113.30482931693963
10
189.62595025286433
20
128.30482931693962
10
214.6259502528643
20
128.30482931693965
10
214.62595025286424
20
179.30482910992652
10
210.62595025286427
20
179.30482921343309
10
210.6259502528643
20
154.30482931693967
10
195.62595025286436
20
154.30482931693967
10
195.62595025286436
20
198.30482931693965
10
214.6259502528643
20
198.30482931693965
10
214.6259502528643
20
249.30482910992652
10
210.6259502528643
20
249.30482921343309
10
210.6259502528643
20
224.30482931693967
10
195.62595025286436
20
224.3048293169397
10
195.62595025286436
20
254.3048293169397
10
189.62595025286433
20
254.3048293169397
10
189.62595025286433
20
264.30482931693967
10
195.62595025286436
20
264.30482931693967
10
195.62595025286436
20
268.30482931693967
10
214.62595025286433
20
268.30482931693967
10
214.6259502528643
20
319.30482910992657
10
210.6259502528643
20
319.30482921343309
10
210.6259502528643
20
294.30482931693967
10
195.62595025286436
20
294.30482931693967
10
195.62595025286438
20
338.30482931693962
10
214.62595025286433
20
338.30482931693973
10
214.6259502528643
20
389.30482921343309
10
210.6259502528643
20
389.30482921343309
10
210.6259502528643
20
364.30482931693973
10
195.62595025286438
20
364.30482931693967
10
195.62595025286438
20
408.30482931693962
10
214.62595025286433
20
408.30482931693962
10
214.62595025286433
20
464.30482910992652
10
256.62595025286436
20
464.30482910992652
10
256.62595025286436
20
408.30482931693962
10
275.6259502528643
20
408.30482931693973
10
275.6259502528643
20
364.30482931693973
10
260.62595025286436
20
364.30482931693973
10
260.62595025286436
20
389.30482921343309
10
256.62595025286436
20
389.30482921343304
10
256.62595025286436
20
338.30482931693962
10
275.6259502528643
20
338.30482931693973
10
275.6259502528643
20
294.30482931693967
10
260.62595025286436
20
294.30482931693967
10
260.62595025286436
20
319.30482921343309
0
CIRCLE
5
192
100
AcDbEntity
8
0
100
AcDbCircle
10
368.1259502528643
20
48.804829265186413
30
-6.8389738316909643e-13
40
1.9999999999999942
0
CIRCLE
5
193
100
AcDbEntity
8
0
100
AcDbCircle
10
368.1259502528643
20
118.80482926518641
30
-6.8833827526759706e-13
40
1.9999999999999942
0
CIRCLE
5
194
100
AcDbEntity
8
0
100
AcDbCircle
10
368.1259502528643
20
188.80482926518647
30
-6.9722005946459831e-13
40
1.9999999999999942
0
CIRCLE
5
195
100
AcDbEntity
8
0
100
AcDbCircle
10
368.1259502528643
20
258.80482926518647
30
-7.0166095156309893e-13
40
1.9999999999999942
0
CIRCLE
5
196
100
AcDbEntity
8
0
100
AcDbCircle
10
368.12595025286436
20
328.80482926518653
30
-7.1054273576010019e-13
40
1.9999999999999942
0
CIRCLE
5
197
100
AcDbEntity
8
0
100
AcDbCircle
10
303.12595025286447
20
48.804829265186427
30
-1.4122036873231991e-12
40
1.9999999999999942
0
CIRCLE
5
198
100
AcDbEntity
8
0
100
AcDbCircle
10
303.12595025286447
20
118.80482926518641
30
-1.4166445794216997e-12
40
1.9999999999999942
0
CIRCLE
5
199
100
AcDbEntity
8
0
100
AcDbCircle
10
303.12595025286447
20
188.80482926518647
30
-1.425526363618701e-12
40
1.9999999999999942
0
CIRCLE
5
200
100
AcDbEntity
8
0
100
AcDbCircle
10
303.12595025286447
20
258.80482926518647
30
-1.4299672557172016e-12
40
1.9999999999999942
0
CIRCLE
5
201
100
AcDbEntity
8
0
100
AcDbCircle
10
303.12595025286447
20
328.80482926518653
30
-1.4388490399142029e-12
40
1.9999999999999942
0
CIRCLE
5
202
100
AcDbEntity
8
0
100
AcDbCircle
10
368.12595025286436
20
398.80482926518653
30
-7.1498362785860081e-13
40
1.9999999999999942
0
CIRCLE
5
203
100
AcDbEntity
8
0
100
AcDbCircle
10
303.12595025286447
20
398.80482926518653
30
-1.4432899320127035e-12
40
1.9999999999999942
0
LWPOLYLINE
5
204
100
AcDbEntity
8
0
100
AcDbPolyline
90
4
70
1
43
0.0
10
331.86922459474516
20
399.12545873350206
10
334.93340236722065
20
396.55430829475563
10
352.931455438444
20
418.00355270208706
10
349.86727766596829
20
420.57470314083326
0
LWPOLYLINE
5
205
100
AcDbEntity
8
0
100
AcDbPolyline
90
88
70
1
43
0.0
10
356.62595025286441
20
319.30482910992657
10
356.62595025286441
20
268.30482931693967
10
375.62595025286436
20
268.30482931693967
10
375.62595025286436
20
264.30482931693967
10
381.62595025286436
20
264.30482931693967
10
381.62595025286436
20
254.3048293169397
10
375.62595025286436
20
254.30482931693967
10
375.62595025286436
20
224.30482931693967
10
360.62595025286441
20
224.30482931693967
10
360.62595025286441
20
249.30482921343309
10
356.62595025286436
20
249.30482910992652
10
356.62595025286436
20
198.30482931693965
10
375.62595025286436
20
198.30482931693962
10
375.62595025286436
20
154.30482931693965
10
360.62595025286441
20
154.30482931693967
10
360.62595025286436
20
179.30482921343309
10
356.62595025286436
20
179.30482910992649
10
356.62595025286441
20
128.30482931693962
10
381.62595025286436
20
128.30482931693962
10
381.62595025286436
20
113.30482931693959
10
375.62595025286436
20
113.30482931693962
10
375.62595025286436
20
84.304829316939617
10
360.62595025286441
20
84.304829316939617
10
360.62595025286436
20
109.30482921343305
10
356.62595025286436
20
109.30482910992646
10
356.62595025286436
20
58.304829316939632
10
375.62595025286436
20
58.304829316939617
10
375.6259502528643
20
14.304829316939605
10
360.62595025286436
20
14.30482931693961
10
360.62595025286436
20
39.304829213433038
10
356.62595025286436
20
39.304829213433024
10
356.62595025286436
20
14.304829316939609
10
314.6259502528643
20
14.304829316939621
10
314.6259502528643
20
39.304829213433038
10
310.62595025286436
20
39.304829213433045
10
310.62595025286436
20
14.304829316939621
10
295.62595025286436
20
14.304829316939625
10
295.62595025286436
20
58.304829316939646
10
314.62595025286436
20
58.304829316939617
10
314.6259502528643
20
109.30482910992646
10
310.62595025286436
20
109.30482921343307
10
310.62595025286436
20
84.304829316939646
10
295.62595025286441
20
84.304829316939646
10
295.62595025286441
20
113.30482931693963
10
289.62595025286441
20
113.30482931693963
10
289.62595025286441
20
128.30482931693962
10
314.62595025286436
20
128.30482931693965
10
314.6259502528643
20
179.30482910992652
10
310.62595025286436
20
179.30482921343309
10
310.62595025286436
20
154.30482931693967
10
295.62595025286441
20
154.30482931693967
10
295.62595025286441
20
198.30482931693965
10
314.62595025286436
20
198.30482931693965
10
314.62595025286436
20
249.30482910992652
10
310.62595025286436
20
249.30482921343309
10
310.62595025286436
20
224.30482931693967
10
295.62595025286441
20
224.3048293169397
10
295.62595025286441
20
254.3048293169397
10
289.62595025286441
20
254.3048293169397
10
289.62595025286441
20
264.30482931693967
10
295.62595025286441
20
264.30482931693967
10
295.62595025286441
20
268.30482931693967
10
314.62595025286441
20
268.30482931693967
10
314.62595025286436
20
319.30482910992657
10
310.62595025286436
20
319.30482921343309
10
310.62595025286436
20
294.30482931693967
10
295.62595025286441
20
294.30482931693967
10
295.62595025286447
20
338.30482931693962
10
314.62595025286441
20
338.30482931693973
10
314.62595025286436
20
389.30482921343309
10
310.62595025286436
20
389.30482921343309
10
310.62595025286436
20
364.30482931693973
10
295.62595025286447
20
364.30482931693967
10
295.62595025286447
20
408.30482931693962
10
314.62595025286441
20
408.30482931693962
10
314.62595025286441
20
464.30482910992652
10
356.62595025286441
20
464.30482910992652
10
356.62595025286441
20
408.30482931693962
10
375.62595025286436
20
408.30482931693973
10
375.62595025286436
20
364.30482931693973
10
360.62595025286441
20
364.30482931693973
10
360.62595025286441
20
389.30482921343309
10
356.62595025286441
20
389.30482921343304
10
356.62595025286436
20
338.30482931693962
10
375.62595025286436
20
338.30482931693973
10
375.62595025286436
20
294.30482931693967
10
360.62595025286441
20
294.30482931693967
10
360.62595025286441
20
319.30482921343309
0
CIRCLE
5
206
100
AcDbEntity
8
0
100
AcDbCircle
10
466.81209773586852
20
33.297053431276183
30
5.1514348342607263e-13
40
1.9999999999999978
0
CIRCLE
5
207
100
AcDbEntity
8
0
100
AcDbCircle
10
401.81209773586863
20
98.297053431276112
30
4.7961634663806763e-13
40
1.9999999999999978
0
CIRCLE
5
208
100
AcDbEntity
8
0
100
AcDbCircle
10
466.81209773586852
20
65.78515541046184
30
5.5067062021407764e-13
40
1.9999999999999978
0
CIRCLE
5
209
100
AcDbEntity
8
0
100
AcDbCircle
10
401.81209773586863
20
33.297053431276126
30
4.0856207306205761e-13
40
1.9999999999999978
0
CIRCLE
5
210
100
AcDbEntity
8
0
100
AcDbCircle
10
401.81209773586863
20
65.808951452090454
30
4.4408920985006262e-13
40
1.9999999999999978
0
CIRCLE
5
211
100
AcDbEntity
8
0
100
AcDbCircle
10
466.81209773586852
20
98.29705343127614
30
5.8619775700208265e-13
40
1.9999999999999978
0
LWPOLYLINE
5
212
100
AcDbEntity
8
0
100
AcDbPolyline
90
56
70
1
43
0.0
10
394.31209773586863
20
44.797053431276133
10
394.31209773586863
20
40.797053431276133
10
409.31209773586863
20
40.79705343127614
10
409.31209773586863
20
25.797053431276204
10
413.31209773586863
20
25.797053431276215
10
413.31209773586863
20
40.79705343127614
10
429.81209773586863
20
40.797053431276147
10
429.81209773586863
20
35.797053431276154
42
0.99999999999999989
10
432.81209773586858
20
35.797053431276154
10
432.81209773586858
20
37.297053431276161
10
431.81209773586858
20
37.297053431276161
10
431.81209773586858
20
39.297053431276161
42
-0.41421356237307339
10
433.31209773586858
20
40.797053431276154
10
435.31209773586858
20
40.797053431276154
42
-0.41421356237307161
10
436.81209773586858
20
39.297053431276154
10
436.81209773586858
20
37.297053431276161
10
435.81209773586858
20
37.297053431276161
10
435.81209773586858
20
35.797053431276154
42
0.99999999999999989
10
438.81209773586852
20
35.797053431276154
10
438.81209773586852
20
40.797053431276154
10
455.31209773586852
20
40.797053431276169
10
455.31209773586852
20
25.797053431276218
10
459.31209773586852
20
25.797053431276225
10
459.31209773586852
20
40.797053431276169
10
474.31209773586852
20
40.797053431276176
10
474.31209773586852
20
44.797053431276183
10
459.31209773586852
20
44.797053431276169
10
459.31209773586852
20
86.797053431276154
10
474.31209773586852
20
86.797053431276154
10
474.31209773586852
20
90.797053431276154
10
459.31209773586852
20
90.79705343127614
10
459.31209773586852
20
105.79705343127614
10
455.31209773586852
20
105.79705343127614
10
455.31209773586852
20
90.797053431276154
10
438.81209773586852
20
90.79705343127614
10
438.81209773586852
20
95.79705343127614
42
0.99999999999999989
10
435.81209773586858
20
95.79705343127614
10
435.81209773586858
20
94.29705343127614
10
436.81209773586858
20
94.29705343127614
10
436.81209773586858
20
92.29705343127614
42
-0.41421356237307771
10
435.31209773586858
20
90.79705343127614
10
433.31209773586858
20
90.797053431276112
42
-0.41421356237307771
10
431.81209773586858
20
92.29705343127614
10
431.81209773586858
20
94.29705343127614
10
432.81209773586858
20
94.29705343127614
10
432.81209773586858
20
95.79705343127614
42
0.99999999999999989
10
429.81209773586863
20
95.79705343127614
10
429.81209773586863
20
90.79705343127614
10
413.31209773586863
20
90.797053431276126
10
413.31209773586863
20
105.79705343127611
10
409.31209773586863
20
105.79705343127611
10
409.31209773586863
20
90.797053431276126
10
394.31209773586863
20
90.797053431276126
10
394.31209773586863
20
86.797053431276112
10
409.31209773586863
20
86.797053431276112
10
409.31209773586863
20
44.79705343127614
0
LWPOLYLINE
5
213
100
AcDbEntity
8
0
100
AcDbPolyline
90
4
70
1
43
0.0
10
384.31209773586875
20
13.411226437912607
10
384.31209773586863
20
118.18288042463961
10
484.31209773586852
20
118.18288042463971
10
484.31209773586852
20
13.411226437912681
0
CIRCLE
5
214
100
AcDbEntity
8
0
100
AcDbCircle
10
572.31534579811398
20
98.086433091333092
30
7.815970093361102e-13
40
1.9999999999999822
0
CIRCLE
5
215
100
AcDbEntity
8
0
100
AcDbCircle
10
507.31534579811466
20
33.086433091333745
30
7.815970093361102e-13
40
1.9999999999999822
0
CIRCLE
5
216
100
AcDbEntity
8
0
100
AcDbCircle
10
572.31534579811398
20
65.598331112147719
30
7.815970093361102e-13
40
1.9999999999999822
0
CIRCLE
5
217
100
AcDbEntity
8
0
100
AcDbCircle
10
507.31534579811466
20
98.086433091333163
30
7.815970093361102e-13
40
1.9999999999999822
0
CIRCLE
5
218
100
AcDbEntity
8
0
100
AcDbCircle
10
507.31534579811466
20
65.574535070519119
30
7.815970093361102e-13
40
1.9999999999999822
0
CIRCLE
5
219
100
AcDbEntity
8
0
100
AcDbCircle
10
572.31534579811398
20
33.086433091333696
30
7.815970093361102e-13
40
1.9999999999999822
0
LWPOLYLINE
5
220
100
AcDbEntity
8
0
100
AcDbPolyline
90
12
70
1
43
0.0
10
495.81534579811478
20
40.586433091333689
10
524.81534579811444
20
40.58643309133366
10
524.81534579811444
20
44.586433091333618
10
518.81534579811455
20
44.586433091333639
10
518.81534579811455
20
86.586433091333234
10
524.81534579811455
20
86.586433091333248
10
524.81534579811444
20
90.586433091333177
10
495.81534579811478
20
90.58643309133322
10
495.81534579811483
20
86.586433091333262
10
510.81534579811461
20
86.586433091333248
10
510.81534579811461
20
44.586433091333639
10
495.81534579811478
20
44.586433091333639
0
LWPOLYLINE
5
221
100
AcDbEntity
8
0
100
AcDbPolyline
90
4
70
1
43
0.0
10
489.81534579811472
20
13.200606097970429
10
489.81534579811489
20
117.9722600846965
10
589.81534579811387
20
117.97226008469642
10
589.81534579811387
20
13.200606097970301
0
LWPOLYLINE
5
222
100
AcDbEntity
8
0
100
AcDbPolyline
90
12
70
1
43
0.0
10
575.81534579811398
20
40.586433091333618
10
575.81534579811398
20
44.586433091333575
10
564.81534579811409
20
44.586433091333589
10
564.81534579811421
20
86.58643309133322
10
575.81534579811409
20
86.586433091333191
10
575.81534579811398
20
90.586433091333163
10
546.81534579811432
20
90.586433091333177
10
546.81534579811432
20
86.58643309133322
10
556.81534579811421
20
86.58643309133322
10
556.81534579811421
20
44.586433091333589
10
546.81534579811432
20
44.586433091333603
10
546.81534579811432
20
40.586433091333646
0
CIRCLE
5
223
100
AcDbEntity
8
0
100
AcDbCircle
10
466.24725529830232
20
254.98555258332428
30
4.6185277824406512e-13
40
2
0
CIRCLE
5
224
100
AcDbEntity
8
0
100
AcDbCircle
10
401.24725529830238
20
319.98555258332385
30
4.6185277824406512e-13
40
2
0
CIRCLE
5
225
100
AcDbEntity
8
0
100
AcDbCircle
10
466.24725529830232
20
287.47365456250981
30
4.6185277824406512e-13
40
2
0
CIRCLE
5
226
100
AcDbEntity
8
0
100
AcDbCircle
10
401.24725529830238
20
254.98555258332416
30
4.6185277824406512e-13
40
2
0
CIRCLE
5
227
100
AcDbEntity
8
0
100
AcDbCircle
10
401.24725529830238
20
287.49745060413835
30
4.6185277824406512e-13
40
2
0
CIRCLE
5
228
100
AcDbEntity
8
0
100
AcDbCircle
10
466.24725529830232
20
319.98555258332397
30
4.6185277824406512e-13
40
2
0
LWPOLYLINE
5
229
100
AcDbEntity
8
0
100
AcDbPolyline
90
20
70
1
43
0.0
10
444.74725529830232
20
312.48555258332402
10
444.74725529830232
20
308.48555258332402
10
454.74725529830232
20
308.48555258332402
10
454.74725529830232
20
266.48555258332419
10
444.74725529830232
20
266.48555258332419
10
444.74725529830232
20
262.48555258332425
10
454.74725529830232
20
262.48555258332425
10
454.74725529830232
20
247.48555258332433
10
458.74725529830232
20
247.48555258332433
10
458.74725529830232
20
262.48555258332425
10
473.74725529830232
20
262.48555258332425
10
473.74725529830232
20
266.48555258332425
10
458.74725529830232
20
266.48555258332419
10
458.74725529830232
20
308.48555258332402
10
473.74725529830232
20
308.48555258332402
10
473.74725529830232
20
312.48555258332408
10
458.74725529830232
20
312.48555258332402
10
458.74725529830232
20
327.48555258332397
10
454.74725529830232
20
327.48555258332397
10
454.74725529830232
20
312.48555258332397
0
LWPOLYLINE
5
230
100
AcDbEntity
8
0
100
AcDbPolyline
90
20
70
1
43
0.0
10
422.74725529830232
20
262.48555258332419
10
422.74725529830232
20
266.48555258332419
10
412.74725529830232
20
266.48555258332414
10
412.74725529830232
20
308.48555258332391
10
422.74725529830232
20
308.48555258332397
10
422.74725529830232
20
312.48555258332397
10
412.74725529830232
20
312.48555258332397
10
412.74725529830226
20
327.48555258332385
10
408.74725529830238
20
327.48555258332385
10
408.74725529830238
20
312.48555258332397
10
393.74725529830238
20
312.48555258332391
10
393.74725529830238
20
308.48555258332391
10
408.74725529830238
20
308.48555258332397
10
408.74725529830238
20
266.48555258332414
10
393.74725529830238
20
266.48555258332414
10
393.74725529830238
20
262.48555258332419
10
408.74725529830238
20
262.48555258332419
10
408.74725529830238
20
247.48555258332431
10
412.74725529830232
20
247.48555258332431
10
412.74725529830232
20
262.48555258332419
0
LWPOLYLINE
5
231
100
AcDbEntity
8
0
100
AcDbPolyline
90
4
70
1
43
0.0
10
437.74725529830226
20
266.48555258332419
10
437.74725529830226
20
308.48555258332402
10
429.74725529830232
20
308.48555258332402
10
429.74725529830238
20
266.48555258332419
0
LWPOLYLINE
5
232
100
AcDbEntity
8
0
100
AcDbPolyline
90
4
70
1
43
0.0
10
383.74725529830243
20
235.09972558996071
10
383.74725529830238
20
339.87137957668727
10
483.74725529830221
20
339.8713795766875
10
483.74725529830232
20
235.09972558996085
0
LWPOLYLINE
5
233
100
AcDbEntity
8
0
100
AcDbPolyline
90
12
70
1
43
0.0
10
409.13366632694823
20
352.33015599922771
10
382.13366632694829
20
352.33015599922749
10
382.1336663269476
20
432.33015599922737
10
409.13366632694755
20
432.33015599922749
10
409.13366632694766
20
417.33015599922766
10
404.13366632694772
20
417.3301559992276
10
404.13366632694772
20
413.33015599922754
10
409.13366632694772
20
413.3301559992276
10
409.13366632694812
20
371.33015599922771
10
404.13366632694812
20
371.33015599922766
10
404.13366632694812
20
367.33015599922766
10
409.13366632694812
20
367.33015599922766
0
CIRCLE
5
234
100
AcDbEntity
8
0
100
AcDbCircle
10
458.98330581839639
20
151.43542698738844
30
-1.865174681370263e-13
40
1.9999999999999933
0
LWPOLYLINE
5
235
100
AcDbEntity
8
0
100
AcDbPolyline
90
20
70
1
43
0.0
10
476.48330581839639
20
123.43542698738847
42
-0.41421356237311413
10
473.48330581839639
20
120.43542698738847
10
444.48330581839639
20
120.43542698738848
42
-0.41421356237311241
10
441.48330581839639
20
123.4354269873885
10
441.48330581839639
20
138.4354269873885
10
469.98330581839639
20
138.43542698738847
10
469.98330581839639
20
142.43542698738838
10
441.48330581839645
20
142.43542698738847
10
441.48330581839645
20
157.43542698738852
42
-0.41421356237312101
10
444.48330581839639
20
160.4354269873885
10
447.98330581839645
20
160.4354269873885
10
447.98330581839645
20
151.43542698738844
10
451.98330581839639
20
151.43542698738844
10
451.98330581839639
20
160.4354269873885
10
465.98330581839639
20
160.4354269873885
10
465.98330581839639
20
151.43542698738844
10
469.98330581839639
20
151.43542698738844
10
469.98330581839645
20
160.4354269873885
10
473.48330581839639
20
160.43542698738855
42
-0.41421356237311413
10
476.48330581839639
20
157.4354269873885
0
CIRCLE
5
236
100
AcDbEntity
8
0
100
AcDbCircle
10
418.05785518911944
20
176.47546017281866
30
1.1980109141209283
40
0.99999999999999867
0
CIRCLE
5
237
100
AcDbEntity
8
0
100
AcDbCircle
10
406.05785518911887
20
176.47546017281866
30
1.1980109141209283
40
0.99999999999999867
0
CIRCLE
5
238
100
AcDbEntity
8
0
100
AcDbCircle
10
418.05785518911932
20
183.47546017281866
30
1.1980109141208573
40
0.99999999999999867
0
CIRCLE
5
239
100
AcDbEntity
8
0
100
AcDbCircle
10
406.0578551891191
20
183.47546017281866
30
1.1980109141208573
40
0.99999999999999867
0
CIRCLE
5
240
100
AcDbEntity
8
0
100
AcDbCircle
10
406.05785518911921
20
190.47546017281866
30
1.1980109141207151
40
0.99999999999999867
0
CIRCLE
5
241
100
AcDbEntity
8
0
100
AcDbCircle
10
418.05785518911921
20
190.47546017281866
30
1.1980109141207151
40
0.99999999999999867
0
LWPOLYLINE
5
242
100
AcDbEntity
8
0
100
AcDbPolyline
90
12
70
1
43
0.0
10
423.05785518911927
20
185.47546017281863
10
423.05785518911927
20
177.47546017281863
10
429.55785518911921
20
177.47546017281863
10
429.55785518911915
20
151.47546017281886
42
-0.99999999999999989
10
394.55785518911915
20
151.47546017281869
10
394.55785518911921
20
181.47546017281866
10
401.05785518911921
20
181.47546017281866
10
401.05785518911921
20
189.47546017281866
10
394.55785518911915
20
189.47546017281869
10
394.55785518911915
20
209.47546017281866
10
429.55785518911921
20
209.47546017281866
10
429.55785518911921
20
185.47546017281866
0
LWPOLYLINE
5
243
100
AcDbEntity
8
0
100
AcDbPolyline
90
4
70
1
43
0.0
10
405.05785518911921
20
163.47546017281866
10
405.05785518911921
20
170.47546017281863
10
401.05785518911915
20
170.47546017281863
10
401.05785518911921
20
163.47546017281866
0
LWPOLYLINE
5
244
100
AcDbEntity
8
0
100
AcDbPolyline
90
4
70
1
43
0.0
10
401.05785518911921
20
196.47546017281866
10
405.05785518911921
20
196.47546017281866
10
405.05785518911921
20
203.47546017281869
10
401.05785518911921
20
203.47546017281869
0
LWPOLYLINE
5
245
100
AcDbEntity
8
0
100
AcDbPolyline
90
4
70
1
43
0.0
10
423.05785518911921
20
170.47546017281863
10
419.05785518911921
20
170.47546017281863
10
419.05785518911927
20
163.47546017281866
10
423.05785518911927
20
163.47546017281866
0
LWPOLYLINE
5
246
100
AcDbEntity
8
0
100
AcDbPolyline
90
4
70
1
43
0.0
10
419.05785518911927
20
203.47546017281869
10
419.05785518911927
20
196.47546017281869
10
423.05785518911927
20
196.47546017281869
10
423.05785518911927
20
203.47546017281869
0
LWPOLYLINE
5
247
100
AcDbEntity
8
0
100
AcDbPolyline
90
22
70
1
43
0.0
10
466.40451621804516
20
196.6778398937202
42
-0.19891236737963444
10
467.28319587448544
20
194.5565195501606
10
467.2831958744855
20
177.04180092439935
42
-0.19891236737963883
10
466.40451621804516
20
174.92048058083967
10
458.16187553092584
20
166.67783989372032
42
-0.19891236737966422
10
456.04055518736607
20
165.79916023727998
10
445.28319587448539
20
165.79916023727998
10
445.28319587448539
20
172.79916023727995
10
449.28319587448533
20
172.79916023727995
10
449.28319587448533
20
179.79916023727995
10
458.28319587448539
20
179.79916023727995
10
458.28319587448533
20
183.79916023727998
10
449.28319587448527
20
183.79916023727998
10
449.28319587448533
20
187.79916023727995
10
458.28319587448539
20
187.79916023727995
10
458.28319587448533
20
191.79916023727995
10
449.28319587448527
20
191.79916023727998
10
449.28319587448533
20
198.79916023727998
10
445.28319587448539
20
198.79916023727998
10
445.28319587448544
20
205.79916023727998
10
456.04055518736618
20
205.79916023727998
42
-0.19891236737965801
10
458.16187553092584
20
204.92048058083958
0
CIRCLE
5
248
100
AcDbEntity
8
0
100
AcDbCircle
10
495.71105750972123
20
180.00157003537362
30
8.149037000748649e-13
40
0.99999999999999667
0
LWPOLYLINE
5
249
100
AcDbEntity
8
0
100
AcDbPolyline
90
20
70
1
43
0.0
10
478.21105750972123
20
174.00157003537348
10
478.21105750972123
20
208.0015700353735
42
-0.41421356237310542
10
481.21105750972129
20
211.00157003537348
10
510.21105750972117
20
211.0015700353735
42
-0.41421356237310897
10
513.21105750972129
20
208.00157003537348
10
513.21105750972117
20
193.0015700353735
10
484.71105750972123
20
193.00157003537356
10
484.71105750972123
20
189.00157003537367
10
513.21105750972129
20
189.00157003537356
10
513.21105750972106
20
174.0015700353735
42
-0.41421356237311241
10
510.21105750972117
20
171.00157003537356
10
506.71105750972123
20
171.00157003537356
10
506.71105750972123
20
180.00157003537362
10
502.71105750972129
20
180.00157003537362
10
502.71105750972117
20
171.00157003537356
10
488.71105750972117
20
171.00157003537356
10
488.71105750972117
20
180.00157003537362
10
484.71105750972123
20
180.00157003537362
10
484.71105750972123
20
171.00157003537356
10
481.21105750972129
20
171.0015700353735
42
-0.41421356237310197
0
LWPOLYLINE
5
250
100
AcDbEntity
8
0
100
AcDbPolyline
90
22
70
1
43
0.0
10
524.13891914495605
20
199.20391967908273
42
-0.19891236737963663
10
525.01759880139628
20
201.32524002264236
10
533.26023948851571
20
209.56788070976165
42
-0.19891236737963919
10
535.38155983207525
20
210.44656036620208
10
546.13891914495605
20
210.44656036620208
10
546.13891914495605
20
203.44656036620211
10
542.13891914495605
20
203.44656036620208
10
542.13891914495616
20
196.44656036620211
10
533.13891914495605
20
196.44656036620211
10
533.13891914495605
20
192.44656036620214
10
542.13891914495616
20
192.44656036620214
10
542.13891914495616
20
188.44656036620216
10
533.13891914495605
20
188.44656036620216
10
533.13891914495605
20
184.44656036620216
10
542.13891914495616
20
184.44656036620219
10
542.13891914495605
20
177.44656036620222
10
546.13891914495605
20
177.44656036620222
10
546.13891914495605
20
170.44656036620222
10
535.38155983207525
20
170.44656036620216
42
-0.19891236737967902
10
533.26023948851559
20
171.32524002264256
10
525.01759880139639
20
179.56788070976191
42
-0.19891236737970036
10
524.13891914495605
20
181.68920105332154
0
LWPOLYLINE
5
251
100
AcDbEntity
8
0
100
AcDbPolyline
90
22
70
1
43
0.0
10
524.13891914495605
20
199.20391967908273
42
-0.1989123673796602
10
525.01759880139639
20
201.32524002264236
10
533.26023948851559
20
209.56788070976174
42
-0.1989123673796602
10
535.38155983207525
20
210.44656036620211
10
546.13891914495605
20
210.44656036620208
10
546.13891914495605
20
203.44656036620211
10
542.13891914495605
20
203.44656036620211
10
542.13891914495616
20
196.44656036620216
10
533.13891914495605
20
196.44656036620211
10
533.13891914495605
20
192.44656036620216
10
542.13891914495616
20
192.44656036620214
10
542.13891914495616
20
188.44656036620216
10
533.13891914495605
20
188.44656036620216
10
533.13891914495605
20
184.44656036620216
10
542.13891914495616
20
184.44656036620219
10
542.13891914495605
20
177.44656036620216
10
546.13891914495605
20
177.44656036620222
10
546.13891914495605
20
170.44656036620222
10
535.38155983207525
20
170.44656036620222
42
-0.19891236737966239
10
533.26023948851559
20
171.32524002264262
10
525.01759880139628
20
179.56788070976194
42
-0.19891236737965581
10
524.13891914495605
20
181.68920105332154
0
LWPOLYLINE
5
252
100
AcDbEntity
8
0
100
AcDbPolyline
90
34
70
1
43
0.0
10
451.82402561376296
20
438.89370744134624
42
-0.089089886662337317
10
465.91619170838987
20
440.08150151498307
42
0.17960530202673625
10
492.80642867213174
20
447.28671879370029
42
-0.089089886662338774
10
505.60449954124647
20
453.30414199878066
10
507.69203736617499
20
453.86349607313969
42
-0.41421356237309503
10
513.81576172313305
20
450.32796216720726
10
514.98044742609466
20
445.98129594890651
10
513.04859577351647
20
445.46365785870137
10
512.53095768331139
20
447.39550951127956
42
0.7932215812729444
10
506.69145077937765
20
447.20746378790892
10
505.69211679584419
20
442.21135031153847
42
0.098478560062851203
10
505.65800760989504
20
411.00090960096031
10
517.65167526857101
20
350.35027015836238
42
-0.054387677537421068
10
519.15190299979702
20
333.06251568251173
10
518.09427773818118
20
285.22556547116346
42
0.071095611171192216
10
519.27832284510419
20
275.39327431433384
10
519.7954495870506
20
273.46333103943783
42
0.41421356237309748
10
523.46968420122539
20
271.34201069587834
10
528.55686812456065
20
272.70511751988482
42
-0.52745380640596862
10
530.06034522525704
20
271.41560976268551
42
-0.15008787298480361
10
511.47426023256048
20
228.27927393484205
42
-0.65632421094708149
10
509.36788881958125
20
228.92071587067511
10
501.1383809361422
20
301.06624612861691
42
0.037072503641758389
10
498.92788428616893
20
312.70511192101998
10
483.03212728881425
20
372.02888465990725
42
0.016643577493678771
10
481.4836664878236
20
377.12321960994728
10
472.9293024659155
20
402.23127948831336
42
0.098478560062850967
10
457.29454268909012
20
429.24325941400627
10
453.9310373342995
20
433.0703536129659
42
0.79322158127293618
10
448.77985314823326
20
430.31345253451059
10
449.2974912384384
20
428.3816008819324
10
447.36563958586027
20
427.86396279172726
10
446.20095388289877
20
432.21062901002801
42
-0.41421356237309104
10
449.73648778883125
20
438.33435336698614
0
ENDSEC
0
SECTION
2
OBJECTS
0
DICTIONARY
5
C
100
AcDbDictionary
3
ACAD_GROUP
350
D
3
ACAD_MLINESTYLE
350
17
0
DICTIONARY
5
D
100
AcDbDictionary
0
DICTIONARY
5
1A
330
C
100
AcDbDictionary
0
DICTIONARY
5
17
100
AcDbDictionary
0
ENDSEC
0
EOF
