  0
SECTION
  2
HEADER
  9
$ACADVER
  1
AC1009
  9
$DWGCODEPAGE
  3
mac-roman
  9
$INSBASE
 10
0.0
 20
0.0
 30
0.0
  9
$EXTMIN
 10
0.0
 20
0.0
 30
-637.7004735302521
  9
$EXTMAX
 10
2773.875450959615
 20
2438.4
 30
1062.878822491819
  9
$LIMMIN
 10
0.0
 20
0.0
  9
$LIMMAX
 10
12.0
 20
9.0
  9
$ORTHOMODE
 70
     0
  9
$REGENMODE
 70
     1
  9
$FILLMODE
 70
     1
  9
$QTEXTMODE
 70
     0
  9
$MIRRTEXT
 70
     1
  9
$DRAGMODE
 70
     2
  9
$LTSCALE
 40
1.0
  9
$OSMODE
 70
    37
  9
$ATTMODE
 70
     1
  9
$TEXTSIZE
 40
0.2
  9
$TRACEWID
 40
0.05
  9
$TEXTSTYLE
  7
STANDARD
  9
$CLAYER
  8
DEFAULT
  9
$CELTYPE
  6
BYLAYER
  9
$CECOLOR
 62
   256
  9
$DIMSCALE
 40
1.0
  9
$DIMASZ
 40
0.18
  9
$DIMEXO
 40
0.0625
  9
$DIMDLI
 40
0.38
  9
$DIMRND
 40
0.0
  9
$DIMDLE
 40
0.0
  9
$DIMEXE
 40
0.18
  9
$DIMTP
 40
0.0
  9
$DIMTM
 40
0.0
  9
$DIMTXT
 40
0.18
  9
$DIMCEN
 40
0.09
  9
$DIMTSZ
 40
0.0
  9
$DIMTOL
 70
     0
  9
$DIMLIM
 70
     0
  9
$DIMTIH
 70
     1
  9
$DIMTOH
 70
     1
  9
$DIMSE1
 70
     0
  9
$DIMSE2
 70
     0
  9
$DIMTAD
 70
     0
  9
$DIMZIN
 70
     0
  9
$DIMBLK
  1

  9
$DIMASO
 70
     1
  9
$DIMSHO
 70
     1
  9
$DIMPOST
  1

  9
$DIMAPOST
  1

  9
$DIMALT
 70
     0
  9
$DIMALTD
 70
     2
  9
$DIMALTF
 40
25.4
  9
$DIMLFAC
 40
1.0
  9
$DIMTOFL
 70
     0
  9
$DIMTVP
 40
0.0
  9
$DIMTIX
 70
     0
  9
$DIMSOXD
 70
     0
  9
$DIMSAH
 70
     0
  9
$DIMBLK1
  1

  9
$DIMBLK2
  1

  9
$DIMSTYLE
  2
STANDARD
  9
$DIMCLRD
 70
     0
  9
$DIMCLRE
 70
     0
  9
$DIMCLRT
 70
     0
  9
$DIMTFAC
 40
1.0
  9
$DIMGAP
 40
0.09
  9
$LUNITS
 70
     2
  9
$LUPREC
 70
     3
  9
$SKETCHINC
 40
0.1
  9
$FILLETRAD
 40
0.5
  9
$AUNITS
 70
     0
  9
$AUPREC
 70
     0
  9
$MENU
  1
.
  9
$ELEVATION
 40
0.0
  9
$PELEVATION
 40
0.0
  9
$THICKNESS
 40
0.0
  9
$LIMCHECK
 70
     0
  9
$CHAMFERA
 40
0.0
  9
$CHAMFERB
 40
0.0
  9
$SKPOLY
 70
     0
  9
$TDCREATE
 40
2457952.669594907
  9
$TDUPDATE
 40
2457952.669664352
  9
$TDINDWG
 40
0.0000000116
  9
$TDUSRTIMER
 40
0.0000000116
  9
$USRTIMER
 70
     1
  9
$ANGBASE
 50
0.0
  9
$ANGDIR
 70
     0
  9
$PDMODE
 70
     0
  9
$PDSIZE
 40
0.0
  9
$PLINEWID
 40
0.0
  9
$COORDS
 70
     1
  9
$SPLFRAME
 70
     0
  9
$SPLINETYPE
 70
     6
  9
$SPLINESEGS
 70
     8
  9
$ATTDIA
 70
     0
  9
$ATTREQ
 70
     1
  9
$HANDLING
 70
     1
  9
$HANDSEED
  5
22B
  9
$SURFTAB1
 70
     6
  9
$SURFTAB2
 70
     6
  9
$SURFTYPE
 70
     6
  9
$SURFU
 70
     6
  9
$SURFV
 70
     6
  9
$UCSNAME
  2

  9
$UCSORG
 10
0.0
 20
0.0
 30
0.0
  9
$UCSXDIR
 10
1.0
 20
0.0
 30
0.0
  9
$UCSYDIR
 10
0.0
 20
1.0
 30
0.0
  9
$PUCSNAME
  2

  9
$PUCSORG
 10
0.0
 20
0.0
 30
0.0
  9
$PUCSXDIR
 10
1.0
 20
0.0
 30
0.0
  9
$PUCSYDIR
 10
0.0
 20
1.0
 30
0.0
  9
$USERI1
 70
     0
  9
$USERI2
 70
     0
  9
$USERI3
 70
     0
  9
$USERI4
 70
     0
  9
$USERI5
 70
     0
  9
$USERR1
 40
0.0
  9
$USERR2
 40
0.0
  9
$USERR3
 40
0.0
  9
$USERR4
 40
0.0
  9
$USERR5
 40
0.0
  9
$WORLDVIEW
 70
     1
  9
$SHADEDGE
 70
     3
  9
$SHADEDIF
 70
    70
  9
$TILEMODE
 70
     1
  9
$MAXACTVP
 70
    64
  9
$PLIMCHECK
 70
     0
  9
$PEXTMIN
 10
1.000000000000000E+20
 20
1.000000000000000E+20
 30
1.000000000000000E+20
  9
$PEXTMAX
 10
-1.000000000000000E+20
 20
-1.000000000000000E+20
 30
-1.000000000000000E+20
  9
$PLIMMIN
 10
0.0
 20
0.0
  9
$PLIMMAX
 10
12.0
 20
9.0
  9
$UNITMODE
 70
     0
  9
$VISRETAIN
 70
     1
  9
$PLINEGEN
 70
     0
  9
$PSLTSCALE
 70
     1
  0
ENDSEC
  0
SECTION
  2
TABLES
  0
TABLE
  2
VPORT
 70
     1
  0
VPORT
  2
*ACTIVE
 70
     0
 10
0.0
 20
0.0
 11
1.0
 21
1.0
 12
1386.937725479807
 22
1219.2
 13
0.0
 23
0.0
 14
0.5
 24
0.5
 15
0.5
 25
0.5
 16
0.0
 26
0.0
 36
1.0
 17
0.0
 27
0.0
 37
0.0
 40
2487.168
 41
1.137580155413228
 42
50.0
 43
0.0
 44
0.0
 50
0.0
 51
0.0
 71
     0
 72
   100
 73
     1
 74
     3
 75
     0
 76
     0
 77
     0
 78
     0
  0
ENDTAB
  0
TABLE
  2
LTYPE
 70
     1
  0
LTYPE
  2
CONTINUOUS
 70
     0
  3
Solid line
 72
    65
 73
     0
 40
0.0
  0
ENDTAB
  0
TABLE
  2
LAYER
 70
     2
  0
LAYER
  2
0
 70
     0
 62
     7
  6
CONTINUOUS
  0
LAYER
  2
DEFAULT
 70
     0
 62
     7
  6
CONTINUOUS
  0
ENDTAB
  0
TABLE
  2
STYLE
 70
     1
  0
STYLE
  2
STANDARD
 70
     0
 40
0.0
 41
1.0
 50
0.0
 71
     0
 42
0.2
  3
txt
  4

  0
ENDTAB
  0
TABLE
  2
VIEW
 70
     0
  0
ENDTAB
  0
TABLE
  2
UCS
 70
     0
  0
ENDTAB
  0
TABLE
  2
APPID
 70
     1
  0
APPID
  2
ACAD
 70
     0
  0
ENDTAB
  0
TABLE
  2
DIMSTYLE
 70
     1
  0
DIMSTYLE
  2
STANDARD
 70
     0
  3

  4

  5

  6

  7

 40
1.0
 41
0.18
 42
0.0625
 43
0.38
 44
0.18
 45
0.0
 46
0.0
 47
0.0
 48
0.0
140
0.18
141
0.09
142
0.0
143
25.4
144
1.0
145
0.0
146
1.0
147
0.09
 71
     0
 72
     0
 73
     1
 74
     1
 75
     0
 76
     0
 77
     0
 78
     0
170
     0
171
     2
172
     0
173
     0
174
     0
175
     0
176
     0
177
     0
178
     0
  0
ENDTAB
  0
ENDSEC
  0
SECTION
  2
BLOCKS
  0
BLOCK
  8
0
  2
$MODEL_SPACE
 70
     0
 10
0.0
 20
0.0
 30
0.0
  3
$MODEL_SPACE
  1

  0
ENDBLK
  5
21
  8
0
  0
BLOCK
 67
     1
  8
0
  2
$PAPER_SPACE
 70
     0
 10
0.0
 20
0.0
 30
0.0
  3
$PAPER_SPACE
  1

  0
ENDBLK
  5
1D
 67
     1
  8
0
  0
ENDSEC
  0
SECTION
  2
ENTITIES
  0
CIRCLE
  5
6F
  8
DEFAULT
 10
2602.426545294742
 20
66.12932169084172
 30
246.3669733366863
 40
3.0
  0
CIRCLE
  5
70
  8
DEFAULT
 10
2212.612529865162
 20
66.12932169084183
 30
246.3669733366863
 40
3.0
  0
CIRCLE
  5
71
  8
DEFAULT
 10
2212.612529865162
 20
433.6661553697212
 30
246.3669733366863
 40
3.0
  0
LINE
  5
72
  8
DEFAULT
 10
2773.875450959615
 20
68.18144163860177
 30
246.3669733366863
 11
2600.365754794049
 21
68.18144163860177
 31
246.3669733366863
  0
LINE
  5
73
  8
DEFAULT
 10
2600.365754794049
 20
68.18144163860177
 30
246.3669733366863
 11
2600.365754794049
 21
50.19191768483631
 31
246.3669733366863
  0
LINE
  5
74
  8
DEFAULT
 10
2600.365754794049
 20
50.19191768483631
 30
246.3669733366863
 11
2214.835659808568
 21
50.19191768483631
 31
246.3669733366863
  0
LINE
  5
75
  8
DEFAULT
 10
2214.835659808568
 20
50.19191768483631
 30
246.3669733366863
 11
2214.835659808568
 21
68.18144163860177
 31
246.3669733366863
  0
LINE
  5
76
  8
DEFAULT
 10
2214.835659808568
 20
68.18144163860177
 30
246.3669733366863
 11
2011.352412803285
 21
68.18144163860177
 31
246.3669733366863
  0
LINE
  5
77
  8
DEFAULT
 10
2011.352412803285
 20
68.18144163860177
 30
246.3669733366863
 11
2011.352412803285
 21
149.7856217359753
 31
246.3669733366863
  0
LINE
  5
78
  8
DEFAULT
 10
2011.352412803285
 20
149.7856217359753
 30
246.3669733366863
 11
1993.398469054086
 21
149.7856217359753
 31
246.3669733366863
  0
LINE
  5
79
  8
DEFAULT
 10
1993.398469054086
 20
149.7856217359753
 30
246.3669733366863
 11
1993.398469054086
 21
350.0098553245879
 31
246.3669733366863
  0
LINE
  5
7A
  8
DEFAULT
 10
1993.398469054086
 20
350.0098553245879
 30
246.3669733366863
 11
2011.352412803285
 21
350.0098553245879
 31
246.3669733366863
  0
LINE
  5
7B
  8
DEFAULT
 10
2011.352412803285
 20
350.0098553245879
 30
246.3669733366863
 11
2011.352412803285
 21
431.6140354219609
 31
246.3669733366863
  0
LINE
  5
7C
  8
DEFAULT
 10
2011.352412803285
 20
431.6140354219609
 30
246.3669733366863
 11
2214.835659808568
 21
431.6140354219609
 31
246.3669733366863
  0
LINE
  5
7D
  8
DEFAULT
 10
2214.835659808568
 20
431.6140354219609
 30
246.3669733366863
 11
2214.835659808568
 21
449.6035593757259
 31
246.3669733366863
  0
LINE
  5
7E
  8
DEFAULT
 10
2214.835659808568
 20
449.6035593757259
 30
246.3669733366863
 11
2600.365754794049
 21
449.6035593757259
 31
246.3669733366863
  0
LINE
  5
7F
  8
DEFAULT
 10
2600.365754794049
 20
449.6035593757259
 30
246.3669733366863
 11
2600.365754794049
 21
431.6140354219609
 31
246.3669733366863
  0
LINE
  5
80
  8
DEFAULT
 10
2600.365754794049
 20
431.6140354219609
 30
246.3669733366863
 11
2773.875450959615
 21
431.6140354219609
 31
246.3669733366863
  0
LINE
  5
81
  8
DEFAULT
 10
2773.875450959615
 20
431.6140354219609
 30
246.3669733366863
 11
2773.875450959615
 21
68.18144163860177
 31
246.3669733366863
  0
LINE
  5
82
  8
DEFAULT
 10
2145.066731543708
 20
220.3640520065045
 30
262.4489152023352
 11
2145.066731543708
 21
280.3640520065045
 31
262.4489152023352
  0
LINE
  5
83
  8
DEFAULT
 10
2145.066731543708
 20
280.3640520065045
 30
262.4489152023352
 11
2503.93963082343
 21
280.3640520065045
 31
264.7245092933547
  0
LINE
  5
84
  8
DEFAULT
 10
2503.93963082343
 20
280.3640520065045
 30
264.7245092933547
 11
2503.93963082343
 21
220.3640520065045
 31
264.7245092933547
  0
LINE
  5
85
  8
DEFAULT
 10
2503.93963082343
 20
220.3640520065045
 30
264.7245092933547
 11
2145.066731543708
 21
220.3640520065045
 31
262.4489152023352
  0
CIRCLE
  5
86
  8
DEFAULT
 10
2602.426545294742
 20
433.6661553697212
 30
246.3669733366863
 40
3.0
  0
CIRCLE
  5
87
  8
DEFAULT
 10
2009.378825438612
 20
351.950832986306
 30
246.3669733366863
 40
3.0
  0
LINE
  5
88
  8
DEFAULT
 10
1437.837446023097
 20
447.3327521038847
 30
1062.878822491819
 11
1638.061679611709
 21
447.3327521038847
 31
1062.878822491819
  0
LINE
  5
89
  8
DEFAULT
 10
1638.061679611709
 20
447.3327521038847
 30
1062.878822491819
 11
1638.061679611709
 21
464.8830170508143
 31
1062.878822491819
  0
LINE
  5
8A
  8
DEFAULT
 10
1638.061679611709
 20
464.8830170508143
 30
1062.878822491819
 11
1437.837446023097
 21
464.8830170508143
 31
1062.878822491819
  0
LINE
  5
8B
  8
DEFAULT
 10
1437.837446023097
 20
464.8830170508143
 30
1062.878822491819
 11
1437.837446023097
 21
447.3327521038847
 31
1062.878822491819
  0
LINE
  5
8C
  8
DEFAULT
 10
1308.166883055645
 20
547.1356097666485
 30
1062.878822491819
 11
1308.166883055645
 21
67.13560976664843
 31
1062.878822491819
  0
LINE
  5
8D
  8
DEFAULT
 10
1308.166883055645
 20
67.13560976664843
 30
1062.878822491819
 11
1438.073767662127
 21
67.1817176676721
 31
1062.878822491819
  0
LINE
  5
8E
  8
DEFAULT
 10
1438.073767662127
 20
67.1817176676721
 30
1062.878822491819
 11
1438.073767662127
 21
84.73198261460149
 31
1062.878822491819
  0
LINE
  5
8F
  8
DEFAULT
 10
1438.073767662127
 20
84.73198261460149
 30
1062.878822491819
 11
1638.29800125074
 21
84.73198261460149
 31
1062.878822491819
  0
LINE
  5
90
  8
DEFAULT
 10
1638.29800125074
 20
84.73198261460149
 30
1062.878822491819
 11
1638.29800125074
 21
67.1817176676721
 31
1062.878822491819
  0
LINE
  5
91
  8
DEFAULT
 10
1638.29800125074
 20
67.1817176676721
 30
1062.878822491819
 11
1768.166883055645
 21
67.13560976664843
 31
1062.878822491819
  0
LINE
  5
92
  8
DEFAULT
 10
1768.166883055645
 20
67.13560976664843
 30
1062.878822491819
 11
1768.166883055645
 21
547.1356097666485
 31
1062.878822491819
  0
LINE
  5
93
  8
DEFAULT
 10
1768.166883055645
 20
547.1356097666485
 30
1062.878822491819
 11
1738.208655254003
 21
547.1388814426249
 31
1062.878822491819
  0
LINE
  5
94
  8
DEFAULT
 10
1738.208655254003
 20
547.1388814426249
 30
1062.878822491819
 11
1738.208655254003
 21
307.9384682177854
 31
1062.878822491819
  0
LINE
  5
95
  8
DEFAULT
 10
1738.208655254003
 20
307.9384682177854
 30
1062.878822491819
 11
1720.609706516201
 21
307.9384682177854
 31
1062.878822491819
  0
LINE
  5
96
  8
DEFAULT
 10
1720.609706516201
 20
307.9384682177854
 30
1062.878822491819
 11
1720.609706516201
 21
547.1356097666485
 31
1062.878822491819
  0
LINE
  5
97
  8
DEFAULT
 10
1720.609706516201
 20
547.1356097666485
 30
1062.878822491819
 11
1355.765831793447
 21
547.1388814426249
 31
1062.878822491819
  0
LINE
  5
98
  8
DEFAULT
 10
1355.765831793447
 20
547.1388814426249
 30
1062.878822491819
 11
1355.765831793447
 21
307.9384682177854
 31
1062.878822491819
  0
LINE
  5
99
  8
DEFAULT
 10
1355.765831793447
 20
307.9384682177854
 30
1062.878822491819
 11
1338.166883055645
 21
307.9384682177854
 31
1062.878822491819
  0
LINE
  5
9A
  8
DEFAULT
 10
1338.166883055645
 20
307.9384682177854
 30
1062.878822491819
 11
1338.166883055645
 21
547.1356097666485
 31
1062.878822491819
  0
LINE
  5
9B
  8
DEFAULT
 10
1338.166883055645
 20
547.1356097666485
 30
1062.878822491819
 11
1308.166883055645
 21
547.1356097666485
 31
1062.878822491819
  0
CIRCLE
  5
9C
  8
DEFAULT
 10
1240.76348021796
 20
1504.998203420666
 30
246.3669733366863
 40
3.0
  0
CIRCLE
  5
9D
  8
DEFAULT
 10
985.3072152052586
 20
142.2405193488571
 30
23.80040285076734
 40
3.0
  0
CIRCLE
  5
9E
  8
DEFAULT
 10
972.1498056312406
 20
142.4336300946313
 30
23.80040285076734
 40
3.0
  0
CIRCLE
  5
9F
  8
DEFAULT
 10
1034.898695138223
 20
42.27729101732029
 30
23.80040285076734
 40
3.0
  0
CIRCLE
  5
A0
  8
DEFAULT
 10
1034.910669531931
 20
56.16191086236699
 30
23.80040285076734
 40
3.0
  0
CIRCLE
  5
A1
  8
DEFAULT
 10
1172.105273829651
 20
142.2611842136796
 30
23.80040285076734
 40
3.0
  0
CIRCLE
  5
A2
  8
DEFAULT
 10
1172.18999491797
 20
338.7338159489584
 30
23.80040285076734
 40
3.0
  0
CIRCLE
  5
A3
  8
DEFAULT
 10
1035.069695471776
 20
424.9513768041452
 30
23.80040285076734
 40
3.0
  0
CIRCLE
  5
A4
  8
DEFAULT
 10
1035.069695471778
 20
438.8360018126779
 30
23.80040285076734
 40
3.0
  0
CIRCLE
  5
A5
  8
DEFAULT
 10
155.7474410228056
 20
523.1741519100723
 30
-116.3957807144408
 40
3.0
  0
CIRCLE
  5
A6
  8
DEFAULT
 10
142.152146368896
 20
523.1741519100724
 30
-116.3957807144408
 40
3.0
  0
CIRCLE
  5
A7
  8
DEFAULT
 10
313.3573576399076
 20
2400.214997510007
 30
-116.3957807144408
 40
3.0
  0
CIRCLE
  5
A8
  8
DEFAULT
 10
395.8632563472484
 20
2108.924522605846
 30
-116.3957807144408
 40
3.0
  0
CIRCLE
  5
A9
  8
DEFAULT
 10
924.5710671557484
 20
840.7118961494205
 30
23.80040285076734
 40
3.0
  0
CIRCLE
  5
AA
  8
DEFAULT
 10
1081.588594187046
 20
923.368773027017
 30
23.80040285076734
 40
3.0
  0
LINE
  5
AB
  8
DEFAULT
 10
422.2273621544159
 20
606.4577997241915
 30
23.80040285076734
 11
721.8003101559824
 21
606.4577997241915
 31
23.80040285076734
  0
LINE
  5
AC
  8
DEFAULT
 10
721.8003101559824
 20
606.4577997241915
 30
23.80040285076734
 11
721.7255756224548
 21
650.6875827135477
 31
23.80040285076734
  0
LINE
  5
AD
  8
DEFAULT
 10
721.7255756224548
 20
650.6875827135477
 30
23.80040285076734
 11
571.7255756224549
 21
650.6875827135477
 31
23.80040285076734
  0
LINE
  5
AE
  8
DEFAULT
 10
571.7255756224549
 20
650.6875827135477
 30
23.80040285076734
 11
571.7255756224549
 21
668.3009136098779
 31
23.80040285076734
  0
LINE
  5
AF
  8
DEFAULT
 10
571.7255756224549
 20
668.3009136098779
 30
23.80040285076734
 11
721.8003101559824
 21
668.3009136098779
 31
23.80040285076734
  0
LINE
  5
B0
  8
DEFAULT
 10
721.8003101559824
 20
668.3009136098779
 30
23.80040285076734
 11
721.8003101559824
 21
727.9171437806557
 31
23.80040285076734
  0
LINE
  5
B1
  8
DEFAULT
 10
721.8003101559824
 20
727.9171437806557
 30
23.80040285076734
 11
704.1496130544641
 21
727.9171437806557
 31
23.80040285076734
  0
LINE
  5
B2
  8
DEFAULT
 10
704.1496130544641
 20
727.9171437806557
 30
23.80040285076734
 11
704.1496130544641
 21
821.6893649529735
 31
23.80040285076734
  0
LINE
  5
B3
  8
DEFAULT
 10
704.1496130544641
 20
821.6893649529735
 30
23.80040285076734
 11
721.8003101559824
 21
821.6893649529735
 31
23.80040285076734
  0
LINE
  5
B4
  8
DEFAULT
 10
721.8003101559824
 20
821.6893649529735
 30
23.80040285076734
 11
721.8003101559824
 21
906.4577997241915
 31
23.80040285076734
  0
LINE
  5
B5
  8
DEFAULT
 10
721.8003101559824
 20
906.4577997241915
 30
23.80040285076734
 11
677.4416352709054
 21
938.8061704789698
 31
23.80040285076734
  0
LINE
  5
B6
  8
DEFAULT
 10
677.4416352709054
 20
938.8061704789698
 30
23.80040285076734
 11
667.1257186594307
 21
924.6382052705599
 31
23.80040285076734
  0
LINE
  5
B7
  8
DEFAULT
 10
667.1257186594307
 20
924.6382052705599
 30
23.80040285076734
 11
552.3069507271307
 21
1008.182257255434
 31
23.80040285076734
  0
LINE
  5
B8
  8
DEFAULT
 10
552.3069507271307
 20
1008.182257255434
 30
23.80040285076734
 11
562.707951651641
 21
1022.475210309235
 31
23.80040285076734
  0
LINE
  5
B9
  8
DEFAULT
 10
562.707951651641
 20
1022.475210309235
 30
23.80040285076734
 11
522.4006732404096
 21
1051.869117804006
 31
23.80040285076734
  0
LINE
  5
BA
  8
DEFAULT
 10
522.4006732404096
 20
1051.869117804006
 30
23.80040285076734
 11
507.545250455662
 21
1031.306388233908
 31
23.80040285076734
  0
LINE
  5
BB
  8
DEFAULT
 10
507.545250455662
 20
1031.306388233908
 30
23.80040285076734
 11
493.2859914122409
 21
1041.768271145112
 31
23.80040285076734
  0
LINE
  5
BC
  8
DEFAULT
 10
493.2859914122409
 20
1041.768271145112
 30
23.80040285076734
 11
643.6432956024064
 21
1248.443015256773
 31
23.80040285076734
  0
LINE
  5
BD
  8
DEFAULT
 10
643.6432956024064
 20
1248.443015256773
 30
23.80040285076734
 11
657.83776922177
 21
1238.121207375796
 31
23.80040285076734
  0
LINE
  5
BE
  8
DEFAULT
 10
657.83776922177
 20
1238.121207375796
 30
23.80040285076734
 11
752.3186281851662
 21
1368.030192308508
 31
23.80040285076734
  0
LINE
  5
BF
  8
DEFAULT
 10
752.3186281851662
 20
1368.030192308508
 30
23.80040285076734
 11
738.0995336111458
 21
1378.366425639869
 31
23.80040285076734
  0
LINE
  5
C0
  8
DEFAULT
 10
738.0995336111458
 20
1378.366425639869
 30
23.80040285076734
 11
888.3462017231344
 21
1585.131089576631
 31
23.80040285076734
  0
LINE
  5
C1
  8
DEFAULT
 10
888.3462017231344
 20
1585.131089576631
 30
23.80040285076734
 11
902.6197292848323
 21
1574.792704589596
 31
23.80040285076734
  0
LINE
  5
C2
  8
DEFAULT
 10
902.6197292848323
 20
1574.792704589596
 30
23.80040285076734
 11
902.3229055355754
 21
1762.204816641181
 31
23.80040285076734
  0
LINE
  5
C3
  8
DEFAULT
 10
902.3229055355754
 20
1762.204816641181
 30
23.80040285076734
 11
884.6286673667331
 21
1762.204816641181
 31
23.80040285076734
  0
LINE
  5
C4
  8
DEFAULT
 10
884.6286673667331
 20
1762.204816641181
 30
23.80040285076734
 11
884.7053163341719
 21
2147.337906434611
 31
23.80040285076734
  0
LINE
  5
C5
  8
DEFAULT
 10
884.7053163341719
 20
2147.337906434611
 30
23.80040285076734
 11
902.277939385804
 21
2147.341336454498
 31
23.80040285076734
  0
LINE
  5
C6
  8
DEFAULT
 10
902.277939385804
 20
2147.341336454498
 30
23.80040285076734
 11
902.1569180529244
 21
2350.4686323065
 31
23.80040285076734
  0
LINE
  5
C7
  8
DEFAULT
 10
902.1569180529244
 20
2350.4686323065
 30
23.80040285076734
 11
662.1569180529236
 21
2350.4686323065
 31
23.80040285076734
  0
LINE
  5
C8
  8
DEFAULT
 10
662.1569180529236
 20
2350.4686323065
 30
23.80040285076734
 11
662.2065528274647
 21
2368.170020518631
 31
23.80040285076734
  0
LINE
  5
C9
  8
DEFAULT
 10
662.2065528274647
 20
2368.170020518631
 30
23.80040285076734
 11
902.2348264437572
 21
2368.216871904997
 31
23.80040285076734
  0
LINE
  5
CA
  8
DEFAULT
 10
902.2348264437572
 20
2368.216871904997
 30
23.80040285076734
 11
902.2273621544158
 21
2406.457799724191
 31
23.80040285076734
  0
LINE
  5
CB
  8
DEFAULT
 10
902.2273621544158
 20
2406.457799724191
 30
23.80040285076734
 11
422.2273621544159
 21
2406.457799724191
 31
23.80040285076734
  0
LINE
  5
CC
  8
DEFAULT
 10
422.2273621544159
 20
2406.457799724191
 30
23.80040285076734
 11
422.2273621544159
 21
606.4577997241915
 31
23.80040285076734
  0
LINE
  5
CD
  8
DEFAULT
 10
522.2273621544159
 20
706.4577997241918
 30
23.80040285076734
 11
621.8003101559839
 21
706.4577997241915
 31
23.80040285076734
  0
LINE
  5
CE
  8
DEFAULT
 10
621.8003101559839
 20
706.4577997241915
 30
23.80040285076734
 11
621.8003101559839
 21
855.9448544631053
 31
23.80040285076734
  0
LINE
  5
CF
  8
DEFAULT
 10
621.8003101559839
 20
855.9448544631053
 30
23.80040285076734
 11
522.2273621544159
 21
928.3514027420563
 31
23.80040285076734
  0
LINE
  5
D0
  8
DEFAULT
 10
522.2273621544159
 20
928.3514027420563
 30
23.80040285076734
 11
522.2273621544159
 21
868.1922738351907
 31
23.80040285076734
  0
LINE
  5
D1
  8
DEFAULT
 10
522.2273621544159
 20
868.1922738351907
 30
23.80040285076734
 11
504.5213673001431
 21
868.2937486837943
 31
23.80040285076734
  0
LINE
  5
D2
  8
DEFAULT
 10
504.5213673001431
 20
868.2937486837943
 30
23.80040285076734
 11
504.4765148293386
 21
745.7784513617946
 31
23.80040285076734
  0
LINE
  5
D3
  8
DEFAULT
 10
504.4765148293386
 20
745.7784513617946
 30
23.80040285076734
 11
522.2273621544159
 21
745.7784513617946
 31
23.80040285076734
  0
LINE
  5
D4
  8
DEFAULT
 10
522.2273621544159
 20
745.7784513617946
 30
23.80040285076734
 11
522.2273621544159
 21
706.4577997241918
 31
23.80040285076734
  0
LINE
  5
D5
  8
DEFAULT
 10
522.2273621544159
 20
1221.617648431551
 30
23.80040285076734
 11
802.4196509983898
 21
1606.980091169357
 31
23.80040285076734
  0
LINE
  5
D6
  8
DEFAULT
 10
802.4196509983898
 20
1606.980091169357
 30
23.80040285076734
 11
852.6013222022051
 21
1606.933169378005
 31
23.80040285076734
  0
LINE
  5
D7
  8
DEFAULT
 10
852.6013222022051
 20
1606.933169378005
 30
23.80040285076734
 11
852.6013222022051
 21
1624.377104359927
 31
23.80040285076734
  0
LINE
  5
D8
  8
DEFAULT
 10
852.6013222022051
 20
1624.377104359927
 30
23.80040285076734
 11
802.4196509983898
 21
1624.377104359927
 31
23.80040285076734
  0
LINE
  5
D9
  8
DEFAULT
 10
802.4196509983898
 20
1624.377104359927
 30
23.80040285076734
 11
802.4196509983898
 21
2306.457799724191
 31
23.80040285076734
  0
LINE
  5
DA
  8
DEFAULT
 10
802.4196509983898
 20
2306.457799724191
 30
23.80040285076734
 11
522.2273621544159
 21
2306.457799724191
 31
23.80040285076734
  0
LINE
  5
DB
  8
DEFAULT
 10
522.2273621544159
 20
2306.457799724191
 30
23.80040285076734
 11
522.2273621544159
 21
2206.566461232369
 31
23.80040285076734
  0
LINE
  5
DC
  8
DEFAULT
 10
522.2273621544159
 20
2206.566461232369
 30
23.80040285076734
 11
504.6053904148935
 21
2206.566461232369
 31
23.80040285076734
  0
LINE
  5
DD
  8
DEFAULT
 10
504.6053904148935
 20
2206.566461232369
 30
23.80040285076734
 11
504.6425313611139
 21
2064.496219662858
 31
23.80040285076734
  0
LINE
  5
DE
  8
DEFAULT
 10
504.6425313611139
 20
2064.496219662858
 30
23.80040285076734
 11
522.257718754784
 21
2064.589903688013
 31
23.80040285076734
  0
LINE
  5
DF
  8
DEFAULT
 10
522.257718754784
 20
2064.589903688013
 30
23.80040285076734
 11
522.257718754784
 21
1806.649060384205
 31
23.80040285076734
  0
LINE
  5
E0
  8
DEFAULT
 10
522.257718754784
 20
1806.649060384205
 30
23.80040285076734
 11
504.4989503131146
 21
1806.65604038604
 31
23.80040285076734
  0
LINE
  5
E1
  8
DEFAULT
 10
504.4989503131146
 20
1806.65604038604
 30
23.80040285076734
 11
504.4989503131146
 21
1664.678241865086
 31
23.80040285076734
  0
LINE
  5
E2
  8
DEFAULT
 10
504.4989503131146
 20
1664.678241865086
 30
23.80040285076734
 11
522.257718754784
 21
1664.672502839848
 31
23.80040285076734
  0
LINE
  5
E3
  8
DEFAULT
 10
522.257718754784
 20
1664.672502839848
 30
23.80040285076734
 11
522.257718754784
 21
1406.543950836509
 31
23.80040285076734
  0
LINE
  5
E4
  8
DEFAULT
 10
522.257718754784
 20
1406.543950836509
 30
23.80040285076734
 11
504.5245699539723
 21
1406.543950836509
 31
23.80040285076734
  0
LINE
  5
E5
  8
DEFAULT
 10
504.5245699539723
 20
1406.543950836509
 30
23.80040285076734
 11
504.5245699539723
 21
1264.561096418776
 31
23.80040285076734
  0
LINE
  5
E6
  8
DEFAULT
 10
504.5245699539723
 20
1264.561096418776
 30
23.80040285076734
 11
522.257718754784
 21
1264.567393292153
 31
23.80040285076734
  0
LINE
  5
E7
  8
DEFAULT
 10
522.257718754784
 20
1264.567393292153
 30
23.80040285076734
 11
522.2273621544159
 21
1221.617648431551
 31
23.80040285076734
  0
CIRCLE
  5
E8
  8
DEFAULT
 10
656.4587071446549
 20
1743.150963919954
 30
23.80040285076734
 40
3.0
  0
CIRCLE
  5
E9
  8
DEFAULT
 10
738.806182899947
 20
1930.761345625975
 30
23.80040285076734
 40
3.0
  0
CIRCLE
  5
EA
  8
DEFAULT
 10
674.4962336550238
 20
2033.395494525792
 30
23.80040285076734
 40
3.0
  0
CIRCLE
  5
EB
  8
DEFAULT
 10
592.5324574416113
 20
2220.901156771881
 30
23.80040285076734
 40
3.0
  0
CIRCLE
  5
EC
  8
DEFAULT
 10
592.5324574416113
 20
2075.072598169082
 30
23.80040285076734
 40
3.0
  0
LINE
  5
ED
  8
DEFAULT
 10
0.0
 20
0.0
 30
0.0
 11
1219.199999999999
 21
0.0
 31
0.0
  0
LINE
  5
EE
  8
DEFAULT
 10
1219.199999999999
 20
0.0
 30
0.0
 11
1219.199999999999
 21
2438.4
 31
0.0
  0
LINE
  5
EF
  8
DEFAULT
 10
1219.199999999999
 20
2438.4
 30
0.0
 11
0.0
 21
2438.4
 31
0.0
  0
LINE
  5
F0
  8
DEFAULT
 10
0.0
 20
2438.4
 30
0.0
 11
0.0
 21
0.0
 31
0.0
  0
LINE
  5
F1
  8
DEFAULT
 10
594.7767574497134
 20
2268.934512053287
 30
0.1457853767261732
 11
746.5145182932187
 21
2268.894090992266
 31
0.1457703186572159
  0
LINE
  5
F2
  8
DEFAULT
 10
746.5145182932187
 20
2268.894090992266
 30
0.1457703186572159
 11
746.5150215534471
 21
2017.862099909207
 31
0.0522533015171027
  0
LINE
  5
F3
  8
DEFAULT
 10
746.5150215534471
 20
2017.862099909207
 30
0.0522533015171027
 11
676.0056621278068
 21
2017.86181719981
 31
0.052253196199213
  0
LINE
  5
F4
  8
DEFAULT
 10
676.0056621278068
 20
2017.86181719981
 30
0.052253196199213
 11
676.0055918187422
 21
2035.397302239076
 31
0.0587856952958447
  0
LINE
  5
F5
  8
DEFAULT
 10
676.0055918187422
 20
2035.397302239076
 30
0.0587856952958447
 11
594.7776938256143
 21
2035.396976553376
 31
0.0587855739680247
  0
LINE
  5
F6
  8
DEFAULT
 10
594.7776938256143
 20
2035.396976553376
 30
0.0587855739680247
 11
594.7775267281636
 21
2077.072041960914
 31
0.074310797622727
  0
LINE
  5
F7
  8
DEFAULT
 10
594.7775267281636
 20
2077.072041960914
 30
0.074310797622727
 11
576.7775265645537
 21
2077.11281107997
 31
0.0743259853539433
  0
LINE
  5
F8
  8
DEFAULT
 10
576.7775265645537
 20
2077.11281107997
 30
0.0743259853539433
 11
576.7769572266302
 21
2219.108963737129
 31
0.1272238514170891
  0
LINE
  5
F9
  8
DEFAULT
 10
576.7769572266302
 20
2219.108963737129
 30
0.1272238514170891
 11
594.7769572264856
 21
2219.10903590867
 31
0.1272238783030606
  0
LINE
  5
FA
  8
DEFAULT
 10
594.7769572264856
 20
2219.10903590867
 30
0.1272238783030606
 11
594.7767574497134
 21
2268.934512053287
 31
0.1457853767261732
  0
LINE
  5
FB
  8
DEFAULT
 10
736.7477889124051
 20
1978.52124446393
 30
0.0375976417457722
 11
585.0100282321896
 21
1978.480215005795
 31
0.0375823570303959
  0
LINE
  5
FC
  8
DEFAULT
 10
585.0100282321896
 20
1978.480215005795
 30
0.0375823570303959
 11
585.0105314924172
 21
1727.448223922736
 31
-0.0559346601097171
  0
LINE
  5
FD
  8
DEFAULT
 10
585.0105314924172
 20
1727.448223922736
 30
-0.0559346601097171
 11
655.5198909186252
 21
1727.448223922736
 31
-0.0559346601097171
  0
LINE
  5
FE
  8
DEFAULT
 10
655.5198909186252
 20
1727.448223922736
 30
-0.0559346601097171
 11
655.5198909186252
 21
1744.983708962142
 31
-0.0494021610130549
  0
LINE
  5
FF
  8
DEFAULT
 10
655.5198909186252
 20
1744.983708962142
 30
-0.0494021610130549
 11
736.7477889124051
 21
1744.983708962142
 31
-0.0494021610129976
  0
LINE
  5
100
  8
DEFAULT
 10
736.7477889124051
 20
1744.983708962142
 30
-0.0494021610129976
 11
736.7477889124051
 21
1786.658774370016
 31
-0.0338769373582666
  0
LINE
  5
101
  8
DEFAULT
 10
736.7477889124051
 20
1786.658774370016
 30
-0.0338769373582666
 11
754.7477889124051
 21
1786.699615660613
 31
-0.033861722740965
  0
LINE
  5
102
  8
DEFAULT
 10
754.7477889124051
 20
1786.699615660613
 30
-0.033861722740965
 11
754.7477889124051
 21
1928.695768318913
 31
0.019036143322654
  0
LINE
  5
103
  8
DEFAULT
 10
754.7477889124051
 20
1928.695768318913
 30
0.019036143322654
 11
736.7477889124051
 21
1928.695768318913
 31
0.019036143322654
  0
LINE
  5
104
  8
DEFAULT
 10
736.7477889124051
 20
1928.695768318913
 30
0.019036143322654
 11
736.7477889124051
 21
1978.52124446393
 31
0.0375976417457722
  0
LINE
  5
105
  8
DEFAULT
 10
1097.637918131948
 20
925.1985963444915
 30
63.98816775578715
 11
1079.587178111947
 21
925.1985963444915
 31
63.98816775578715
  0
LINE
  5
106
  8
DEFAULT
 10
1079.587178111947
 20
925.1985963444915
 30
63.98816775578715
 11
1079.925548761085
 21
842.7290756126984
 31
63.98816775578715
  0
LINE
  5
107
  8
DEFAULT
 10
1079.925548761085
 20
842.7290756126984
 30
63.98816775578715
 11
1020.141266995241
 21
842.7290756126984
 31
65.52647018560819
  0
LINE
  5
108
  8
DEFAULT
 10
1020.141266995241
 20
842.7290756126984
 30
65.52647018560819
 11
1020.141266995241
 21
824.6783355926984
 31
65.52647018560819
  0
LINE
  5
109
  8
DEFAULT
 10
1020.141266995241
 20
824.6783355926984
 30
65.52647018560819
 11
926.1047122463827
 21
824.678335592808
 31
65.52647018560819
  0
LINE
  5
10A
  8
DEFAULT
 10
926.1047122463827
 20
824.678335592808
 30
65.52647018560819
 11
926.1047122463827
 21
842.7290756126984
 31
65.52647018560819
  0
LINE
  5
10B
  8
DEFAULT
 10
926.1047122463827
 20
842.7290756126984
 30
65.52647018560819
 11
842.306095427289
 21
842.7290756126984
 31
63.98816775578715
  0
LINE
  5
10C
  8
DEFAULT
 10
842.306095427289
 20
842.7290756126984
 30
63.98816775578715
 11
842.5298308378664
 21
925.5096373911094
 31
63.98816775578715
  0
LINE
  5
10D
  8
DEFAULT
 10
842.5298308378664
 20
925.5096373911094
 30
63.98816775578715
 11
857.7953381127276
 21
925.5096373911094
 31
63.98816775578715
  0
LINE
  5
10E
  8
DEFAULT
 10
857.7953381127276
 20
925.5096373911094
 30
63.98816775578715
 11
857.7953381127276
 21
995.4210301151418
 31
63.98816775578715
  0
LINE
  5
10F
  8
DEFAULT
 10
857.7953381127276
 20
995.4210301151418
 30
63.98816775578715
 11
1077.753759055454
 21
995.4210301151418
 31
72.08836543996878
  0
LINE
  5
110
  8
DEFAULT
 10
1077.753759055454
 20
995.4210301151418
 30
72.08836543996878
 11
1077.753759055454
 21
1055.590163515142
 31
72.08836543996878
  0
LINE
  5
111
  8
DEFAULT
 10
1077.753759055454
 20
1055.590163515142
 30
72.08836543996878
 11
857.7953381127276
 21
1055.590163515142
 31
63.98816775578715
  0
LINE
  5
112
  8
DEFAULT
 10
857.7953381127276
 20
1055.590163515142
 30
63.98816775578715
 11
857.7953381127276
 21
1126.298281069542
 31
63.98816775578715
  0
LINE
  5
113
  8
DEFAULT
 10
857.7953381127276
 20
1126.298281069542
 30
63.98816775578715
 11
842.5298308378655
 21
1126.298281069542
 31
63.98816775578715
  0
LINE
  5
114
  8
DEFAULT
 10
842.5298308378655
 20
1126.298281069542
 30
63.98816775578715
 11
842.306095427289
 21
1207.827145374433
 31
63.98816775578715
  0
LINE
  5
115
  8
DEFAULT
 10
842.306095427289
 20
1207.827145374433
 30
63.98816775578715
 11
926.1047122463827
 21
1207.755151572698
 31
65.52647018560819
  0
LINE
  5
116
  8
DEFAULT
 10
926.1047122463827
 20
1207.755151572698
 30
65.52647018560819
 11
926.1047122463827
 21
1225.805891592698
 31
65.52647018560819
  0
LINE
  5
117
  8
DEFAULT
 10
926.1047122463827
 20
1225.805891592698
 30
65.52647018560819
 11
1020.141266995241
 21
1225.805891592698
 31
65.52647018560819
  0
LINE
  5
118
  8
DEFAULT
 10
1020.141266995241
 20
1225.805891592698
 30
65.52647018560819
 11
1020.141266995241
 21
1207.755151572698
 31
65.52647018560819
  0
LINE
  5
119
  8
DEFAULT
 10
1020.141266995241
 20
1207.755151572698
 30
65.52647018560819
 11
1079.925548761085
 21
1207.755151572698
 31
65.52647018560825
  0
LINE
  5
11A
  8
DEFAULT
 10
1079.925548761085
 20
1207.755151572698
 30
65.52647018560825
 11
1079.587178111947
 21
1126.039895163584
 31
63.98816775578715
  0
LINE
  5
11B
  8
DEFAULT
 10
1079.587178111947
 20
1126.039895163584
 30
63.98816775578715
 11
1097.637918131948
 21
1126.039895163584
 31
63.98816775578715
  0
LINE
  5
11C
  8
DEFAULT
 10
1097.637918131948
 20
1126.039895163584
 30
63.98816775578715
 11
1097.637918131948
 21
925.1985963444915
 31
63.98816775578715
  0
LINE
  5
11D
  8
DEFAULT
 10
1210.320475479729
 20
2285.725532144523
 30
23.80040285076745
 11
910.7475274781631
 21
2285.725532144523
 31
23.80040285076745
  0
LINE
  5
11E
  8
DEFAULT
 10
910.7475274781631
 20
2285.725532144523
 30
23.80040285076745
 11
910.8222620116907
 21
2241.495749155167
 31
23.80040285076745
  0
LINE
  5
11F
  8
DEFAULT
 10
910.8222620116907
 20
2241.495749155167
 30
23.80040285076745
 11
1060.822262011691
 21
2241.495749155167
 31
23.80040285076745
  0
LINE
  5
120
  8
DEFAULT
 10
1060.822262011691
 20
2241.495749155167
 30
23.80040285076745
 11
1060.822262011691
 21
2223.882418258836
 31
23.80040285076745
  0
LINE
  5
121
  8
DEFAULT
 10
1060.822262011691
 20
2223.882418258836
 30
23.80040285076745
 11
910.7475274781631
 21
2223.882418258836
 31
23.80040285076745
  0
LINE
  5
122
  8
DEFAULT
 10
910.7475274781631
 20
2223.882418258836
 30
23.80040285076745
 11
910.7475274781631
 21
2164.266188088059
 31
23.80040285076745
  0
LINE
  5
123
  8
DEFAULT
 10
910.7475274781631
 20
2164.266188088059
 30
23.80040285076745
 11
928.3982245796809
 21
2164.266188088059
 31
23.80040285076745
  0
LINE
  5
124
  8
DEFAULT
 10
928.3982245796809
 20
2164.266188088059
 30
23.80040285076745
 11
928.3982245796809
 21
2070.493966915741
 31
23.80040285076745
  0
LINE
  5
125
  8
DEFAULT
 10
928.3982245796809
 20
2070.493966915741
 30
23.80040285076745
 11
910.7475274781631
 21
2070.493966915741
 31
23.80040285076745
  0
LINE
  5
126
  8
DEFAULT
 10
910.7475274781631
 20
2070.493966915741
 30
23.80040285076745
 11
910.7475274781631
 21
1985.725532144523
 31
23.80040285076745
  0
LINE
  5
127
  8
DEFAULT
 10
910.7475274781631
 20
1985.725532144523
 30
23.80040285076745
 11
955.1062023632397
 21
1953.377161389745
 31
23.80040285076745
  0
LINE
  5
128
  8
DEFAULT
 10
955.1062023632397
 20
1953.377161389745
 30
23.80040285076745
 11
965.4221189747144
 21
1967.545126598154
 31
23.80040285076745
  0
LINE
  5
129
  8
DEFAULT
 10
965.4221189747144
 20
1967.545126598154
 30
23.80040285076745
 11
1080.240886907015
 21
1884.00107461328
 31
23.80040285076745
  0
LINE
  5
12A
  8
DEFAULT
 10
1080.240886907015
 20
1884.00107461328
 30
23.80040285076745
 11
1069.839885982505
 21
1869.708121559479
 31
23.80040285076745
  0
LINE
  5
12B
  8
DEFAULT
 10
1069.839885982505
 20
1869.708121559479
 30
23.80040285076745
 11
1110.147164393736
 21
1840.314214064708
 31
23.80040285076745
  0
LINE
  5
12C
  8
DEFAULT
 10
1110.147164393736
 20
1840.314214064708
 30
23.80040285076745
 11
1125.002587178484
 21
1860.876943634806
 31
23.80040285076745
  0
LINE
  5
12D
  8
DEFAULT
 10
1125.002587178484
 20
1860.876943634806
 30
23.80040285076745
 11
1139.261846221905
 21
1850.415060723603
 31
23.80040285076745
  0
LINE
  5
12E
  8
DEFAULT
 10
1139.261846221905
 20
1850.415060723603
 30
23.80040285076745
 11
988.9045420317392
 21
1643.740316611941
 31
23.80040285076745
  0
LINE
  5
12F
  8
DEFAULT
 10
988.9045420317392
 20
1643.740316611941
 30
23.80040285076745
 11
974.7100684123756
 21
1654.062124492918
 31
23.80040285076745
  0
LINE
  5
130
  8
DEFAULT
 10
974.7100684123756
 20
1654.062124492918
 30
23.80040285076745
 11
880.2292094489788
 21
1524.153139560206
 31
23.80040285076745
  0
LINE
  5
131
  8
DEFAULT
 10
880.2292094489788
 20
1524.153139560206
 30
23.80040285076745
 11
894.4483040229992
 21
1513.816906228845
 31
23.80040285076745
  0
LINE
  5
132
  8
DEFAULT
 10
894.4483040229992
 20
1513.816906228845
 30
23.80040285076745
 11
744.2016359110115
 21
1307.052242292084
 31
23.80040285076745
  0
LINE
  5
133
  8
DEFAULT
 10
744.2016359110115
 20
1307.052242292084
 30
23.80040285076745
 11
729.9281083493128
 21
1317.390627279118
 31
23.80040285076745
  0
LINE
  5
134
  8
DEFAULT
 10
729.9281083493128
 20
1317.390627279118
 30
23.80040285076745
 11
730.2249320985696
 21
1129.978515227533
 31
23.80040285076745
  0
LINE
  5
135
  8
DEFAULT
 10
730.2249320985696
 20
1129.978515227533
 30
23.80040285076745
 11
747.9191702674128
 21
1129.978515227533
 31
23.80040285076745
  0
LINE
  5
136
  8
DEFAULT
 10
747.9191702674128
 20
1129.978515227533
 30
23.80040285076745
 11
747.842521299974
 21
744.8454254341036
 31
23.80040285076745
  0
LINE
  5
137
  8
DEFAULT
 10
747.842521299974
 20
744.8454254341036
 30
23.80040285076745
 11
730.2698982483411
 21
744.8419954142166
 31
23.80040285076745
  0
LINE
  5
138
  8
DEFAULT
 10
730.2698982483411
 20
744.8419954142166
 30
23.80040285076745
 11
730.3909195812215
 21
541.714699562214
 31
23.80040285076745
  0
LINE
  5
139
  8
DEFAULT
 10
730.3909195812215
 20
541.714699562214
 30
23.80040285076745
 11
970.3909195812215
 21
541.714699562214
 31
23.80040285076745
  0
LINE
  5
13A
  8
DEFAULT
 10
970.3909195812215
 20
541.714699562214
 30
23.80040285076745
 11
970.3412848066804
 21
524.0133113500838
 31
23.80040285076745
  0
LINE
  5
13B
  8
DEFAULT
 10
970.3412848066804
 20
524.0133113500838
 30
23.80040285076745
 11
730.3130111903882
 21
523.9664599637176
 31
23.80040285076745
  0
LINE
  5
13C
  8
DEFAULT
 10
730.3130111903882
 20
523.9664599637176
 30
23.80040285076745
 11
730.3204754797292
 21
485.725532144523
 31
23.80040285076745
  0
LINE
  5
13D
  8
DEFAULT
 10
730.3204754797292
 20
485.725532144523
 30
23.80040285076745
 11
1210.320475479729
 21
485.725532144523
 31
23.80040285076745
  0
LINE
  5
13E
  8
DEFAULT
 10
1210.320475479729
 20
485.725532144523
 30
23.80040285076745
 11
1210.320475479729
 21
2285.725532144523
 31
23.80040285076745
  0
LINE
  5
13F
  8
DEFAULT
 10
1110.320475479729
 20
2185.725532144523
 30
23.80040285076745
 11
1010.747527478161
 21
2185.725532144523
 31
23.80040285076745
  0
LINE
  5
140
  8
DEFAULT
 10
1010.747527478161
 20
2185.725532144523
 30
23.80040285076745
 11
1010.747527478161
 21
2036.238477405609
 31
23.80040285076745
  0
LINE
  5
141
  8
DEFAULT
 10
1010.747527478161
 20
2036.238477405609
 30
23.80040285076745
 11
1110.320475479729
 21
1963.831929126658
 31
23.80040285076745
  0
LINE
  5
142
  8
DEFAULT
 10
1110.320475479729
 20
1963.831929126658
 30
23.80040285076745
 11
1110.320475479729
 21
2023.991058033524
 31
23.80040285076745
  0
LINE
  5
143
  8
DEFAULT
 10
1110.320475479729
 20
2023.991058033524
 30
23.80040285076745
 11
1128.026470334002
 21
2023.88958318492
 31
23.80040285076745
  0
LINE
  5
144
  8
DEFAULT
 10
1128.026470334002
 20
2023.88958318492
 30
23.80040285076745
 11
1128.071322804807
 21
2146.40488050692
 31
23.80040285076745
  0
LINE
  5
145
  8
DEFAULT
 10
1128.071322804807
 20
2146.40488050692
 30
23.80040285076745
 11
1110.320475479729
 21
2146.40488050692
 31
23.80040285076745
  0
LINE
  5
146
  8
DEFAULT
 10
1110.320475479729
 20
2146.40488050692
 30
23.80040285076745
 11
1110.320475479729
 21
2185.725532144523
 31
23.80040285076745
  0
LINE
  5
147
  8
DEFAULT
 10
1110.320475479729
 20
1670.565683437164
 30
23.80040285076745
 11
830.1281866357552
 21
1285.203240699357
 31
23.80040285076745
  0
LINE
  5
148
  8
DEFAULT
 10
830.1281866357552
 20
1285.203240699357
 30
23.80040285076745
 11
779.9465154319408
 21
1285.25016249071
 31
23.80040285076745
  0
LINE
  5
149
  8
DEFAULT
 10
779.9465154319408
 20
1285.25016249071
 30
23.80040285076745
 11
779.9465154319408
 21
1267.806227508788
 31
23.80040285076745
  0
LINE
  5
14A
  8
DEFAULT
 10
779.9465154319408
 20
1267.806227508788
 30
23.80040285076745
 11
830.1281866357552
 21
1267.806227508788
 31
23.80040285076745
  0
LINE
  5
14B
  8
DEFAULT
 10
830.1281866357552
 20
1267.806227508788
 30
23.80040285076745
 11
830.1281866357552
 21
585.7255321445227
 31
23.80040285076745
  0
LINE
  5
14C
  8
DEFAULT
 10
830.1281866357552
 20
585.7255321445227
 30
23.80040285076745
 11
1110.320475479729
 21
585.7255321445227
 31
23.80040285076745
  0
LINE
  5
14D
  8
DEFAULT
 10
1110.320475479729
 20
585.7255321445227
 30
23.80040285076745
 11
1110.320475479729
 21
685.6168706363451
 31
23.80040285076745
  0
LINE
  5
14E
  8
DEFAULT
 10
1110.320475479729
 20
685.6168706363451
 30
23.80040285076745
 11
1127.942447219252
 21
685.6168706363451
 31
23.80040285076745
  0
LINE
  5
14F
  8
DEFAULT
 10
1127.942447219252
 20
685.6168706363451
 30
23.80040285076745
 11
1127.905306273031
 21
827.6871122058566
 31
23.80040285076745
  0
LINE
  5
150
  8
DEFAULT
 10
1127.905306273031
 20
827.6871122058566
 30
23.80040285076745
 11
1110.290118879362
 21
827.5934281807014
 31
23.80040285076745
  0
LINE
  5
151
  8
DEFAULT
 10
1110.290118879362
 20
827.5934281807014
 30
23.80040285076745
 11
1110.290118879362
 21
1085.53427148451
 31
23.80040285076745
  0
LINE
  5
152
  8
DEFAULT
 10
1110.290118879362
 20
1085.53427148451
 30
23.80040285076745
 11
1128.048887321031
 21
1085.527291482675
 31
23.80040285076745
  0
LINE
  5
153
  8
DEFAULT
 10
1128.048887321031
 20
1085.527291482675
 30
23.80040285076745
 11
1128.048887321031
 21
1227.505090003629
 31
23.80040285076745
  0
LINE
  5
154
  8
DEFAULT
 10
1128.048887321031
 20
1227.505090003629
 30
23.80040285076745
 11
1110.290118879362
 21
1227.510829028866
 31
23.80040285076745
  0
LINE
  5
155
  8
DEFAULT
 10
1110.290118879362
 20
1227.510829028866
 30
23.80040285076745
 11
1110.290118879362
 21
1485.639381032205
 31
23.80040285076745
  0
LINE
  5
156
  8
DEFAULT
 10
1110.290118879362
 20
1485.639381032205
 30
23.80040285076745
 11
1128.023267680173
 21
1485.639381032205
 31
23.80040285076745
  0
LINE
  5
157
  8
DEFAULT
 10
1128.023267680173
 20
1485.639381032205
 30
23.80040285076745
 11
1128.023267680173
 21
1627.622235449938
 31
23.80040285076745
  0
LINE
  5
158
  8
DEFAULT
 10
1128.023267680173
 20
1627.622235449938
 30
23.80040285076745
 11
1110.290118879362
 21
1627.615938576562
 31
23.80040285076745
  0
LINE
  5
159
  8
DEFAULT
 10
1110.290118879362
 20
1627.615938576562
 30
23.80040285076745
 11
1110.320475479729
 21
1670.565683437164
 31
23.80040285076745
  0
LINE
  5
15A
  8
DEFAULT
 10
970.0786639967631
 20
140.4770450632006
 30
-637.7004735302521
 11
970.0786639967631
 21
340.6770450632004
 31
-637.7004735302521
  0
LINE
  5
15B
  8
DEFAULT
 10
970.0786639967631
 20
340.6770450632004
 30
-637.7004735302521
 11
987.6786639967635
 21
340.6770450632004
 31
-637.7004735302521
  0
LINE
  5
15C
  8
DEFAULT
 10
987.6786639967635
 20
340.6770450632004
 30
-637.7004735302521
 11
987.6786639967635
 21
140.4770450632006
 31
-637.7004735302521
  0
LINE
  5
15D
  8
DEFAULT
 10
987.6786639967635
 20
140.4770450632006
 30
-637.7004735302521
 11
970.0786639967631
 21
140.4770450632006
 31
-637.7004735302521
  0
LINE
  5
15E
  8
DEFAULT
 10
887.6710308756859
 20
10.5701604567173
 30
-637.7004735302521
 11
887.6710308756859
 21
40.57016045671685
 31
-637.7004735302521
  0
LINE
  5
15F
  8
DEFAULT
 10
887.6710308756859
 20
40.57016045671685
 30
-637.7004735302521
 11
1037.169244343726
 21
40.57016045671685
 31
-637.7004735302521
  0
LINE
  5
160
  8
DEFAULT
 10
1037.169244343726
 20
40.57016045671685
 30
-637.7004735302521
 11
1037.169244343726
 21
58.15058341087956
 31
-637.7004735302521
  0
LINE
  5
161
  8
DEFAULT
 10
1037.169244343726
 20
58.15058341087956
 30
-637.7004735302521
 11
887.6710308756859
 21
58.15058341088047
 31
-637.7004735302521
  0
LINE
  5
162
  8
DEFAULT
 10
887.6710308756859
 20
58.15058341088047
 30
-637.7004735302521
 11
887.6710308756859
 21
422.9638432535613
 31
-637.7004735302521
  0
LINE
  5
163
  8
DEFAULT
 10
887.6710308756859
 20
422.9638432535613
 30
-637.7004735302521
 11
1037.169244343725
 21
422.9638432535613
 31
-637.7004735302521
  0
LINE
  5
164
  8
DEFAULT
 10
1037.169244343725
 20
422.9638432535613
 30
-637.7004735302521
 11
1037.169244343726
 21
440.5821529333263
 31
-637.7004735302521
  0
LINE
  5
165
  8
DEFAULT
 10
1037.169244343726
 20
440.5821529333263
 30
-637.7004735302521
 11
887.6710308756859
 21
440.5821529333263
 31
-637.7004735302521
  0
LINE
  5
166
  8
DEFAULT
 10
887.6710308756859
 20
440.5821529333263
 30
-637.7004735302521
 11
887.6710308756859
 21
470.5701604567176
 31
-637.7004735302521
  0
LINE
  5
167
  8
DEFAULT
 10
887.6710308756859
 20
470.5701604567176
 30
-637.7004735302521
 11
1187.671030875686
 21
470.5701604567176
 31
-637.7004735302521
  0
LINE
  5
168
  8
DEFAULT
 10
1187.671030875686
 20
470.5701604567176
 30
-637.7004735302521
 11
1187.79669706824
 21
340.6632758502348
 31
-637.7004735302521
  0
LINE
  5
169
  8
DEFAULT
 10
1187.79669706824
 20
340.6632758502348
 30
-637.7004735302521
 11
1170.238516867485
 21
340.6632758502348
 31
-637.7004735302521
  0
LINE
  5
16A
  8
DEFAULT
 10
1170.238516867485
 20
340.6632758502348
 30
-637.7004735302521
 11
1170.152155406915
 21
140.3865351327834
 31
-637.7004735302521
  0
LINE
  5
16B
  8
DEFAULT
 10
1170.152155406915
 20
140.3865351327834
 30
-637.7004735302521
 11
1187.671030875686
 21
140.3865351327834
 31
-637.7004735302521
  0
LINE
  5
16C
  8
DEFAULT
 10
1187.671030875686
 20
140.3865351327834
 30
-637.7004735302521
 11
1187.671030875686
 21
10.5701604567173
 31
-637.7004735302521
  0
LINE
  5
16D
  8
DEFAULT
 10
1187.671030875686
 20
10.5701604567173
 30
-637.7004735302521
 11
887.6710308756859
 21
10.5701604567173
 31
-637.7004735302521
  0
LINE
  5
16E
  8
DEFAULT
 10
110.2510555495683
 20
575.02063510816
 30
336.7603283635293
 11
110.2510555495683
 21
474.8537970530546
 31
336.7603283635293
  0
LINE
  5
16F
  8
DEFAULT
 10
110.2510555495683
 20
474.8537970530546
 30
336.7603283635293
 11
139.9319604843599
 21
474.8537970530546
 31
336.876592092027
  0
LINE
  5
170
  8
DEFAULT
 10
139.9319604843599
 20
474.8537970530546
 30
336.876592092027
 11
139.9319604843599
 21
525.0354682568692
 31
336.6813951106354
  0
LINE
  5
171
  8
DEFAULT
 10
139.9319604843599
 20
525.0354682568692
 30
336.6813951106354
 11
157.9319604843599
 21
525.0354682568692
 31
336.876592092027
  0
LINE
  5
172
  8
DEFAULT
 10
157.9319604843599
 20
525.0354682568692
 30
336.876592092027
 11
157.9319604843599
 21
492.4501699010076
 31
336.876592092027
  0
LINE
  5
173
  8
DEFAULT
 10
157.9319604843599
 20
492.4501699010076
 30
336.876592092027
 11
521.9319604843599
 21
492.4501699010082
 31
336.876592092027
  0
LINE
  5
174
  8
DEFAULT
 10
521.9319604843599
 20
492.4501699010082
 30
336.876592092027
 11
521.9319604843599
 21
525.0354682568692
 31
336.876592092027
  0
LINE
  5
175
  8
DEFAULT
 10
521.9319604843599
 20
525.0354682568692
 30
336.876592092027
 11
539.9319604843599
 21
525.0354682568692
 31
336.876592092027
  0
LINE
  5
176
  8
DEFAULT
 10
539.9319604843599
 20
525.0354682568692
 30
336.876592092027
 11
539.9319604843599
 21
474.8537970530546
 31
336.876592092027
  0
LINE
  5
177
  8
DEFAULT
 10
539.9319604843599
 20
474.8537970530546
 30
336.876592092027
 11
570.2510555495687
 21
474.8537970530546
 31
336.7603283635293
  0
LINE
  5
178
  8
DEFAULT
 10
570.2510555495687
 20
474.8537970530546
 30
336.7603283635293
 11
570.2510555495687
 21
575.02063510816
 31
336.7603283635293
  0
LINE
  5
179
  8
DEFAULT
 10
570.2510555495687
 20
575.02063510816
 30
336.7603283635293
 11
110.2510555495683
 21
575.02063510816
 31
336.7603283635293
  0
CIRCLE
  5
17A
  8
DEFAULT
 10
738.806182899947
 20
1784.744616274635
 30
23.80040285076734
 40
3.0
  0
CIRCLE
  5
17B
  8
DEFAULT
 10
664.3502688947888
 20
2366.431745960823
 30
23.80040285076734
 40
3.0
  0
CIRCLE
  5
17C
  8
DEFAULT
 10
666.8481036177795
 20
927.622160342511
 30
-116.3957807144408
 40
3.0
  0
CIRCLE
  5
17D
  8
DEFAULT
 10
706.5230398191674
 20
820.2354664765389
 30
-116.3957807144408
 40
3.0
  0
CIRCLE
  5
17E
  8
DEFAULT
 10
506.5672336666744
 20
747.6598133063237
 30
-116.3957807144408
 40
3.0
  0
CIRCLE
  5
17F
  8
DEFAULT
 10
573.9385950130563
 20
666.566124589786
 30
-116.3957807144408
 40
3.0
  0
CIRCLE
  5
180
  8
DEFAULT
 10
496.1076563404117
 20
1042.110291136405
 30
23.80040285076734
 40
3.0
  0
CIRCLE
  5
181
  8
DEFAULT
 10
507.4798210509166
 20
1034.243831336658
 30
23.80040285076734
 40
3.0
  0
CIRCLE
  5
182
  8
DEFAULT
 10
573.9385950130563
 20
652.4912278287427
 30
-116.3957807144408
 40
3.0
  0
CIRCLE
  5
183
  8
DEFAULT
 10
506.5672336666744
 20
866.5177032590308
 30
-116.3957807144408
 40
3.0
  0
CIRCLE
  5
184
  8
DEFAULT
 10
706.3520298235206
 20
729.9254733140174
 30
-116.3957807144408
 40
3.0
  0
CIRCLE
  5
185
  8
DEFAULT
 10
555.0929508816098
 20
1008.765906841274
 30
-116.3957807144408
 40
3.0
  0
CIRCLE
  5
186
  8
DEFAULT
 10
664.3502688947888
 20
2352.286474715975
 30
23.80040285076734
 40
3.0
  0
CIRCLE
  5
187
  8
DEFAULT
 10
886.9448401694575
 20
2145.426379033246
 30
23.80040285076734
 40
3.0
  0
CIRCLE
  5
188
  8
DEFAULT
 10
850.4974355430871
 20
1608.825027778805
 30
23.80040285076734
 40
3.0
  0
CIRCLE
  5
189
  8
DEFAULT
 10
850.5235853792786
 20
1622.331757580877
 30
23.80040285076734
 40
3.0
  0
CIRCLE
  5
18A
  8
DEFAULT
 10
644.1542585965544
 20
1245.644028099025
 30
23.80040285076734
 40
3.0
  0
CIRCLE
  5
18B
  8
DEFAULT
 10
888.5143953156279
 20
1582.3176459728
 30
23.80040285076734
 40
3.0
  0
CIRCLE
  5
18C
  8
DEFAULT
 10
886.6721950001687
 20
1764.24474204935
 30
23.80040285076734
 40
3.0
  0
CIRCLE
  5
18D
  8
DEFAULT
 10
740.9418429220781
 20
1378.898716383703
 30
23.80040285076734
 40
3.0
  0
CIRCLE
  5
18E
  8
DEFAULT
 10
506.7712269918802
 20
1266.616322638276
 30
23.80040285076734
 40
3.0
  0
CIRCLE
  5
18F
  8
DEFAULT
 10
506.9015501100394
 20
1404.78330782783
 30
23.80040285076734
 40
3.0
  0
CIRCLE
  5
190
  8
DEFAULT
 10
506.7830752806494
 20
2066.38229567487
 30
23.80040285076734
 40
3.0
  0
CIRCLE
  5
191
  8
DEFAULT
 10
506.9133983988086
 20
2205.077089492962
 30
23.80040285076734
 40
3.0
  0
CIRCLE
  5
192
  8
DEFAULT
 10
506.1658722935495
 20
1805.05715740193
 30
23.80040285076734
 40
3.0
  0
CIRCLE
  5
193
  8
DEFAULT
 10
506.0355491753903
 20
1666.362363583837
 30
23.80040285076734
 40
3.0
  0
CIRCLE
  5
194
  8
DEFAULT
 10
1126.405747898879
 20
1225.665290367221
 30
23.80040285076734
 40
3.0
  0
CIRCLE
  5
195
  8
DEFAULT
 10
1126.27542478072
 20
1086.970496549128
 30
23.80040285076734
 40
3.0
  0
CIRCLE
  5
196
  8
DEFAULT
 10
1125.527898675461
 20
686.9505644580956
 30
23.80040285076734
 40
3.0
  0
CIRCLE
  5
197
  8
DEFAULT
 10
1125.65822179362
 20
825.6453582761883
 30
23.80040285076734
 40
3.0
  0
CIRCLE
  5
198
  8
DEFAULT
 10
1125.539746964231
 20
1487.244346123229
 30
23.80040285076734
 40
3.0
  0
CIRCLE
  5
199
  8
DEFAULT
 10
1125.67007008239
 20
1625.411331312782
 30
23.80040285076734
 40
3.0
  0
CIRCLE
  5
19A
  8
DEFAULT
 10
891.4994541521913
 20
1513.128937567355
 30
23.80040285076734
 40
3.0
  0
CIRCLE
  5
19B
  8
DEFAULT
 10
745.7691020741007
 20
1127.782911901708
 30
23.80040285076734
 40
3.0
  0
CIRCLE
  5
19C
  8
DEFAULT
 10
743.9269017586415
 20
1309.710007978258
 30
23.80040285076734
 40
3.0
  0
CIRCLE
  5
19D
  8
DEFAULT
 10
988.2870384777146
 20
1646.383625852033
 30
23.80040285076734
 40
3.0
  0
CIRCLE
  5
19E
  8
DEFAULT
 10
781.9177116949908
 20
1269.695896370181
 30
23.80040285076734
 40
3.0
  0
CIRCLE
  5
19F
  8
DEFAULT
 10
781.9438615311823
 20
1283.202626172254
 30
23.80040285076734
 40
3.0
  0
CIRCLE
  5
1A0
  8
DEFAULT
 10
745.4964569048119
 20
746.6012749178126
 30
23.80040285076734
 40
3.0
  0
CIRCLE
  5
1A1
  8
DEFAULT
 10
968.0910281794808
 20
539.7411792350833
 30
23.80040285076734
 40
3.0
  0
CIRCLE
  5
1A2
  8
DEFAULT
 10
1077.348346192659
 20
1883.261747109785
 30
-116.3957807144408
 40
3.0
  0
CIRCLE
  5
1A3
  8
DEFAULT
 10
926.0892672507492
 20
2162.102180637041
 30
-116.3957807144408
 40
3.0
  0
CIRCLE
  5
1A4
  8
DEFAULT
 10
1125.874063407595
 20
2025.509950692027
 30
-116.3957807144408
 40
3.0
  0
CIRCLE
  5
1A5
  8
DEFAULT
 10
1058.502702061213
 20
2239.536426122316
 30
-116.3957807144408
 40
3.0
  0
CIRCLE
  5
1A6
  8
DEFAULT
 10
1124.961476023353
 20
1857.7838226144
 30
23.80040285076734
 40
3.0
  0
CIRCLE
  5
1A7
  8
DEFAULT
 10
1136.333640733858
 20
1849.917362814653
 30
23.80040285076734
 40
3.0
  0
CIRCLE
  5
1A8
  8
DEFAULT
 10
1058.502702061213
 20
2225.461529361272
 30
-116.3957807144408
 40
3.0
  0
CIRCLE
  5
1A9
  8
DEFAULT
 10
1125.874063407595
 20
2144.367840644734
 30
-116.3957807144408
 40
3.0
  0
CIRCLE
  5
1AA
  8
DEFAULT
 10
925.918257255102
 20
2071.792187474519
 30
-116.3957807144408
 40
3.0
  0
CIRCLE
  5
1AB
  8
DEFAULT
 10
965.59319345649
 20
1964.405493608547
 30
-116.3957807144408
 40
3.0
  0
CIRCLE
  5
1AC
  8
DEFAULT
 10
968.0910281794808
 20
525.595907990235
 30
23.80040285076734
 40
3.0
  0
CIRCLE
  5
1AD
  8
DEFAULT
 10
1081.588594187046
 20
1128.231961758357
 30
23.80040285076734
 40
3.0
  0
CIRCLE
  5
1AE
  8
DEFAULT
 10
1022.123223892006
 20
840.7118961494205
 30
23.80040285076734
 40
3.0
  0
CIRCLE
  5
1AF
  8
DEFAULT
 10
855.7549590982802
 20
927.2618690104883
 30
23.80040285076734
 40
3.0
  0
CIRCLE
  5
1B0
  8
DEFAULT
 10
855.7549590982802
 20
1123.749324619795
 30
23.80040285076734
 40
3.0
  0
CIRCLE
  5
1B1
  8
DEFAULT
 10
1022.123223892006
 20
1210.299297480863
 30
23.80040285076734
 40
3.0
  0
CIRCLE
  5
1B2
  8
DEFAULT
 10
924.5710671557484
 20
1210.299297480863
 30
23.80040285076734
 40
3.0
  0
CIRCLE
  5
1B3
  8
DEFAULT
 10
395.7576946215404
 20
1854.66066626716
 30
-116.3957807144408
 40
3.0
  0
CIRCLE
  5
1B4
  8
DEFAULT
 10
395.8632563472484
 20
2255.193443337731
 30
-116.3957807144408
 40
3.0
  0
CIRCLE
  5
1B5
  8
DEFAULT
 10
395.836812210649
 20
786.900807754512
 30
-116.3957807144408
 40
3.0
  0
CIRCLE
  5
1B6
  8
DEFAULT
 10
395.7576946215404
 20
1708.38549628753
 30
-116.3957807144408
 40
3.0
  0
CIRCLE
  5
1B7
  8
DEFAULT
 10
395.5465711701254
 20
1306.868702212506
 30
-116.3957807144408
 40
3.0
  0
CIRCLE
  5
1B8
  8
DEFAULT
 10
304.7606489195418
 20
1120.825367983811
 30
-116.3957807144408
 40
3.0
  0
LINE
  5
1B9
  8
DEFAULT
 10
181.4239953710508
 20
927.5157281409138
 30
-116.3924869792719
 11
241.5931287710509
 21
927.5157281409138
 31
-116.3924869792719
  0
LINE
  5
1BA
  8
DEFAULT
 10
241.5931287710509
 20
927.5157281409138
 30
-116.3924869792719
 11
241.5931287710509
 21
1163.868078624724
 31
-116.3924869792719
  0
LINE
  5
1BB
  8
DEFAULT
 10
241.5931287710509
 20
1163.868078624724
 30
-116.3924869792719
 11
181.4239953710508
 21
1163.868078624724
 31
-116.3924869792719
  0
LINE
  5
1BC
  8
DEFAULT
 10
181.4239953710508
 20
1163.868078624724
 30
-116.3924869792719
 11
181.4239953710508
 21
927.5157281409138
 31
-116.3924869792719
  0
LINE
  5
1BD
  8
DEFAULT
 10
385.5635332801894
 20
1069.985480787485
 30
-116.3957807144408
 11
302.5487067452323
 21
1069.985480787485
 31
-116.3957807144408
  0
LINE
  5
1BE
  8
DEFAULT
 10
302.5487067452323
 20
1069.985480787485
 30
-116.3957807144408
 11
302.5487067452323
 21
1122.725479046552
 31
-116.3957807144408
  0
LINE
  5
1BF
  8
DEFAULT
 10
302.5487067452323
 20
1122.725479046552
 30
-116.3957807144408
 11
393.7807879349284
 21
1122.725479046552
 31
-116.3957807144408
  0
LINE
  5
1C0
  8
DEFAULT
 10
393.7807879349284
 20
1122.725479046552
 30
-116.3957807144408
 11
393.7807879349284
 21
1308.879337587106
 31
-116.3957807144408
  0
LINE
  5
1C1
  8
DEFAULT
 10
393.7807879349284
 20
1308.879337587106
 30
-116.3957807144408
 11
411.7951150576732
 21
1308.879337587106
 31
-116.3957807144408
  0
LINE
  5
1C2
  8
DEFAULT
 10
411.7951150576732
 20
1308.879337587106
 30
-116.3957807144408
 11
411.7951150576732
 21
1451.196581297522
 31
-116.3957807144408
  0
LINE
  5
1C3
  8
DEFAULT
 10
411.7951150576732
 20
1451.196581297522
 30
-116.3957807144408
 11
393.7807879349284
 21
1451.196581297522
 31
-116.3957807144408
  0
LINE
  5
1C4
  8
DEFAULT
 10
393.7807879349284
 20
1451.196581297522
 30
-116.3957807144408
 11
393.7807879349284
 21
1710.168275065346
 31
-116.3957807144408
  0
LINE
  5
1C5
  8
DEFAULT
 10
393.7807879349284
 20
1710.168275065346
 30
-116.3957807144408
 11
411.7951150576732
 21
1710.168275065346
 31
-116.3957807144408
  0
LINE
  5
1C6
  8
DEFAULT
 10
411.7951150576732
 20
1710.168275065346
 30
-116.3957807144408
 11
411.7951150576732
 21
1852.485518775762
 31
-116.3957807144408
  0
LINE
  5
1C7
  8
DEFAULT
 10
411.7951150576732
 20
1852.485518775762
 30
-116.3957807144408
 11
393.7807879349284
 21
1852.485518775762
 31
-116.3957807144408
  0
LINE
  5
1C8
  8
DEFAULT
 10
393.7807879349284
 20
1852.485518775762
 30
-116.3957807144408
 11
393.786220879163
 21
2110.971756804465
 31
-116.3957807144408
  0
LINE
  5
1C9
  8
DEFAULT
 10
393.786220879163
 20
2110.971756804465
 30
-116.3957807144408
 11
411.8005479414091
 21
2110.97028042833
 31
-116.3957807144408
  0
LINE
  5
1CA
  8
DEFAULT
 10
411.8005479414091
 20
2110.97028042833
 30
-116.3957807144408
 11
411.8122116449626
 21
2253.287523660792
 31
-116.3957807144408
  0
LINE
  5
1CB
  8
DEFAULT
 10
411.8122116449626
 20
2253.287523660792
 30
-116.3957807144408
 11
393.7978845827165
 21
2253.289000036928
 31
-116.3957807144408
  0
LINE
  5
1CC
  8
DEFAULT
 10
393.7978845827165
 20
2253.289000036928
 30
-116.3957807144408
 11
393.9678848721446
 21
2398.193160799127
 31
-116.3957807144408
  0
LINE
  5
1CD
  8
DEFAULT
 10
393.9678848721446
 20
2398.193160799127
 30
-116.3957807144408
 11
311.4763944929623
 21
2398.199921443992
 31
-116.3957807144408
  0
LINE
  5
1CE
  8
DEFAULT
 10
311.4763944929623
 20
2398.199921443992
 30
-116.3957807144408
 11
311.4778421003411
 21
2415.863221142037
 31
-116.3957807144408
  0
LINE
  5
1CF
  8
DEFAULT
 10
311.4778421003411
 20
2415.863221142037
 30
-116.3957807144408
 11
111.2506354127991
 21
2415.871426018857
 31
-116.3957807144408
  0
LINE
  5
1D0
  8
DEFAULT
 10
111.2506354127991
 20
2415.871426018857
 30
-116.3957807144408
 11
111.2506354127991
 21
2398.208126261493
 31
-116.3957807144408
  0
LINE
  5
1D1
  8
DEFAULT
 10
111.2506354127991
 20
2398.208126261493
 30
-116.3957807144408
 11
28.75914475657964
 21
2398.208126261493
 31
-116.3957807144408
  0
LINE
  5
1D2
  8
DEFAULT
 10
28.75914475657964
 20
2398.208126261493
 30
-116.3957807144408
 11
28.75914475657964
 21
2253.303965012652
 31
-116.3957807144408
  0
LINE
  5
1D3
  8
DEFAULT
 10
28.75914475657964
 20
2253.303965012652
 30
-116.3957807144408
 11
10.74481763383483
 21
2253.303965012652
 31
-116.3957807144408
  0
LINE
  5
1D4
  8
DEFAULT
 10
10.74481763383483
 20
2253.303965012652
 30
-116.3957807144408
 11
10.74481763383483
 21
2110.986721302236
 31
-116.3957807144408
  0
LINE
  5
1D5
  8
DEFAULT
 10
10.74481763383483
 20
2110.986721302236
 30
-116.3957807144408
 11
28.75914475657964
 21
2110.986721302236
 31
-116.3957807144408
  0
LINE
  5
1D6
  8
DEFAULT
 10
28.75914475657964
 20
2110.986721302236
 30
-116.3957807144408
 11
28.75914475657964
 21
1852.485518775762
 31
-116.3957807144408
  0
LINE
  5
1D7
  8
DEFAULT
 10
28.75914475657964
 20
1852.485518775762
 30
-116.3957807144408
 11
10.74481763383483
 21
1852.485518775762
 31
-116.3957807144408
  0
LINE
  5
1D8
  8
DEFAULT
 10
10.74481763383483
 20
1852.485518775762
 30
-116.3957807144408
 11
10.74481763383483
 21
1710.168275065346
 31
-116.3957807144408
  0
LINE
  5
1D9
  8
DEFAULT
 10
10.74481763383483
 20
1710.168275065346
 30
-116.3957807144408
 11
28.75914475657964
 21
1710.168275065346
 31
-116.3957807144408
  0
LINE
  5
1DA
  8
DEFAULT
 10
28.75914475657964
 20
1710.168275065346
 30
-116.3957807144408
 11
28.75914475657964
 21
1451.196581297522
 31
-116.3957807144408
  0
LINE
  5
1DB
  8
DEFAULT
 10
28.75914475657964
 20
1451.196581297522
 30
-116.3957807144408
 11
10.74481763383483
 21
1451.196581297522
 31
-116.3957807144408
  0
LINE
  5
1DC
  8
DEFAULT
 10
10.74481763383483
 20
1451.196581297522
 30
-116.3957807144408
 11
10.74481763383483
 21
1308.879337587106
 31
-116.3957807144408
  0
LINE
  5
1DD
  8
DEFAULT
 10
10.74481763383483
 20
1308.879337587106
 30
-116.3957807144408
 11
28.75914475657964
 21
1308.879337587106
 31
-116.3957807144408
  0
LINE
  5
1DE
  8
DEFAULT
 10
28.75914475657964
 20
1308.879337587106
 30
-116.3957807144408
 11
28.75914475657964
 21
1122.732687857791
 31
-116.3957807144408
  0
LINE
  5
1DF
  8
DEFAULT
 10
28.75914475657964
 20
1122.732687857791
 30
-116.3957807144408
 11
120.0356687652325
 21
1122.725479046552
 31
-116.3957807144408
  0
LINE
  5
1E0
  8
DEFAULT
 10
120.0356687652325
 20
1122.725479046552
 30
-116.3957807144408
 11
120.0356687652325
 21
1069.985480787485
 31
-116.3957807144408
  0
LINE
  5
1E1
  8
DEFAULT
 10
120.0356687652325
 20
1069.985480787485
 30
-116.3957807144408
 11
28.79003038388464
 21
1070.091772172392
 31
-116.3957807144408
  0
LINE
  5
1E2
  8
DEFAULT
 10
28.79003038388464
 20
1070.091772172392
 30
-116.3957807144408
 11
28.75914475657964
 21
911.4369078999632
 31
-116.3957807144408
  0
LINE
  5
1E3
  8
DEFAULT
 10
28.75914475657964
 20
911.4369078999632
 30
-116.3957807144408
 11
10.6926863355684
 21
911.4369078999632
 31
-116.3957807144408
  0
LINE
  5
1E4
  8
DEFAULT
 10
10.6926863355684
 20
911.4369078999632
 30
-116.3957807144408
 11
10.6926863355684
 21
788.6380194004346
 31
-116.3957807144408
  0
LINE
  5
1E5
  8
DEFAULT
 10
10.6926863355684
 20
788.6380194004346
 30
-116.3957807144408
 11
28.74938050175342
 21
788.6380194004346
 31
-116.3957807144408
  0
LINE
  5
1E6
  8
DEFAULT
 10
28.74938050175342
 20
788.6380194004346
 30
-116.3957807144408
 11
28.74938050175342
 21
711.2738271906283
 31
-116.3957807144408
  0
LINE
  5
1E7
  8
DEFAULT
 10
28.74938050175342
 20
711.2738271906283
 30
-116.3957807144408
 11
111.3086860677781
 21
711.2738271906283
 31
-116.3957807144408
  0
LINE
  5
1E8
  8
DEFAULT
 10
111.3086860677781
 20
711.2738271906283
 30
-116.3957807144408
 11
111.3086860677781
 21
693.2230866991276
 31
-116.3957807144408
  0
LINE
  5
1E9
  8
DEFAULT
 10
111.3086860677781
 20
693.2230866991276
 30
-116.3957807144408
 11
311.968454750961
 21
693.2230866991276
 31
-116.3957807144408
  0
LINE
  5
1EA
  8
DEFAULT
 10
311.968454750961
 20
693.2230866991276
 30
-116.3957807144408
 11
311.968454750961
 21
711.2738271906283
 31
-116.3957807144408
  0
LINE
  5
1EB
  8
DEFAULT
 10
311.968454750961
 20
711.2738271906283
 30
-116.3957807144408
 11
394.5277603169857
 21
711.2738271906283
 31
-116.3957807144408
  0
LINE
  5
1EC
  8
DEFAULT
 10
394.5277603169857
 20
711.2738271906283
 30
-116.3957807144408
 11
393.7905521897551
 21
788.6380194004346
 31
-116.3957807144408
  0
LINE
  5
1ED
  8
DEFAULT
 10
393.7905521897551
 20
788.6380194004346
 30
-116.3957807144408
 11
411.8472463559397
 21
788.6380194004346
 31
-116.3957807144408
  0
LINE
  5
1EE
  8
DEFAULT
 10
411.8472463559397
 20
788.6380194004346
 30
-116.3957807144408
 11
411.8472463559397
 21
911.4369078999632
 31
-116.3957807144408
  0
LINE
  5
1EF
  8
DEFAULT
 10
411.8472463559397
 20
911.4369078999632
 30
-116.3957807144408
 11
393.7807879349284
 21
911.4369078999632
 31
-116.3957807144408
  0
LINE
  5
1F0
  8
DEFAULT
 10
393.7807879349284
 20
911.4369078999632
 30
-116.3957807144408
 11
393.936747094634
 21
1069.985480787485
 31
-116.3957807144408
  0
LINE
  5
1F1
  8
DEFAULT
 10
393.936747094634
 20
1069.985480787485
 30
-116.3957807144408
 11
385.5635332801894
 21
1069.985480787485
 31
-116.3957807144408
  0
CIRCLE
  5
1F2
  8
DEFAULT
 10
304.7606489195418
 20
1071.961647412526
 30
-116.3957807144408
 40
3.0
  0
CIRCLE
  5
1F3
  8
DEFAULT
 10
395.7576946215404
 20
1453.087188282597
 30
-116.3957807144408
 40
3.0
  0
CIRCLE
  5
1F4
  8
DEFAULT
 10
395.836812210649
 20
913.4366434567037
 30
-116.3957807144408
 40
3.0
  0
CIRCLE
  5
1F5
  8
DEFAULT
 10
313.9782534299902
 20
709.4309829356746
 30
-116.3957807144408
 40
3.0
  0
CIRCLE
  5
1F6
  8
DEFAULT
 10
108.75022408315
 20
709.4309829356746
 30
-116.3957807144408
 40
3.0
  0
CIRCLE
  5
1F7
  8
DEFAULT
 10
26.89166530249122
 20
913.4366434567037
 30
-116.3957807144408
 40
3.0
  0
CIRCLE
  5
1F8
  8
DEFAULT
 10
26.97078289159981
 20
1453.087188282597
 30
-116.3957807144408
 40
3.0
  0
CIRCLE
  5
1F9
  8
DEFAULT
 10
117.9678285935984
 20
1071.961647412526
 30
-116.3957807144408
 40
3.0
  0
CIRCLE
  5
1FA
  8
DEFAULT
 10
117.9678285935984
 20
1120.825367983811
 30
-116.3957807144408
 40
3.0
  0
CIRCLE
  5
1FB
  8
DEFAULT
 10
27.18190634301482
 20
1306.868702212506
 30
-116.3957807144408
 40
3.0
  0
CIRCLE
  5
1FC
  8
DEFAULT
 10
26.97078289159981
 20
1708.38549628753
 30
-116.3957807144408
 40
3.0
  0
CIRCLE
  5
1FD
  8
DEFAULT
 10
26.89166530249122
 20
786.900807754512
 30
-116.3957807144408
 40
3.0
  0
CIRCLE
  5
1FE
  8
DEFAULT
 10
26.86522116589185
 20
2255.193443337731
 30
-116.3957807144408
 40
3.0
  0
CIRCLE
  5
1FF
  8
DEFAULT
 10
26.97078289159981
 20
1854.66066626716
 30
-116.3957807144408
 40
3.0
  0
CIRCLE
  5
200
  8
DEFAULT
 10
26.86522116589185
 20
2108.924522605846
 30
-116.3957807144408
 40
3.0
  0
CIRCLE
  5
201
  8
DEFAULT
 10
109.3711198732326
 20
2400.214997510007
 30
-116.3957807144408
 40
3.0
  0
CIRCLE
  5
202
  8
DEFAULT
 10
524.1141654984908
 20
523.1741519100724
 30
-116.3957807144408
 40
3.0
  0
CIRCLE
  5
203
  8
DEFAULT
 10
537.7094601524004
 20
523.1741519100723
 30
-116.3957807144408
 40
3.0
  0
CIRCLE
  5
204
  8
DEFAULT
 10
437.8039588084598
 20
436.0133059573712
 30
-116.3957807144408
 40
3.0
  0
CIRCLE
  5
205
  8
DEFAULT
 10
698.1417212344812
 20
436.4408309464879
 30
-116.3957807144408
 40
3.0
  0
CIRCLE
  5
206
  8
DEFAULT
 10
280.6026501432971
 20
436.2585318962014
 30
-116.3957807144408
 40
3.0
  0
LINE
  5
207
  8
DEFAULT
 10
22.41454611785184
 20
51.10842197657098
 30
23.45148578240204
 11
278.7239140158176
 21
51.10841457380616
 31
23.5312680500332
  0
LINE
  5
208
  8
DEFAULT
 10
278.7239140158176
 20
51.10841457380616
 30
23.5312680500332
 11
278.7239140158176
 21
69.15915451610203
 31
23.53294292551444
  0
LINE
  5
209
  8
DEFAULT
 10
278.7239140158176
 20
69.15915451610203
 30
23.53294292551444
 11
439.8069508353506
 21
69.15915336795592
 31
23.54531692132694
  0
LINE
  5
20A
  8
DEFAULT
 10
439.8069508353506
 20
69.15915336795592
 30
23.54531692132694
 11
439.8069508353506
 21
51.10841342566005
 31
23.5436420458457
  0
LINE
  5
20B
  8
DEFAULT
 10
439.8069508353506
 20
51.10841342566005
 30
23.5436420458457
 11
696.1086356835934
 21
51.1084192323417
 31
23.48106133126103
  0
LINE
  5
20C
  8
DEFAULT
 10
696.1086356835934
 20
51.1084192323417
 30
23.48106133126103
 11
696.1086356835934
 21
69.15915917463758
 31
23.48273620674227
  0
LINE
  5
20D
  8
DEFAULT
 10
696.1086356835934
 20
69.15915917463758
 30
23.48273620674227
 11
817.2364152742188
 21
69.15916191886686
 31
23.45316065788339
  0
LINE
  5
20E
  8
DEFAULT
 10
817.2364152742188
 20
69.15916191886686
 30
23.45316065788339
 11
817.2364152742188
 21
201.5257633436397
 31
23.46544256854028
  0
LINE
  5
20F
  8
DEFAULT
 10
817.2364152742188
 20
201.5257633436397
 30
23.46544256854028
 11
680.6722817152017
 21
160.3936778495956
 31
23.46162604236428
  0
LINE
  5
210
  8
DEFAULT
 10
680.6722817152017
 20
160.3936778495956
 30
23.46162604236428
 11
680.6722817152008
 21
221.5797038330777
 31
23.46730331515428
  0
LINE
  5
211
  8
DEFAULT
 10
680.6722817152008
 20
221.5797038330777
 30
23.46730331515428
 11
289.159109654192
 21
221.5796569459183
 31
23.97262322265218
  0
LINE
  5
212
  8
DEFAULT
 10
289.159109654192
 20
221.5796569459183
 30
23.97262322265218
 11
289.159109654192
 21
281.7487900869065
 31
23.97820614092299
  0
LINE
  5
213
  8
DEFAULT
 10
289.159109654192
 20
281.7487900869065
 30
23.97820614092299
 11
680.6722817152017
 21
281.7488369740669
 31
23.47288623342514
  0
LINE
  5
214
  8
DEFAULT
 10
680.6722817152017
 20
281.7488369740669
 30
23.47288623342514
 11
680.6722817152008
 21
342.934862957548
 31
23.47856350621513
  0
LINE
  5
215
  8
DEFAULT
 10
680.6722817152008
 20
342.934862957548
 30
23.47856350621513
 11
817.2364152742188
 21
301.7746295498838
 31
23.47474436827635
  0
LINE
  5
216
  8
DEFAULT
 10
817.2364152742188
 20
301.7746295498838
 30
23.47474436827635
 11
817.2364152742188
 21
434.1909877277886
 31
23.48703089571715
  0
LINE
  5
217
  8
DEFAULT
 10
817.2364152742188
 20
434.1909877277886
 30
23.48703089571715
 11
696.1086356835934
 21
434.2570934187871
 31
23.51661257858481
  0
LINE
  5
218
  8
DEFAULT
 10
696.1086356835934
 20
434.2570934187871
 30
23.51661257858481
 11
696.1086356835934
 21
452.3078333610839
 31
23.51828745406605
  0
LINE
  5
219
  8
DEFAULT
 10
696.1086356835934
 20
452.3078333610839
 30
23.51828745406605
 11
439.8069508353506
 21
452.3078275544023
 31
23.58086816865072
  0
LINE
  5
21A
  8
DEFAULT
 10
439.8069508353506
 20
452.3078275544023
 30
23.58086816865072
 11
439.8069508353506
 21
434.2570876121055
 31
23.57919329316948
  0
LINE
  5
21B
  8
DEFAULT
 10
439.8069508353506
 20
434.2570876121055
 30
23.57919329316948
 11
278.7239140158176
 21
434.2570887602516
 31
23.56681929735698
  0
LINE
  5
21C
  8
DEFAULT
 10
278.7239140158176
 20
434.2570887602516
 30
23.56681929735698
 11
278.7239140158176
 21
452.3078287025484
 31
23.56849417283822
  0
LINE
  5
21D
  8
DEFAULT
 10
278.7239140158176
 20
452.3078287025484
 30
23.56849417283822
 11
22.41454611785184
 21
452.3078361053132
 31
23.48871190520706
  0
LINE
  5
21E
  8
DEFAULT
 10
22.41454611785184
 20
452.3078361053132
 30
23.48871190520706
 11
22.41454611785184
 21
51.10842197657098
 31
23.45148578240204
  0
CIRCLE
  5
21F
  8
DEFAULT
 10
280.6026501432975
 20
67.06991513662365
 30
-116.3957807144408
 40
3.0
  0
CIRCLE
  5
220
  8
DEFAULT
 10
698.1417212344817
 20
66.8876160863374
 30
-116.3957807144408
 40
3.0
  0
CIRCLE
  5
221
  8
DEFAULT
 10
437.8039588084603
 20
67.31514107545377
 30
-116.3957807144408
 40
3.0
  0
CIRCLE
  5
222
  8
DEFAULT
 10
972.2344523590622
 20
338.7338159489584
 30
23.80040285076734
 40
3.0
  0
CIRCLE
  5
223
  8
DEFAULT
 10
985.3920235828194
 20
338.9155793951488
 30
23.80040285076734
 40
3.0
  0
ENDSEC
  0
EOF
