  0
SECTION
  2
HEADER
  9
$ACADVER
  1
AC1014
  9
$HANDSEED
  5
FFFF
  9
$MEASUREMENT
 70
     1
  0
ENDSEC
  0
SECTION
  2
TABLES
  0
TABLE
  2
VPORT
  5
8
330
0
100
AcDbSymbolTable
 70
     4
  0
VPORT
  5
2E
330
8
100
AcDbSymbolTableRecord
100
AcDbViewportTableRecord
  2
*ACTIVE
 70
     0
 10
0.0
 20
0.0
 11
1.0
 21
1.0
 12
210.0
 22
148.5
 13
0.0
 23
0.0
 14
10.0
 24
10.0
 15
10.0
 25
10.0
 16
0.0
 26
0.0
 36
1.0
 17
0.0
 27
0.0
 37
0.0
 40
341.0
 41
1.24
 42
50.0
 43
0.0
 44
0.0
 50
0.0
 51
0.0
 71
     0
 72
   100
 73
     1
 74
     3
 75
     0
 76
     0
 77
     0
 78
     0
  0
ENDTAB
  0
TABLE
  2
LTYPE
  5
5
330
0
100
AcDbSymbolTable
 70
     1
  0
LTYPE
  5
14
330
5
100
AcDbSymbolTableRecord
100
AcDbLinetypeTableRecord
  2
BYBLOCK
 70
     0
  3

 72
    65
 73
     0
 40
0.0
  0
LTYPE
  5
15
330
5
100
AcDbSymbolTableRecord
100
AcDbLinetypeTableRecord
  2
BYLAYER
 70
     0
  3

 72
    65
 73
     0
 40
0.0
  0
LTYPE
  5
16
330
5
100
AcDbSymbolTableRecord
100
AcDbLinetypeTableRecord
  2
CONTINUOUS
 70
     0
  3
Solid line
 72
    65
 73
     0
 40
0.0
  0
ENDTAB
  0
TABLE
  2
LAYER
  5
2
100
AcDbSymbolTable
 70
2
  0
LAYER
  5
50
100
AcDbSymbolTableRecord
100
AcDbLayerTableRecord
  2
0
 70
0
  6
CONTINUOUS
  0
LAYER
  5
51
100
AcDbSymbolTableRecord
100
AcDbLayerTableRecord
  2
DEFAULT
 70
0
  6
CONTINUOUS
  0
ENDTAB
  0
TABLE
  2
STYLE
  5
3
330
0
100
AcDbSymbolTable
 70
     1
  0
STYLE
  5
11
330
3
100
AcDbSymbolTableRecord
100
AcDbTextStyleTableRecord
  2
STANDARD
 70
     0
 40
0.0
 41
1.0
 50
0.0
 71
     0
 42
2.5
  3
txt
  4

  0
ENDTAB
  0
TABLE
  2
VIEW
  5
6
330
0
100
AcDbSymbolTable
 70
     0
  0
ENDTAB
  0
TABLE
  2
UCS
  5
7
330
0
100
AcDbSymbolTable
 70
     0
  0
ENDTAB
  0
TABLE
  2
APPID
  5
9
330
0
100
AcDbSymbolTable
 70
     2
  0
APPID
  5
12
330
9
100
AcDbSymbolTableRecord
100
AcDbRegAppTableRecord
  2
ACAD
 70
     0
  0
ENDTAB
  0
TABLE
  2
DIMSTYLE
  5
A
330
0
100
AcDbSymbolTable
 70
     1
  0
DIMSTYLE
105
27
330
A
100
AcDbSymbolTableRecord
100
AcDbDimStyleTableRecord
  2
ISO-25
 70
     0
  3

  4

  5

  6

  7

 40
1.0
 41
2.5
 42
0.625
 43
3.75
 44
1.25
 45
0.0
 46
0.0
 47
0.0
 48
0.0
140
2.5
141
2.5
142
0.0
143
0.03937007874016
144
1.0
145
0.0
146
1.0
147
0.625
 71
     0
 72
     0
 73
     0
 74
     0
 75
     0
 76
     0
 77
     1
 78
     8
170
     0
171
     3
172
     1
173
     0
174
     0
175
     0
176
     0
177
     0
178
     0
270
     2
271
     2
272
     2
273
     2
274
     3
340
11
275
     0
280
     0
281
     0
282
     0
283
     0
284
     8
285
     0
286
     0
287
     3
288
     0
  0
ENDTAB
  0
TABLE
  2
BLOCK_RECORD
  5
1
330
0
100
AcDbSymbolTable
 70
     1
  0
BLOCK_RECORD
  5
1F
330
1
100
AcDbSymbolTableRecord
100
AcDbBlockTableRecord
  2
*MODEL_SPACE
  0
BLOCK_RECORD
  5
1B
330
1
100
AcDbSymbolTableRecord
100
AcDbBlockTableRecord
  2
*PAPER_SPACE
  0
ENDTAB
  0
ENDSEC
  0
SECTION
  2
BLOCKS
  0
BLOCK
  5
20
330
1F
100
AcDbEntity
  8
0
100
AcDbBlockBegin
  2
*MODEL_SPACE
 70
     0
 10
0.0
 20
0.0
 30
0.0
  3
*MODEL_SPACE
  1

  0
ENDBLK
  5
21
330
1F
100
AcDbEntity
  8
0
100
AcDbBlockEnd
  0
BLOCK
  5
1C
330
1B
100
AcDbEntity
 67
     1
  8
0
100
AcDbBlockBegin
  2
*PAPER_SPACE
  1

  0
ENDBLK
  5
1D
330
1B
100
AcDbEntity
 67
     1
  8
0
100
AcDbBlockEnd
  0
ENDSEC
  0
SECTION
  2
ENTITIES
  0
SPLINE
  5
100
100
AcDbEntity
  8
DEFAULT
 62
1
100
AcDbSpline
 70
8
 71
3
 72
8
 73
4
 74
0
 40
0
 40
0
 40
0
 40
0
 40
1
 40
1
 40
1
 40
1
 10
1507.058560
 20
6313.697373
 30
0.0
 10
1505.462449
 20
6316.488240
 30
0.0
 10
1502.428864
 20
6318.140369
 30
0.0
 10
1499.218488
 20
6317.967176
 30
0.0
  0
SPLINE
  5
101
100
AcDbEntity
  8
DEFAULT
 62
1
100
AcDbSpline
 70
8
 71
3
 72
8
 73
4
 74
0
 40
0
 40
0
 40
0
 40
0
 40
1
 40
1
 40
1
 40
1
 10
1499.218488
 20
6317.967176
 30
0.0
 10
1496.008113
 20
6317.793983
 30
0.0
 10
1493.169875
 20
6315.825082
 30
0.0
 10
1491.883276
 20
6312.878699
 30
0.0
  0
SPLINE
  5
102
100
AcDbEntity
  8
DEFAULT
 62
1
100
AcDbSpline
 70
8
 71
3
 72
8
 73
4
 74
0
 40
0
 40
0
 40
0
 40
0
 40
1
 40
1
 40
1
 40
1
 10
1491.883276
 20
6312.878699
 30
0.0
 10
1490.596677
 20
6309.932317
 30
0.0
 10
1491.081707
 20
6306.512242
 30
0.0
 10
1493.136800
 20
6304.039773
 30
0.0
  0
LWPOLYLINE
  5
103
100
AcDbEntity
  8
DEFAULT
 62
1
100
AcDbPolyline
 90
5
 70
0
 10
63.823209
 20
58.863277
 30
0.0
 10
3519.823200
 20
58.863277
 30
0.0
 10
3519.823200
 20
6970.863293
 30
0.0
 10
63.823209
 20
6970.863293
 30
0.0
 10
63.823209
 20
58.863277
 30
0.0
  0
SPLINE
  5
104
100
AcDbEntity
  8
DEFAULT
 62
1
100
AcDbSpline
 70
8
 71
3
 72
8
 73
4
 74
0
 40
0
 40
0
 40
0
 40
0
 40
1
 40
1
 40
1
 40
1
 10
1493.236560
 20
5922.280093
 30
0.0
 10
1491.033288
 20
5920.034401
 30
0.0
 10
1490.249853
 20
5916.755781
 30
0.0
 10
1491.199849
 20
5913.756607
 30
0.0
  0
SPLINE
  5
105
100
AcDbEntity
  8
DEFAULT
 62
1
100
AcDbSpline
 70
8
 71
3
 72
8
 73
4
 74
0
 40
0
 40
0
 40
0
 40
0
 40
1
 40
1
 40
1
 40
1
 10
1491.199849
 20
5913.756607
 30
0.0
 10
1492.149845
 20
5910.757432
 30
0.0
 10
1494.678040
 20
5908.527780
 30
0.0
 10
1497.772442
 20
5907.960140
 30
0.0
  0
SPLINE
  5
106
100
AcDbEntity
  8
DEFAULT
 62
1
100
AcDbSpline
 70
8
 71
3
 72
8
 73
4
 74
0
 40
0
 40
0
 40
0
 40
0
 40
1
 40
1
 40
1
 40
1
 10
1497.772442
 20
5907.960140
 30
0.0
 10
1500.866845
 20
5907.392499
 30
0.0
 10
1504.021817
 20
5908.579626
 30
0.0
 10
1505.974480
 20
5911.046333
 30
0.0
  0
LWPOLYLINE
  5
107
100
AcDbEntity
  8
DEFAULT
 62
1
100
AcDbPolyline
 90
2
 70
0
 10
1493.236560
 20
5922.280093
 30
0.0
 10
1493.136800
 20
6304.039773
 30
0.0
  0
SPLINE
  5
108
100
AcDbEntity
  8
DEFAULT
 62
1
100
AcDbSpline
 70
8
 71
3
 72
8
 73
4
 74
0
 40
0
 40
0
 40
0
 40
0
 40
1
 40
1
 40
1
 40
1
 10
1504.756160
 20
5180.088333
 30
0.0
 10
1502.909809
 20
5183.023916
 30
0.0
 10
1499.465849
 20
5184.544251
 30
0.0
 10
1496.052644
 20
5183.930498
 30
0.0
  0
SPLINE
  5
109
100
AcDbEntity
  8
DEFAULT
 62
1
100
AcDbSpline
 70
8
 71
3
 72
8
 73
4
 74
0
 40
0
 40
0
 40
0
 40
0
 40
1
 40
1
 40
1
 40
1
 10
1496.052644
 20
5183.930498
 30
0.0
 10
1492.639440
 20
5183.316744
 30
0.0
 10
1489.940860
 20
5180.691873
 30
0.0
 10
1489.232841
 20
5177.296970
 30
0.0
  0
SPLINE
  5
10a
100
AcDbEntity
  8
DEFAULT
 62
1
100
AcDbSpline
 70
8
 71
3
 72
8
 73
4
 74
0
 40
0
 40
0
 40
0
 40
0
 40
1
 40
1
 40
1
 40
1
 10
1489.232841
 20
5177.296970
 30
0.0
 10
1488.524822
 20
5173.902067
 30
0.0
 10
1489.949222
 20
5170.417333
 30
0.0
 10
1492.832560
 20
5168.490413
 30
0.0
  0
LWPOLYLINE
  5
10b
100
AcDbEntity
  8
DEFAULT
 62
1
100
AcDbPolyline
 90
4
 70
0
 10
1504.756160
 20
5180.088333
 30
0.0
 10
1543.172320
 20
5180.073133
 30
0.0
 10
1543.172320
 20
5911.244173
 30
0.0
 10
1505.974480
 20
5911.046333
 30
0.0
  0
SPLINE
  5
10c
100
AcDbEntity
  8
DEFAULT
 62
1
100
AcDbSpline
 70
8
 71
3
 72
8
 73
4
 74
0
 40
0
 40
0
 40
0
 40
0
 40
1
 40
1
 40
1
 40
1
 10
1492.832560
 20
4789.713933
 30
0.0
 10
1489.839629
 20
4787.929050
 30
0.0
 10
1488.238525
 20
4784.498832
 30
0.0
 10
1488.792461
 20
4781.058396
 30
0.0
  0
SPLINE
  5
10d
100
AcDbEntity
  8
DEFAULT
 62
1
100
AcDbSpline
 70
8
 71
3
 72
8
 73
4
 74
0
 40
0
 40
0
 40
0
 40
0
 40
1
 40
1
 40
1
 40
1
 10
1488.792461
 20
4781.058396
 30
0.0
 10
1489.346398
 20
4777.617961
 30
0.0
 10
1491.943258
 20
4774.863648
 30
0.0
 10
1495.345172
 20
4774.108383
 30
0.0
  0
SPLINE
  5
10e
100
AcDbEntity
  8
DEFAULT
 62
1
100
AcDbSpline
 70
8
 71
3
 72
8
 73
4
 74
0
 40
0
 40
0
 40
0
 40
0
 40
1
 40
1
 40
1
 40
1
 10
1495.345172
 20
4774.108383
 30
0.0
 10
1498.747086
 20
4773.353118
 30
0.0
 10
1502.265509
 20
4774.749766
 30
0.0
 10
1504.223280
 20
4777.632573
 30
0.0
  0
LWPOLYLINE
  5
10f
100
AcDbEntity
  8
DEFAULT
 62
1
100
AcDbPolyline
 90
2
 70
0
 10
1492.832560
 20
4789.713933
 30
0.0
 10
1492.832560
 20
5168.490413
 30
0.0
  0
SPLINE
  5
110
100
AcDbEntity
  8
DEFAULT
 62
1
100
AcDbSpline
 70
8
 71
3
 72
8
 73
4
 74
0
 40
0
 40
0
 40
0
 40
0
 40
1
 40
1
 40
1
 40
1
 10
1506.528480
 20
4045.916973
 30
0.0
 10
1504.728194
 20
4048.400625
 30
0.0
 10
1501.729844
 20
4049.722237
 30
0.0
 10
1498.681999
 20
4049.375543
 30
0.0
  0
SPLINE
  5
111
100
AcDbEntity
  8
DEFAULT
 62
1
100
AcDbSpline
 70
8
 71
3
 72
8
 73
4
 74
0
 40
0
 40
0
 40
0
 40
0
 40
1
 40
1
 40
1
 40
1
 10
1498.681999
 20
4049.375543
 30
0.0
 10
1495.634154
 20
4049.028850
 30
0.0
 10
1493.009233
 20
4047.067588
 30
0.0
 10
1491.812755
 20
4044.243053
 30
0.0
  0
SPLINE
  5
112
100
AcDbEntity
  8
DEFAULT
 62
1
100
AcDbSpline
 70
8
 71
3
 72
8
 73
4
 74
0
 40
0
 40
0
 40
0
 40
0
 40
1
 40
1
 40
1
 40
1
 10
1491.812755
 20
4044.243053
 30
0.0
 10
1490.616278
 20
4041.418518
 30
0.0
 10
1491.033699
 20
4038.168516
 30
0.0
 10
1492.905120
 20
4035.738013
 30
0.0
  0
LWPOLYLINE
  5
113
100
AcDbEntity
  8
DEFAULT
 62
1
100
AcDbPolyline
 90
4
 70
0
 10
1506.528480
 20
4045.916973
 30
0.0
 10
1543.172320
 20
4045.916973
 30
0.0
 10
1543.172320
 20
4777.620013
 30
0.0
 10
1504.223280
 20
4777.632813
 30
0.0
  0
SPLINE
  5
114
100
AcDbEntity
  8
DEFAULT
 62
1
100
AcDbSpline
 70
8
 71
3
 72
8
 73
4
 74
0
 40
0
 40
0
 40
0
 40
0
 40
1
 40
1
 40
1
 40
1
 10
1492.905120
 20
3654.907293
 30
0.0
 10
1490.057878
 20
3651.689724
 30
0.0
 10
1490.057878
 20
3646.853823
 30
0.0
 10
1492.905120
 20
3643.636253
 30
0.0
  0
LWPOLYLINE
  5
115
100
AcDbEntity
  8
DEFAULT
 62
1
100
AcDbPolyline
 90
2
 70
0
 10
1492.905120
 20
3654.907293
 30
0.0
 10
1492.905120
 20
4035.738013
 30
0.0
  0
SPLINE
  5
116
100
AcDbEntity
  8
DEFAULT
 62
1
100
AcDbSpline
 70
8
 71
3
 72
8
 73
4
 74
0
 40
0
 40
0
 40
0
 40
0
 40
1
 40
1
 40
1
 40
1
 10
1493.078720
 20
3643.446013
 30
0.0
 10
1494.687101
 20
3641.736712
 30
0.0
 10
1496.930410
 20
3640.768145
 30
0.0
 10
1499.277450
 20
3640.769660
 30
0.0
  0
SPLINE
  5
117
100
AcDbEntity
  8
DEFAULT
 62
1
100
AcDbSpline
 70
8
 71
3
 72
8
 73
4
 74
0
 40
0
 40
0
 40
0
 40
0
 40
1
 40
1
 40
1
 40
1
 10
1499.277450
 20
3640.769660
 30
0.0
 10
1501.624490
 20
3640.771175
 30
0.0
 10
1503.866547
 20
3641.742637
 30
0.0
 10
1505.472720
 20
3643.454013
 30
0.0
  0
LWPOLYLINE
  5
118
100
AcDbEntity
  8
DEFAULT
 62
1
100
AcDbPolyline
 90
2
 70
0
 10
1493.078720
 20
3643.446013
 30
0.0
 10
1492.905120
 20
3643.636253
 30
0.0
  0
LWPOLYLINE
  5
119
100
AcDbEntity
  8
DEFAULT
 62
1
100
AcDbPolyline
 90
3
 70
0
 10
1543.086320
 20
3521.716493
 30
0.0
 10
1543.172320
 20
3643.463773
 30
0.0
 10
1505.472720
 20
3643.450173
 30
0.0
  0
SPLINE
  5
11a
100
AcDbEntity
  8
DEFAULT
 62
1
100
AcDbSpline
 70
8
 71
3
 72
8
 73
4
 74
0
 40
0
 40
0
 40
0
 40
0
 40
1
 40
1
 40
1
 40
1
 10
2467.006240
 20
4613.961213
 30
0.0
 10
2469.273005
 20
4611.161325
 30
0.0
 10
2473.058002
 20
4610.093492
 30
0.0
 10
2476.453882
 20
4611.295820
 30
0.0
  0
SPLINE
  5
11b
100
AcDbEntity
  8
DEFAULT
 62
1
100
AcDbSpline
 70
8
 71
3
 72
8
 73
4
 74
0
 40
0
 40
0
 40
0
 40
0
 40
1
 40
1
 40
1
 40
1
 10
2476.453882
 20
4611.295820
 30
0.0
 10
2479.849763
 20
4612.498149
 30
0.0
 10
2482.119612
 20
4615.709730
 30
0.0
 10
2482.119600
 20
4619.312173
 30
0.0
  0
SPLINE
  5
11c
100
AcDbEntity
  8
DEFAULT
 62
1
100
AcDbSpline
 70
8
 71
3
 72
8
 73
4
 74
0
 40
0
 40
0
 40
0
 40
0
 40
1
 40
1
 40
1
 40
1
 10
2482.119600
 20
4619.312173
 30
0.0
 10
2482.119610
 20
4621.591698
 30
0.0
 10
2481.204445
 20
4623.775792
 30
0.0
 10
2479.579440
 20
4625.374413
 30
0.0
  0
LWPOLYLINE
  5
11d
100
AcDbEntity
  8
DEFAULT
 62
1
100
AcDbPolyline
 90
3
 70
0
 10
2467.006240
 20
4613.961213
 30
0.0
 10
2337.332160
 20
4614.082493
 30
0.0
 10
1543.086320
 20
3521.716493
 30
0.0
  0
SPLINE
  5
11e
100
AcDbEntity
  8
DEFAULT
 62
1
100
AcDbSpline
 70
8
 71
3
 72
8
 73
4
 74
0
 40
0
 40
0
 40
0
 40
0
 40
1
 40
1
 40
1
 40
1
 10
2479.579440
 20
4651.464733
 30
0.0
 10
2481.249604
 20
4653.068326
 30
0.0
 10
2482.193691
 20
4655.283600
 30
0.0
 10
2482.193680
 20
4657.598973
 30
0.0
  0
SPLINE
  5
11f
100
AcDbEntity
  8
DEFAULT
 62
1
100
AcDbSpline
 70
8
 71
3
 72
8
 73
4
 74
0
 40
0
 40
0
 40
0
 40
0
 40
1
 40
1
 40
1
 40
1
 10
2482.193680
 20
4657.598973
 30
0.0
 10
2482.193685
 20
4661.093055
 30
0.0
 10
2480.056424
 20
4664.231550
 30
0.0
 10
2476.805280
 20
4665.511656
 30
0.0
  0
SPLINE
  5
120
100
AcDbEntity
  8
DEFAULT
 62
1
100
AcDbSpline
 70
8
 71
3
 72
8
 73
4
 74
0
 40
0
 40
0
 40
0
 40
0
 40
1
 40
1
 40
1
 40
1
 10
2476.805280
 20
4665.511656
 30
0.0
 10
2473.554136
 20
4666.791762
 30
0.0
 10
2469.850841
 20
4665.952928
 30
0.0
 10
2467.468640
 20
4663.396813
 30
0.0
  0
LWPOLYLINE
  5
121
100
AcDbEntity
  8
DEFAULT
 62
1
100
AcDbPolyline
 90
2
 70
0
 10
2479.579440
 20
4651.464733
 30
0.0
 10
2479.579440
 20
4625.374413
 30
0.0
  0
SPLINE
  5
122
100
AcDbEntity
  8
DEFAULT
 62
1
100
AcDbSpline
 70
8
 71
3
 72
8
 73
4
 74
0
 40
0
 40
0
 40
0
 40
0
 40
1
 40
1
 40
1
 40
1
 10
1505.601840
 20
2520.095613
 30
0.0
 10
1503.712430
 20
2522.725522
 30
0.0
 10
1500.493359
 20
2524.054106
 30
0.0
 10
1497.299062
 20
2523.522361
 30
0.0
  0
SPLINE
  5
123
100
AcDbEntity
  8
DEFAULT
 62
1
100
AcDbSpline
 70
8
 71
3
 72
8
 73
4
 74
0
 40
0
 40
0
 40
0
 40
0
 40
1
 40
1
 40
1
 40
1
 10
1497.299062
 20
2523.522361
 30
0.0
 10
1494.104765
 20
2522.990616
 30
0.0
 10
1491.489697
 20
2520.690839
 30
0.0
 10
1490.554156
 20
2517.590669
 30
0.0
  0
SPLINE
  5
124
100
AcDbEntity
  8
DEFAULT
 62
1
100
AcDbSpline
 70
8
 71
3
 72
8
 73
4
 74
0
 40
0
 40
0
 40
0
 40
0
 40
1
 40
1
 40
1
 40
1
 10
1490.554156
 20
2517.590669
 30
0.0
 10
1489.618615
 20
2514.490500
 30
0.0
 10
1490.524990
 20
2511.128055
 30
0.0
 10
1492.891920
 20
2508.918093
 30
0.0
  0
LWPOLYLINE
  5
125
100
AcDbEntity
  8
DEFAULT
 62
1
100
AcDbPolyline
 90
6
 70
0
 10
1507.058560
 20
6313.697373
 30
0.0
 10
1543.086320
 20
6313.697373
 30
0.0
 10
1543.086320
 20
6596.853933
 30
0.0
 10
2337.332160
 20
6596.853933
 30
0.0
 10
2337.332160
 20
4663.396813
 30
0.0
 10
2467.468640
 20
4663.396813
 30
0.0
  0
SPLINE
  5
126
100
AcDbEntity
  8
DEFAULT
 62
1
100
AcDbSpline
 70
8
 71
3
 72
8
 73
4
 74
0
 40
0
 40
0
 40
0
 40
0
 40
1
 40
1
 40
1
 40
1
 10
1492.773120
 20
2184.316733
 30
0.0
 10
1490.503475
 20
2182.114241
 30
0.0
 10
1489.643581
 20
2178.834155
 30
0.0
 10
1490.540789
 20
2175.801454
 30
0.0
  0
SPLINE
  5
127
100
AcDbEntity
  8
DEFAULT
 62
1
100
AcDbSpline
 70
8
 71
3
 72
8
 73
4
 74
0
 40
0
 40
0
 40
0
 40
0
 40
1
 40
1
 40
1
 40
1
 10
1490.540789
 20
2175.801454
 30
0.0
 10
1491.437997
 20
2172.768752
 30
0.0
 10
1493.944079
 20
2170.484472
 30
0.0
 10
1497.046711
 20
2169.871339
 30
0.0
  0
SPLINE
  5
128
100
AcDbEntity
  8
DEFAULT
 62
1
100
AcDbSpline
 70
8
 71
3
 72
8
 73
4
 74
0
 40
0
 40
0
 40
0
 40
0
 40
1
 40
1
 40
1
 40
1
 10
1497.046711
 20
2169.871339
 30
0.0
 10
1500.149344
 20
2169.258206
 30
0.0
 10
1503.335938
 20
2170.417518
 30
0.0
 10
1505.319280
 20
2172.880973
 30
0.0
  0
LWPOLYLINE
  5
129
100
AcDbEntity
  8
DEFAULT
 62
1
100
AcDbPolyline
 90
2
 70
0
 10
1492.773120
 20
2184.316733
 30
0.0
 10
1492.891920
 20
2508.918093
 30
0.0
  0
LWPOLYLINE
  5
12a
100
AcDbEntity
  8
DEFAULT
 62
1
100
AcDbPolyline
 90
3
 70
0
 10
1543.086320
 20
2061.420893
 30
0.0
 10
1543.086320
 20
2172.880973
 30
0.0
 10
1505.319280
 20
2172.880973
 30
0.0
  0
LWPOLYLINE
  5
12b
100
AcDbEntity
  8
DEFAULT
 62
1
100
AcDbPolyline
 90
6
 70
0
 10
1505.601840
 20
2520.095613
 30
0.0
 10
1543.086320
 20
2519.880813
 30
0.0
 10
1543.086320
 20
2690.410573
 30
0.0
 10
1825.340320
 20
2485.163693
 30
0.0
 10
1825.340320
 20
2061.420893
 30
0.0
 10
1543.086320
 20
2061.420893
 30
0.0
  0
SPLINE
  5
12c
100
AcDbEntity
  8
DEFAULT
 62
1
100
AcDbSpline
 70
8
 71
3
 72
8
 73
4
 74
0
 40
0
 40
0
 40
0
 40
0
 40
1
 40
1
 40
1
 40
1
 10
1897.179280
 20
3590.542013
 30
0.0
 10
1896.913679
 20
3593.670775
 30
0.0
 10
1894.945576
 20
3596.398570
 30
0.0
 10
1892.060155
 20
3597.637133
 30
0.0
  0
SPLINE
  5
12d
100
AcDbEntity
  8
DEFAULT
 62
1
100
AcDbSpline
 70
8
 71
3
 72
8
 73
4
 74
0
 40
0
 40
0
 40
0
 40
0
 40
1
 40
1
 40
1
 40
1
 10
1892.060155
 20
3597.637133
 30
0.0
 10
1889.174734
 20
3598.875696
 30
0.0
 10
1885.841602
 20
3598.423449
 30
0.0
 10
1883.390527
 20
3596.460817
 30
0.0
  0
SPLINE
  5
12e
100
AcDbEntity
  8
DEFAULT
 62
1
100
AcDbSpline
 70
8
 71
3
 72
8
 73
4
 74
0
 40
0
 40
0
 40
0
 40
0
 40
1
 40
1
 40
1
 40
1
 10
1883.390527
 20
3596.460817
 30
0.0
 10
1880.939452
 20
3594.498185
 30
0.0
 10
1879.769350
 20
3591.344590
 30
0.0
 10
1880.347040
 20
3588.258173
 30
0.0
  0
LWPOLYLINE
  5
12f
100
AcDbEntity
  8
DEFAULT
 62
1
100
AcDbPolyline
 90
4
 70
0
 10
1897.179280
 20
3590.542013
 30
0.0
 10
1927.493760
 20
3568.498173
 30
0.0
 10
2195.313520
 20
3936.744173
 30
0.0
 10
2164.469440
 20
3959.165533
 30
0.0
  0
SPLINE
  5
130
100
AcDbEntity
  8
DEFAULT
 62
1
100
AcDbSpline
 70
8
 71
3
 72
8
 73
4
 74
0
 40
0
 40
0
 40
0
 40
0
 40
1
 40
1
 40
1
 40
1
 10
1467.881440
 20
3021.300493
 30
0.0
 10
1464.776196
 20
3020.871328
 30
0.0
 10
1462.158865
 20
3018.768617
 30
0.0
 10
1461.070617
 20
3015.828814
 30
0.0
  0
SPLINE
  5
131
100
AcDbEntity
  8
DEFAULT
 62
1
100
AcDbSpline
 70
8
 71
3
 72
8
 73
4
 74
0
 40
0
 40
0
 40
0
 40
0
 40
1
 40
1
 40
1
 40
1
 10
1461.070617
 20
3015.828814
 30
0.0
 10
1459.982368
 20
3012.889012
 30
0.0
 10
1460.599697
 20
3009.588903
 30
0.0
 10
1462.677031
 20
3007.241264
 30
0.0
  0
SPLINE
  5
132
100
AcDbEntity
  8
DEFAULT
 62
1
100
AcDbSpline
 70
8
 71
3
 72
8
 73
4
 74
0
 40
0
 40
0
 40
0
 40
0
 40
1
 40
1
 40
1
 40
1
 10
1462.677031
 20
3007.241264
 30
0.0
 10
1464.754365
 20
3004.893625
 30
0.0
 10
1467.954796
 20
3003.879204
 30
0.0
 10
1471.005200
 20
3004.601533
 30
0.0
  0
LWPOLYLINE
  5
133
100
AcDbEntity
  8
DEFAULT
 62
1
100
AcDbPolyline
 90
2
 70
0
 10
1467.881440
 20
3021.300493
 30
0.0
 10
1880.347040
 20
3588.258173
 30
0.0
  0
SPLINE
  5
134
100
AcDbEntity
  8
DEFAULT
 62
1
100
AcDbSpline
 70
8
 71
3
 72
8
 73
4
 74
0
 40
0
 40
0
 40
0
 40
0
 40
1
 40
1
 40
1
 40
1
 10
1493.055840
 20
2988.423133
 30
0.0
 10
1494.139535
 20
2984.286087
 30
0.0
 10
1498.127017
 20
2981.597426
 30
0.0
 10
1502.368603
 20
2982.143767
 30
0.0
  0
SPLINE
  5
135
100
AcDbEntity
  8
DEFAULT
 62
1
100
AcDbSpline
 70
8
 71
3
 72
8
 73
4
 74
0
 40
0
 40
0
 40
0
 40
0
 40
1
 40
1
 40
1
 40
1
 10
1502.368603
 20
2982.143767
 30
0.0
 10
1506.610190
 20
2982.690107
 30
0.0
 10
1509.786194
 20
2986.301466
 30
0.0
 10
1509.786160
 20
2990.578093
 30
0.0
  0
SPLINE
  5
136
100
AcDbEntity
  8
DEFAULT
 62
1
100
AcDbSpline
 70
8
 71
3
 72
8
 73
4
 74
0
 40
0
 40
0
 40
0
 40
0
 40
1
 40
1
 40
1
 40
1
 10
1509.786160
 20
2990.578093
 30
0.0
 10
1509.786165
 20
2991.466502
 30
0.0
 10
1509.646956
 20
2992.349425
 30
0.0
 10
1509.373600
 20
2993.194733
 30
0.0
  0
LWPOLYLINE
  5
137
100
AcDbEntity
  8
DEFAULT
 62
1
100
AcDbPolyline
 90
2
 70
0
 10
1493.055840
 20
2988.423133
 30
0.0
 10
1471.005200
 20
3004.601533
 30
0.0
  0
SPLINE
  5
138
100
AcDbEntity
  8
DEFAULT
 62
1
100
AcDbSpline
 70
8
 71
3
 72
8
 73
4
 74
0
 40
0
 40
0
 40
0
 40
0
 40
1
 40
1
 40
1
 40
1
 10
1635.732080
 20
2926.845453
 30
0.0
 10
1632.597732
 20
2926.654819
 30
0.0
 10
1629.823518
 20
2924.752437
 30
0.0
 10
1628.516302
 20
2921.897325
 30
0.0
  0
SPLINE
  5
139
100
AcDbEntity
  8
DEFAULT
 62
1
100
AcDbSpline
 70
8
 71
3
 72
8
 73
4
 74
0
 40
0
 40
0
 40
0
 40
0
 40
1
 40
1
 40
1
 40
1
 10
1628.516302
 20
2921.897325
 30
0.0
 10
1627.209086
 20
2919.042212
 30
0.0
 10
1627.581636
 20
2915.699082
 30
0.0
 10
1629.485312
 20
2913.201783
 30
0.0
  0
SPLINE
  5
13a
100
AcDbEntity
  8
DEFAULT
 62
1
100
AcDbSpline
 70
8
 71
3
 72
8
 73
4
 74
0
 40
0
 40
0
 40
0
 40
0
 40
1
 40
1
 40
1
 40
1
 10
1629.485312
 20
2913.201783
 30
0.0
 10
1631.388988
 20
2910.704484
 30
0.0
 10
1634.513937
 20
2909.459491
 30
0.0
 10
1637.613360
 20
2909.963533
 30
0.0
  0
LWPOLYLINE
  5
13b
100
AcDbEntity
  8
DEFAULT
 62
1
100
AcDbPolyline
 90
4
 70
0
 10
1635.732080
 20
2926.845453
 30
0.0
 10
1657.834400
 20
2957.218253
 30
0.0
 10
1543.577600
 20
3040.539533
 30
0.0
 10
1509.373600
 20
2993.194733
 30
0.0
  0
SPLINE
  5
13c
100
AcDbEntity
  8
DEFAULT
 62
1
100
AcDbSpline
 70
8
 71
3
 72
8
 73
4
 74
0
 40
0
 40
0
 40
0
 40
0
 40
1
 40
1
 40
1
 40
1
 10
1944.733600
 20
2686.497693
 30
0.0
 10
1945.674897
 20
2682.263698
 30
0.0
 10
1949.651850
 20
2679.416580
 30
0.0
 10
1953.963290
 20
2679.890116
 30
0.0
  0
SPLINE
  5
13d
100
AcDbEntity
  8
DEFAULT
 62
1
100
AcDbSpline
 70
8
 71
3
 72
8
 73
4
 74
0
 40
0
 40
0
 40
0
 40
0
 40
1
 40
1
 40
1
 40
1
 10
1953.963290
 20
2679.890116
 30
0.0
 10
1958.274730
 20
2680.363653
 30
0.0
 10
1961.538919
 20
2684.006086
 30
0.0
 10
1961.538800
 20
2688.343453
 30
0.0
  0
SPLINE
  5
13e
100
AcDbEntity
  8
DEFAULT
 62
1
100
AcDbSpline
 70
8
 71
3
 72
8
 73
4
 74
0
 40
0
 40
0
 40
0
 40
0
 40
1
 40
1
 40
1
 40
1
 10
1961.538800
 20
2688.343453
 30
0.0
 10
1961.538805
 20
2688.968454
 30
0.0
 10
1961.469909
 20
2689.591551
 30
0.0
 10
1961.333360
 20
2690.201453
 30
0.0
  0
LWPOLYLINE
  5
13f
100
AcDbEntity
  8
DEFAULT
 62
1
100
AcDbPolyline
 90
2
 70
0
 10
1944.733600
 20
2686.497693
 30
0.0
 10
1637.613360
 20
2909.963533
 30
0.0
  0
SPLINE
  5
140
100
AcDbEntity
  8
DEFAULT
 62
1
100
AcDbSpline
 70
8
 71
3
 72
8
 73
4
 74
0
 40
0
 40
0
 40
0
 40
0
 40
1
 40
1
 40
1
 40
1
 10
2072.937760
 20
2388.061533
 30
0.0
 10
2071.390477
 20
2390.854455
 30
0.0
 10
2068.409124
 20
2392.545322
 30
0.0
 10
2065.217986
 20
2392.439783
 30
0.0
  0
SPLINE
  5
141
100
AcDbEntity
  8
DEFAULT
 62
1
100
AcDbSpline
 70
8
 71
3
 72
8
 73
4
 74
0
 40
0
 40
0
 40
0
 40
0
 40
1
 40
1
 40
1
 40
1
 10
2065.217986
 20
2392.439783
 30
0.0
 10
2062.026849
 20
2392.334244
 30
0.0
 10
2059.163730
 20
2390.450086
 30
0.0
 10
2057.804365
 20
2387.561033
 30
0.0
  0
SPLINE
  5
142
100
AcDbEntity
  8
DEFAULT
 62
1
100
AcDbSpline
 70
8
 71
3
 72
8
 73
4
 74
0
 40
0
 40
0
 40
0
 40
0
 40
1
 40
1
 40
1
 40
1
 10
2057.804365
 20
2387.561033
 30
0.0
 10
2056.444999
 20
2384.671981
 30
0.0
 10
2056.818481
 20
2381.264928
 30
0.0
 10
2058.771440
 20
2378.738973
 30
0.0
  0
LWPOLYLINE
  5
143
100
AcDbEntity
  8
DEFAULT
 62
1
100
AcDbPolyline
 90
5
 70
0
 10
2072.937760
 20
2388.061533
 30
0.0
 10
2108.804880
 20
2388.061533
 30
0.0
 10
2108.804880
 20
2628.350013
 30
0.0
 10
1983.063760
 20
2720.046173
 30
0.0
 10
1961.333360
 20
2690.201453
 30
0.0
  0
SPLINE
  5
144
100
AcDbEntity
  8
DEFAULT
 62
1
100
AcDbSpline
 70
8
 71
3
 72
8
 73
4
 74
0
 40
0
 40
0
 40
0
 40
0
 40
1
 40
1
 40
1
 40
1
 10
2058.771440
 20
2133.717533
 30
0.0
 10
2056.698673
 20
2131.477629
 30
0.0
 10
2055.985086
 20
2128.298780
 30
0.0
 10
2056.901595
 20
2125.387844
 30
0.0
  0
SPLINE
  5
145
100
AcDbEntity
  8
DEFAULT
 62
1
100
AcDbSpline
 70
8
 71
3
 72
8
 73
4
 74
0
 40
0
 40
0
 40
0
 40
0
 40
1
 40
1
 40
1
 40
1
 10
2056.901595
 20
2125.387844
 30
0.0
 10
2057.818104
 20
2122.476908
 30
0.0
 10
2060.224161
 20
2120.280280
 30
0.0
 10
2063.206301
 20
2119.631915
 30
0.0
  0
SPLINE
  5
146
100
AcDbEntity
  8
DEFAULT
 62
1
100
AcDbSpline
 70
8
 71
3
 72
8
 73
4
 74
0
 40
0
 40
0
 40
0
 40
0
 40
1
 40
1
 40
1
 40
1
 10
2063.206301
 20
2119.631915
 30
0.0
 10
2066.188441
 20
2118.983550
 30
0.0
 10
2069.289350
 20
2119.982874
 30
0.0
 10
2071.331760
 20
2122.250493
 30
0.0
  0
LWPOLYLINE
  5
147
100
AcDbEntity
  8
DEFAULT
 62
1
100
AcDbPolyline
 90
2
 70
0
 10
2058.771440
 20
2133.717533
 30
0.0
 10
2058.771440
 20
2378.738973
 30
0.0
  0
SPLINE
  5
148
100
AcDbEntity
  8
DEFAULT
 62
1
100
AcDbSpline
 70
8
 71
3
 72
8
 73
4
 74
0
 40
0
 40
0
 40
0
 40
0
 40
1
 40
1
 40
1
 40
1
 10
1696.607280
 20
1953.259613
 30
0.0
 10
1694.777183
 20
1955.841331
 30
0.0
 10
1691.664878
 20
1957.193295
 30
0.0
 10
1688.528905
 20
1956.768804
 30
0.0
  0
SPLINE
  5
149
100
AcDbEntity
  8
DEFAULT
 62
1
100
AcDbSpline
 70
8
 71
3
 72
8
 73
4
 74
0
 40
0
 40
0
 40
0
 40
0
 40
1
 40
1
 40
1
 40
1
 10
1688.528905
 20
1956.768804
 30
0.0
 10
1685.392931
 20
1956.344313
 30
0.0
 10
1682.752049
 20
1954.213588
 30
0.0
 10
1681.674166
 20
1951.238241
 30
0.0
  0
SPLINE
  5
14a
100
AcDbEntity
  8
DEFAULT
 62
1
100
AcDbSpline
 70
8
 71
3
 72
8
 73
4
 74
0
 40
0
 40
0
 40
0
 40
0
 40
1
 40
1
 40
1
 40
1
 10
1681.674166
 20
1951.238241
 30
0.0
 10
1680.596283
 20
1948.262894
 30
0.0
 10
1681.259705
 20
1944.935114
 30
0.0
 10
1683.396160
 20
1942.600573
 30
0.0
  0
LWPOLYLINE
  5
14b
100
AcDbEntity
  8
DEFAULT
 62
1
100
AcDbPolyline
 90
4
 70
0
 10
1696.607280
 20
1953.259613
 30
0.0
 10
2108.804880
 20
1953.259613
 30
0.0
 10
2108.804880
 20
2122.250493
 30
0.0
 10
2071.331760
 20
2122.250493
 30
0.0
  0
SPLINE
  5
14c
100
AcDbEntity
  8
DEFAULT
 62
1
100
AcDbSpline
 70
8
 71
3
 72
8
 73
4
 74
0
 40
0
 40
0
 40
0
 40
0
 40
1
 40
1
 40
1
 40
1
 10
1683.396160
 20
1914.186253
 30
0.0
 10
1681.279317
 20
1911.873042
 30
0.0
 10
1680.607172
 20
1908.582633
 30
0.0
 10
1681.647227
 20
1905.624549
 30
0.0
  0
SPLINE
  5
14d
100
AcDbEntity
  8
DEFAULT
 62
1
100
AcDbSpline
 70
8
 71
3
 72
8
 73
4
 74
0
 40
0
 40
0
 40
0
 40
0
 40
1
 40
1
 40
1
 40
1
 10
1681.647227
 20
1905.624549
 30
0.0
 10
1682.687282
 20
1902.666466
 30
0.0
 10
1685.270763
 20
1900.520726
 30
0.0
 10
1688.369491
 20
1900.041297
 30
0.0
  0
SPLINE
  5
14e
100
AcDbEntity
  8
DEFAULT
 62
1
100
AcDbSpline
 70
8
 71
3
 72
8
 73
4
 74
0
 40
0
 40
0
 40
0
 40
0
 40
1
 40
1
 40
1
 40
1
 10
1688.369491
 20
1900.041297
 30
0.0
 10
1691.468220
 20
1899.561867
 30
0.0
 10
1694.579354
 20
1900.826546
 30
0.0
 10
1696.464720
 20
1903.332013
 30
0.0
  0
LWPOLYLINE
  5
14f
100
AcDbEntity
  8
DEFAULT
 62
1
100
AcDbPolyline
 90
2
 70
0
 10
1683.396160
 20
1914.186253
 30
0.0
 10
1683.396160
 20
1942.600573
 30
0.0
  0
LWPOLYLINE
  5
150
100
AcDbEntity
  8
DEFAULT
 62
1
100
AcDbPolyline
 90
4
 70
0
 10
1259.621760
 20
1777.956253
 30
0.0
 10
2108.804880
 20
1777.956253
 30
0.0
 10
2108.593040
 20
1903.332013
 30
0.0
 10
1696.464720
 20
1903.332013
 30
0.0
  0
LWPOLYLINE
  5
151
100
AcDbEntity
  8
DEFAULT
 62
1
100
AcDbPolyline
 90
3
 70
0
 10
1952.883520
 20
6771.788733
 30
0.0
 10
2620.272800
 20
6771.918973
 30
0.0
 10
2620.252000
 20
6880.318493
 30
0.0
  0
SPLINE
  5
152
100
AcDbEntity
  8
DEFAULT
 62
1
100
AcDbSpline
 70
8
 71
3
 72
8
 73
4
 74
0
 40
0
 40
0
 40
0
 40
0
 40
1
 40
1
 40
1
 40
1
 10
1952.883520
 20
6771.788733
 30
0.0
 10
1951.033067
 20
6774.389418
 30
0.0
 10
1947.882137
 20
6775.734914
 30
0.0
 10
1944.723912
 20
6775.273014
 30
0.0
  0
SPLINE
  5
153
100
AcDbEntity
  8
DEFAULT
 62
1
100
AcDbSpline
 70
8
 71
3
 72
8
 73
4
 74
0
 40
0
 40
0
 40
0
 40
0
 40
1
 40
1
 40
1
 40
1
 10
1944.723912
 20
6775.273014
 30
0.0
 10
1941.565687
 20
6774.811113
 30
0.0
 10
1938.932055
 20
6772.619607
 30
0.0
 10
1937.903892
 20
6769.597916
 30
0.0
  0
SPLINE
  5
154
100
AcDbEntity
  8
DEFAULT
 62
1
100
AcDbSpline
 70
8
 71
3
 72
8
 73
4
 74
0
 40
0
 40
0
 40
0
 40
0
 40
1
 40
1
 40
1
 40
1
 10
1937.903892
 20
6769.597916
 30
0.0
 10
1936.875729
 20
6766.576225
 30
0.0
 10
1937.626191
 20
6763.233243
 30
0.0
 10
1939.847280
 20
6760.940973
 30
0.0
  0
LWPOLYLINE
  5
155
100
AcDbEntity
  8
DEFAULT
 62
1
100
AcDbPolyline
 90
3
 70
0
 10
2620.251680
 20
6880.318493
 30
0.0
 10
1259.621760
 20
6880.318493
 30
0.0
 10
1259.621760
 20
1777.956253
 30
0.0
  0
SPLINE
  5
156
100
AcDbEntity
  8
DEFAULT
 62
1
100
AcDbSpline
 70
8
 71
3
 72
8
 73
4
 74
0
 40
0
 40
0
 40
0
 40
0
 40
1
 40
1
 40
1
 40
1
 10
1939.767840
 20
6732.596653
 30
0.0
 10
1937.609890
 20
6730.308766
 30
0.0
 10
1936.890852
 20
6727.016671
 30
0.0
 10
1937.898383
 20
6724.037400
 30
0.0
  0
SPLINE
  5
157
100
AcDbEntity
  8
DEFAULT
 62
1
100
AcDbSpline
 70
8
 71
3
 72
8
 73
4
 74
0
 40
0
 40
0
 40
0
 40
0
 40
1
 40
1
 40
1
 40
1
 10
1937.898383
 20
6724.037400
 30
0.0
 10
1938.905915
 20
6721.058129
 30
0.0
 10
1941.475491
 20
6718.878180
 30
0.0
 10
1944.579132
 20
6718.369660
 30
0.0
  0
SPLINE
  5
158
100
AcDbEntity
  8
DEFAULT
 62
1
100
AcDbSpline
 70
8
 71
3
 72
8
 73
4
 74
0
 40
0
 40
0
 40
0
 40
0
 40
1
 40
1
 40
1
 40
1
 10
1944.579132
 20
6718.369660
 30
0.0
 10
1947.682772
 20
6717.861141
 30
0.0
 10
1950.813669
 20
6719.107089
 30
0.0
 10
1952.719280
 20
6721.609053
 30
0.0
  0
LWPOLYLINE
  5
159
100
AcDbEntity
  8
DEFAULT
 62
1
100
AcDbPolyline
 90
2
 70
0
 10
1939.767840
 20
6732.596653
 30
0.0
 10
1939.847040
 20
6760.940973
 30
0.0
  0
LWPOLYLINE
  5
15a
100
AcDbEntity
  8
DEFAULT
 62
1
100
AcDbPolyline
 90
2
 70
0
 10
2583.483200
 20
6145.807933
 30
0.0
 10
2620.395040
 20
6145.815933
 30
0.0
  0
SPLINE
  5
15b
100
AcDbEntity
  8
DEFAULT
 62
1
100
AcDbSpline
 70
8
 71
3
 72
8
 73
4
 74
0
 40
0
 40
0
 40
0
 40
0
 40
1
 40
1
 40
1
 40
1
 10
2583.483200
 20
6145.807933
 30
0.0
 10
2581.522804
 20
6148.176730
 30
0.0
 10
2578.436385
 20
6149.302782
 30
0.0
 10
2575.411153
 20
6148.752946
 30
0.0
  0
SPLINE
  5
15c
100
AcDbEntity
  8
DEFAULT
 62
1
100
AcDbSpline
 70
8
 71
3
 72
8
 73
4
 74
0
 40
0
 40
0
 40
0
 40
0
 40
1
 40
1
 40
1
 40
1
 10
2575.411153
 20
6148.752946
 30
0.0
 10
2572.385920
 20
6148.203110
 30
0.0
 10
2569.893120
 20
6146.063035
 30
0.0
 10
2568.891623
 20
6143.155913
 30
0.0
  0
SPLINE
  5
15d
100
AcDbEntity
  8
DEFAULT
 62
1
100
AcDbSpline
 70
8
 71
3
 72
8
 73
4
 74
0
 40
0
 40
0
 40
0
 40
0
 40
1
 40
1
 40
1
 40
1
 10
2568.891623
 20
6143.155913
 30
0.0
 10
2567.890126
 20
6140.248792
 30
0.0
 10
2568.535936
 20
6137.027472
 30
0.0
 10
2570.580640
 20
6134.731053
 30
0.0
  0
LWPOLYLINE
  5
15e
100
AcDbEntity
  8
DEFAULT
 62
1
100
AcDbPolyline
 90
3
 70
0
 10
2620.395040
 20
6145.815133
 30
0.0
 10
2620.051920
 20
6721.609053
 30
0.0
 10
1952.719280
 20
6721.609053
 30
0.0
  0
SPLINE
  5
15f
100
AcDbEntity
  8
DEFAULT
 62
1
100
AcDbSpline
 70
8
 71
3
 72
8
 73
4
 74
0
 40
0
 40
0
 40
0
 40
0
 40
1
 40
1
 40
1
 40
1
 10
2570.368000
 20
5066.100173
 30
0.0
 10
2568.088101
 20
5063.980278
 30
0.0
 10
2567.148812
 20
5060.784015
 30
0.0
 10
2567.919327
 20
5057.767692
 30
0.0
  0
SPLINE
  5
160
100
AcDbEntity
  8
DEFAULT
 62
1
100
AcDbSpline
 70
8
 71
3
 72
8
 73
4
 74
0
 40
0
 40
0
 40
0
 40
0
 40
1
 40
1
 40
1
 40
1
 10
2567.919327
 20
5057.767692
 30
0.0
 10
2568.689841
 20
5054.751368
 30
0.0
 10
2571.046984
 20
5052.397173
 30
0.0
 10
2574.064269
 20
5051.630434
 30
0.0
  0
SPLINE
  5
161
100
AcDbEntity
  8
DEFAULT
 62
1
100
AcDbSpline
 70
8
 71
3
 72
8
 73
4
 74
0
 40
0
 40
0
 40
0
 40
0
 40
1
 40
1
 40
1
 40
1
 10
2574.064269
 20
5051.630434
 30
0.0
 10
2577.081554
 20
5050.863695
 30
0.0
 10
2580.276639
 20
5051.806983
 30
0.0
 10
2582.393680
 20
5054.089533
 30
0.0
  0
LWPOLYLINE
  5
162
100
AcDbEntity
  8
DEFAULT
 62
1
100
AcDbPolyline
 90
2
 70
0
 10
2570.368000
 20
5066.100173
 30
0.0
 10
2570.580640
 20
6134.731053
 30
0.0
  0
SPLINE
  5
163
100
AcDbEntity
  8
DEFAULT
 62
1
100
AcDbSpline
 70
8
 71
3
 72
8
 73
4
 74
0
 40
0
 40
0
 40
0
 40
0
 40
1
 40
1
 40
1
 40
1
 10
2589.736640
 20
4545.750413
 30
0.0
 10
2589.151145
 20
4548.852095
 30
0.0
 10
2586.895846
 20
4551.374309
 30
0.0
 10
2583.878686
 20
4552.301657
 30
0.0
  0
SPLINE
  5
164
100
AcDbEntity
  8
DEFAULT
 62
1
100
AcDbSpline
 70
8
 71
3
 72
8
 73
4
 74
0
 40
0
 40
0
 40
0
 40
0
 40
1
 40
1
 40
1
 40
1
 10
2583.878686
 20
4552.301657
 30
0.0
 10
2580.861526
 20
4553.229006
 30
0.0
 10
2577.578939
 20
4552.408905
 30
0.0
 10
2575.352438
 20
4550.171513
 30
0.0
  0
SPLINE
  5
165
100
AcDbEntity
  8
DEFAULT
 62
1
100
AcDbSpline
 70
8
 71
3
 72
8
 73
4
 74
0
 40
0
 40
0
 40
0
 40
0
 40
1
 40
1
 40
1
 40
1
 10
2575.352438
 20
4550.171513
 30
0.0
 10
2573.125936
 20
4547.934122
 30
0.0
 10
2572.321861
 20
4544.647573
 30
0.0
 10
2573.263920
 20
4541.634973
 30
0.0
  0
LWPOLYLINE
  5
166
100
AcDbEntity
  8
DEFAULT
 62
1
100
AcDbPolyline
 90
4
 70
0
 10
2589.736640
 20
4545.750413
 30
0.0
 10
2621.363840
 20
4522.842653
 30
0.0
 10
2620.522480
 20
5054.089533
 30
0.0
 10
2582.393680
 20
5054.089533
 30
0.0
  0
SPLINE
  5
167
100
AcDbEntity
  8
DEFAULT
 62
1
100
AcDbSpline
 70
8
 71
3
 72
8
 73
4
 74
0
 40
0
 40
0
 40
0
 40
0
 40
1
 40
1
 40
1
 40
1
 10
2162.255200
 20
3976.017933
 30
0.0
 10
2159.159409
 20
3975.722063
 30
0.0
 10
2156.472025
 20
3973.759903
 30
0.0
 10
2155.247401
 20
3970.901275
 30
0.0
  0
SPLINE
  5
168
100
AcDbEntity
  8
DEFAULT
 62
1
100
AcDbSpline
 70
8
 71
3
 72
8
 73
4
 74
0
 40
0
 40
0
 40
0
 40
0
 40
1
 40
1
 40
1
 40
1
 10
2155.247401
 20
3970.901275
 30
0.0
 10
2154.022777
 20
3968.042647
 30
0.0
 10
2154.456249
 20
3964.743525
 30
0.0
 10
2156.377752
 20
3962.298267
 30
0.0
  0
SPLINE
  5
169
100
AcDbEntity
  8
DEFAULT
 62
1
100
AcDbSpline
 70
8
 71
3
 72
8
 73
4
 74
0
 40
0
 40
0
 40
0
 40
0
 40
1
 40
1
 40
1
 40
1
 10
2156.377752
 20
3962.298267
 30
0.0
 10
2158.299255
 20
3959.853009
 30
0.0
 10
2161.402294
 20
3958.651654
 30
0.0
 10
2164.469440
 20
3959.165533
 30
0.0
  0
LWPOLYLINE
  5
16a
100
AcDbEntity
  8
DEFAULT
 62
1
100
AcDbPolyline
 90
2
 70
0
 10
2162.255200
 20
3976.017933
 30
0.0
 10
2573.263920
 20
4541.634973
 30
0.0
  0
SPLINE
  5
16b
100
AcDbEntity
  8
DEFAULT
 62
1
100
AcDbSpline
 70
8
 71
3
 72
8
 73
4
 74
0
 40
0
 40
0
 40
0
 40
0
 40
1
 40
1
 40
1
 40
1
 10
2151.175680
 20
5538.074013
 30
0.0
 10
2148.924902
 20
5535.951009
 30
0.0
 10
2148.004806
 20
5532.773049
 30
0.0
 10
2148.773183
 20
5529.775926
 30
0.0
  0
SPLINE
  5
16c
100
AcDbEntity
  8
DEFAULT
 62
1
100
AcDbSpline
 70
8
 71
3
 72
8
 73
4
 74
0
 40
0
 40
0
 40
0
 40
0
 40
1
 40
1
 40
1
 40
1
 10
2148.773183
 20
5529.775926
 30
0.0
 10
2149.541559
 20
5526.778803
 30
0.0
 10
2151.877148
 20
5524.435508
 30
0.0
 10
2154.871724
 20
5523.657263
 30
0.0
  0
SPLINE
  5
16d
100
AcDbEntity
  8
DEFAULT
 62
1
100
AcDbSpline
 70
8
 71
3
 72
8
 73
4
 74
0
 40
0
 40
0
 40
0
 40
0
 40
1
 40
1
 40
1
 40
1
 10
2154.871724
 20
5523.657263
 30
0.0
 10
2157.866300
 20
5522.879017
 30
0.0
 10
2161.047273
 20
5523.788641
 30
0.0
 10
2163.177680
 20
5526.032413
 30
0.0
  0
LWPOLYLINE
  5
16e
100
AcDbEntity
  8
DEFAULT
 62
1
100
AcDbPolyline
 90
2
 70
0
 10
2151.175680
 20
5538.074013
 30
0.0
 10
2151.175680
 20
5667.270013
 30
0.0
  0
SPLINE
  5
16f
100
AcDbEntity
  8
DEFAULT
 62
1
100
AcDbSpline
 70
8
 71
3
 72
8
 73
4
 74
0
 40
0
 40
0
 40
0
 40
0
 40
1
 40
1
 40
1
 40
1
 10
2163.535120
 20
5123.435933
 30
0.0
 10
2161.509456
 20
5125.859074
 30
0.0
 10
2158.307733
 20
5126.959993
 30
0.0
 10
2155.220218
 20
5126.295029
 30
0.0
  0
SPLINE
  5
170
100
AcDbEntity
  8
DEFAULT
 62
1
100
AcDbSpline
 70
8
 71
3
 72
8
 73
4
 74
0
 40
0
 40
0
 40
0
 40
0
 40
1
 40
1
 40
1
 40
1
 10
2155.220218
 20
5126.295029
 30
0.0
 10
2152.132703
 20
5125.630065
 30
0.0
 10
2149.668029
 20
5123.308764
 30
0.0
 10
2148.819440
 20
5120.266590
 30
0.0
  0
SPLINE
  5
171
100
AcDbEntity
  8
DEFAULT
 62
1
100
AcDbSpline
 70
8
 71
3
 72
8
 73
4
 74
0
 40
0
 40
0
 40
0
 40
0
 40
1
 40
1
 40
1
 40
1
 10
2148.819440
 20
5120.266590
 30
0.0
 10
2147.970850
 20
5117.224416
 30
0.0
 10
2148.878140
 20
5113.962534
 30
0.0
 10
2151.175680
 20
5111.795453
 30
0.0
  0
LWPOLYLINE
  5
172
100
AcDbEntity
  8
DEFAULT
 62
1
100
AcDbPolyline
 90
4
 70
0
 10
2163.535120
 20
5123.435933
 30
0.0
 10
2202.199280
 20
5123.523613
 30
0.0
 10
2202.199280
 20
5526.032413
 30
0.0
 10
2163.177680
 20
5526.032413
 30
0.0
  0
SPLINE
  5
173
100
AcDbEntity
  8
DEFAULT
 62
1
100
AcDbSpline
 70
8
 71
3
 72
8
 73
4
 74
0
 40
0
 40
0
 40
0
 40
0
 40
1
 40
1
 40
1
 40
1
 10
1930.317120
 20
5005.273853
 30
0.0
 10
1928.087484
 20
5008.163268
 30
0.0
 10
1924.262775
 20
5009.307796
 30
0.0
 10
1920.812476
 20
5008.118078
 30
0.0
  0
SPLINE
  5
174
100
AcDbEntity
  8
DEFAULT
 62
1
100
AcDbSpline
 70
8
 71
3
 72
8
 73
4
 74
0
 40
0
 40
0
 40
0
 40
0
 40
1
 40
1
 40
1
 40
1
 10
1920.812476
 20
5008.118078
 30
0.0
 10
1917.362177
 20
5006.928361
 30
0.0
 10
1915.055750
 20
5003.669719
 30
0.0
 10
1915.080860
 20
5000.020149
 30
0.0
  0
SPLINE
  5
175
100
AcDbEntity
  8
DEFAULT
 62
1
100
AcDbSpline
 70
8
 71
3
 72
8
 73
4
 74
0
 40
0
 40
0
 40
0
 40
0
 40
1
 40
1
 40
1
 40
1
 10
1915.080860
 20
5000.020149
 30
0.0
 10
1915.105970
 20
4996.370579
 30
0.0
 10
1917.457017
 20
4993.143983
 30
0.0
 10
1920.923360
 20
4992.001853
 30
0.0
  0
LWPOLYLINE
  5
176
100
AcDbEntity
  8
DEFAULT
 62
1
100
AcDbPolyline
 90
3
 70
0
 10
1930.317120
 20
5005.273853
 30
0.0
 10
2151.175680
 20
5005.273853
 30
0.0
 10
2151.175680
 20
5111.795453
 30
0.0
  0
LWPOLYLINE
  5
177
100
AcDbEntity
  8
DEFAULT
 62
1
100
AcDbPolyline
 90
3
 70
0
 10
2151.175680
 20
5667.270013
 30
0.0
 10
1721.052880
 20
5667.153693
 30
0.0
 10
1721.052880
 20
4955.566973
 30
0.0
  0
SPLINE
  5
178
100
AcDbEntity
  8
DEFAULT
 62
1
100
AcDbSpline
 70
8
 71
3
 72
8
 73
4
 74
0
 40
0
 40
0
 40
0
 40
0
 40
1
 40
1
 40
1
 40
1
 10
1750.880240
 20
6354.331133
 30
0.0
 10
1750.880259
 20
6356.410565
 30
0.0
 10
1750.118373
 20
6358.417938
 30
0.0
 10
1748.738640
 20
6359.973693
 30
0.0
  0
LWPOLYLINE
  5
179
100
AcDbEntity
  8
DEFAULT
 62
1
100
AcDbPolyline
 90
3
 70
0
 10
1721.054320
 20
4955.566973
 30
0.0
 10
1920.923360
 20
4955.566973
 30
0.0
 10
1920.923360
 20
4992.001853
 30
0.0
  0
LWPOLYLINE
  5
17a
100
AcDbEntity
  8
DEFAULT
 62
1
100
AcDbPolyline
 90
2
 70
0
 10
1748.738080
 20
6490.488733
 30
0.0
 10
1748.738640
 20
6359.973693
 30
0.0
  0
LWPOLYLINE
  5
17b
100
AcDbEntity
  8
DEFAULT
 62
1
100
AcDbPolyline
 90
3
 70
0
 10
1978.993120
 20
5815.469853
 30
0.0
 10
1978.993280
 20
5778.786573
 30
0.0
 10
2178.862320
 20
5778.786573
 30
0.0
  0
LWPOLYLINE
  5
17c
100
AcDbEntity
  8
DEFAULT
 62
1
100
AcDbPolyline
 90
2
 70
0
 10
2178.862320
 20
5778.787373
 30
0.0
 10
2178.862320
 20
6490.374093
 30
0.0
  0
SPLINE
  5
17d
100
AcDbEntity
  8
DEFAULT
 62
1
100
AcDbSpline
 70
8
 71
3
 72
8
 73
4
 74
0
 40
0
 40
0
 40
0
 40
0
 40
1
 40
1
 40
1
 40
1
 10
1978.993120
 20
5815.469853
 30
0.0
 10
1981.609273
 20
5816.992894
 30
0.0
 10
1983.218544
 20
5819.791858
 30
0.0
 10
1983.218560
 20
5822.819053
 30
0.0
  0
SPLINE
  5
17e
100
AcDbEntity
  8
DEFAULT
 62
1
100
AcDbSpline
 70
8
 71
3
 72
8
 73
4
 74
0
 40
0
 40
0
 40
0
 40
0
 40
1
 40
1
 40
1
 40
1
 10
1983.218560
 20
5822.819053
 30
0.0
 10
1983.218604
 20
5826.343715
 30
0.0
 10
1981.044338
 20
5829.503089
 30
0.0
 10
1977.752201
 20
5830.762086
 30
0.0
  0
SPLINE
  5
17f
100
AcDbEntity
  8
DEFAULT
 62
1
100
AcDbSpline
 70
8
 71
3
 72
8
 73
4
 74
0
 40
0
 40
0
 40
0
 40
0
 40
1
 40
1
 40
1
 40
1
 10
1977.752201
 20
5830.762086
 30
0.0
 10
1974.460064
 20
5832.021083
 30
0.0
 10
1970.732487
 20
5831.118725
 30
0.0
 10
1968.380640
 20
5828.493453
 30
0.0
  0
LWPOLYLINE
  5
180
100
AcDbEntity
  8
DEFAULT
 62
1
100
AcDbPolyline
 90
2
 70
0
 10
2178.860880
 20
6490.374093
 30
0.0
 10
1748.738080
 20
6490.488733
 30
0.0
  0
SPLINE
  5
181
100
AcDbEntity
  8
DEFAULT
 62
1
100
AcDbSpline
 70
8
 71
3
 72
8
 73
4
 74
0
 40
0
 40
0
 40
0
 40
0
 40
1
 40
1
 40
1
 40
1
 10
1748.740320
 20
5935.318253
 30
0.0
 10
1750.119005
 20
5936.873760
 30
0.0
 10
1750.880253
 20
5938.880342
 30
0.0
 10
1750.880240
 20
5940.958893
 30
0.0
  0
SPLINE
  5
182
100
AcDbEntity
  8
DEFAULT
 62
1
100
AcDbSpline
 70
8
 71
3
 72
8
 73
4
 74
0
 40
0
 40
0
 40
0
 40
0
 40
1
 40
1
 40
1
 40
1
 10
1750.880240
 20
5940.958893
 30
0.0
 10
1750.880253
 20
5943.037444
 30
0.0
 10
1750.119005
 20
5945.044026
 30
0.0
 10
1748.740320
 20
5946.599533
 30
0.0
  0
LWPOLYLINE
  5
183
100
AcDbEntity
  8
DEFAULT
 62
1
100
AcDbPolyline
 90
3
 70
0
 10
1748.740320
 20
5935.318253
 30
0.0
 10
1748.740800
 20
5828.492573
 30
0.0
 10
1968.380640
 20
5828.492573
 30
0.0
  0
SPLINE
  5
184
100
AcDbEntity
  8
DEFAULT
 62
1
100
AcDbSpline
 70
8
 71
3
 72
8
 73
4
 74
0
 40
0
 40
0
 40
0
 40
0
 40
1
 40
1
 40
1
 40
1
 10
1748.716160
 20
5946.626653
 30
0.0
 10
1747.107345
 20
5948.426278
 30
0.0
 10
1744.809520
 20
5949.457384
 30
0.0
 10
1742.395622
 20
5949.462878
 30
0.0
  0
SPLINE
  5
185
100
AcDbEntity
  8
DEFAULT
 62
1
100
AcDbSpline
 70
8
 71
3
 72
8
 73
4
 74
0
 40
0
 40
0
 40
0
 40
0
 40
1
 40
1
 40
1
 40
1
 10
1742.395622
 20
5949.462878
 30
0.0
 10
1739.981724
 20
5949.468372
 30
0.0
 10
1737.679230
 20
5948.447736
 30
0.0
 10
1736.062240
 20
5946.655453
 30
0.0
  0
LWPOLYLINE
  5
186
100
AcDbEntity
  8
DEFAULT
 62
1
100
AcDbPolyline
 90
2
 70
0
 10
1748.716160
 20
5946.626653
 30
0.0
 10
1748.740160
 20
5946.599453
 30
0.0
  0
LWPOLYLINE
  5
187
100
AcDbEntity
  8
DEFAULT
 62
1
100
AcDbPolyline
 90
3
 70
0
 10
1735.556480
 20
6349.251053
 30
0.0
 10
1697.715040
 20
6349.250893
 30
0.0
 10
1697.715040
 20
5946.742173
 30
0.0
  0
SPLINE
  5
188
100
AcDbEntity
  8
DEFAULT
 62
1
100
AcDbSpline
 70
8
 71
3
 72
8
 73
4
 74
0
 40
0
 40
0
 40
0
 40
0
 40
1
 40
1
 40
1
 40
1
 10
1735.556480
 20
6349.251053
 30
0.0
 10
1737.746155
 20
6346.311479
 30
0.0
 10
1741.573007
 20
6345.105739
 30
0.0
 10
1745.052282
 20
6346.259176
 30
0.0
  0
SPLINE
  5
189
100
AcDbEntity
  8
DEFAULT
 62
1
100
AcDbSpline
 70
8
 71
3
 72
8
 73
4
 74
0
 40
0
 40
0
 40
0
 40
0
 40
1
 40
1
 40
1
 40
1
 10
1745.052282
 20
6346.259176
 30
0.0
 10
1748.531557
 20
6347.412613
 30
0.0
 10
1750.880251
 20
6350.665649
 30
0.0
 10
1750.880240
 20
6354.331133
 30
0.0
  0
LWPOLYLINE
  5
18a
100
AcDbEntity
  8
DEFAULT
 62
1
100
AcDbPolyline
 90
2
 70
0
 10
1697.716640
 20
5946.742173
 30
0.0
 10
1736.062240
 20
5946.655293
 30
0.0
  0
SPLINE
  5
18b
100
AcDbEntity
  8
DEFAULT
 62
1
100
AcDbSpline
 70
8
 71
3
 72
8
 73
4
 74
0
 40
0
 40
0
 40
0
 40
0
 40
1
 40
1
 40
1
 40
1
 10
2285.516240
 20
3702.080973
 30
0.0
 10
2283.135227
 20
3704.639847
 30
0.0
 10
2279.430960
 20
3705.481207
 30
0.0
 10
2276.178183
 20
3704.201950
 30
0.0
  0
SPLINE
  5
18c
100
AcDbEntity
  8
DEFAULT
 62
1
100
AcDbSpline
 70
8
 71
3
 72
8
 73
4
 74
0
 40
0
 40
0
 40
0
 40
0
 40
1
 40
1
 40
1
 40
1
 10
2276.178183
 20
3704.201950
 30
0.0
 10
2272.925405
 20
3702.922692
 30
0.0
 10
2270.786661
 20
3699.783384
 30
0.0
 10
2270.786640
 20
3696.288093
 30
0.0
  0
SPLINE
  5
18d
100
AcDbEntity
  8
DEFAULT
 62
1
100
AcDbSpline
 70
8
 71
3
 72
8
 73
4
 74
0
 40
0
 40
0
 40
0
 40
0
 40
1
 40
1
 40
1
 40
1
 10
2270.786640
 20
3696.288093
 30
0.0
 10
2270.786632
 20
3693.864672
 30
0.0
 10
2271.820575
 20
3691.556366
 30
0.0
 10
2273.628800
 20
3689.942893
 30
0.0
  0
LWPOLYLINE
  5
18e
100
AcDbEntity
  8
DEFAULT
 62
1
100
AcDbPolyline
 90
3
 70
0
 10
2285.516240
 20
3702.080973
 30
0.0
 10
2415.876000
 20
3701.959133
 30
0.0
 10
3210.121920
 20
4794.325053
 30
0.0
  0
SPLINE
  5
18f
100
AcDbEntity
  8
DEFAULT
 62
1
100
AcDbSpline
 70
8
 71
3
 72
8
 73
4
 74
0
 40
0
 40
0
 40
0
 40
0
 40
1
 40
1
 40
1
 40
1
 10
2273.628800
 20
3664.411853
 30
0.0
 10
2271.775950
 20
3662.796864
 30
0.0
 10
2270.712485
 20
3660.459187
 30
0.0
 10
2270.712480
 20
3658.001293
 30
0.0
  0
SPLINE
  5
190
100
AcDbEntity
  8
DEFAULT
 62
1
100
AcDbSpline
 70
8
 71
3
 72
8
 73
4
 74
0
 40
0
 40
0
 40
0
 40
0
 40
1
 40
1
 40
1
 40
1
 10
2270.712480
 20
3658.001293
 30
0.0
 10
2270.712480
 20
3654.400184
 30
0.0
 10
2272.980684
 20
3651.189496
 30
0.0
 10
2276.374797
 20
3649.986173
 30
0.0
  0
SPLINE
  5
191
100
AcDbEntity
  8
DEFAULT
 62
1
100
AcDbSpline
 70
8
 71
3
 72
8
 73
4
 74
0
 40
0
 40
0
 40
0
 40
0
 40
1
 40
1
 40
1
 40
1
 10
2276.374797
 20
3649.986173
 30
0.0
 10
2279.768909
 20
3648.782850
 30
0.0
 10
2283.552971
 20
3649.847813
 30
0.0
 10
2285.821280
 20
3652.644733
 30
0.0
  0
LWPOLYLINE
  5
192
100
AcDbEntity
  8
DEFAULT
 62
1
100
AcDbPolyline
 90
2
 70
0
 10
2273.628800
 20
3664.411853
 30
0.0
 10
2273.628800
 20
3689.942893
 30
0.0
  0
SPLINE
  5
193
100
AcDbEntity
  8
DEFAULT
 62
1
100
AcDbSpline
 70
8
 71
3
 72
8
 73
4
 74
0
 40
0
 40
0
 40
0
 40
0
 40
1
 40
1
 40
1
 40
1
 10
3245.612160
 20
2002.344173
 30
0.0
 10
3247.042018
 20
1999.463271
 30
0.0
 10
3249.974831
 20
1997.635522
 30
0.0
 10
3253.191021
 20
1997.620976
 30
0.0
  0
SPLINE
  5
194
100
AcDbEntity
  8
DEFAULT
 62
1
100
AcDbSpline
 70
8
 71
3
 72
8
 73
4
 74
0
 40
0
 40
0
 40
0
 40
0
 40
1
 40
1
 40
1
 40
1
 10
3253.191021
 20
1997.620976
 30
0.0
 10
3256.407212
 20
1997.606429
 30
0.0
 10
3259.356438
 20
1999.407574
 30
0.0
 10
3260.812296
 20
2002.275425
 30
0.0
  0
SPLINE
  5
195
100
AcDbEntity
  8
DEFAULT
 62
1
100
AcDbSpline
 70
8
 71
3
 72
8
 73
4
 74
0
 40
0
 40
0
 40
0
 40
0
 40
1
 40
1
 40
1
 40
1
 10
3260.812296
 20
2002.275425
 30
0.0
 10
3262.268155
 20
2005.143276
 30
0.0
 10
3261.981526
 20
2008.587097
 30
0.0
 10
3260.071600
 20
2011.174813
 30
0.0
  0
LWPOLYLINE
  5
196
100
AcDbEntity
  8
DEFAULT
 62
1
100
AcDbPolyline
 90
6
 70
0
 10
3245.612160
 20
2002.344173
 30
0.0
 10
3210.121920
 20
2002.344173
 30
0.0
 10
3210.121920
 20
1719.187693
 30
0.0
 10
2415.876000
 20
1719.187693
 30
0.0
 10
2415.876000
 20
3652.644733
 30
0.0
 10
2285.821280
 20
3652.644733
 30
0.0
  0
SPLINE
  5
197
100
AcDbEntity
  8
DEFAULT
 62
1
100
AcDbSpline
 70
8
 71
3
 72
8
 73
4
 74
0
 40
0
 40
0
 40
0
 40
0
 40
1
 40
1
 40
1
 40
1
 10
3259.971600
 20
2393.644573
 30
0.0
 10
3262.815210
 20
2396.861171
 30
0.0
 10
3262.815210
 20
2401.692856
 30
0.0
 10
3259.971600
 20
2404.909453
 30
0.0
  0
LWPOLYLINE
  5
198
100
AcDbEntity
  8
DEFAULT
 62
1
100
AcDbPolyline
 90
2
 70
0
 10
3259.971600
 20
2393.644573
 30
0.0
 10
3260.071600
 20
2011.174813
 30
0.0
  0
SPLINE
  5
199
100
AcDbEntity
  8
DEFAULT
 62
1
100
AcDbSpline
 70
8
 71
3
 72
8
 73
4
 74
0
 40
0
 40
0
 40
0
 40
0
 40
1
 40
1
 40
1
 40
1
 10
3259.830240
 20
2405.062253
 30
0.0
 10
3258.210529
 20
2406.806404
 30
0.0
 10
3255.933981
 20
2407.791903
 30
0.0
 10
3253.553778
 20
2407.779283
 30
0.0
  0
SPLINE
  5
19a
100
AcDbEntity
  8
DEFAULT
 62
1
100
AcDbSpline
 70
8
 71
3
 72
8
 73
4
 74
0
 40
0
 40
0
 40
0
 40
0
 40
1
 40
1
 40
1
 40
1
 10
3253.553778
 20
2407.779283
 30
0.0
 10
3251.173576
 20
2407.766663
 30
0.0
 10
3248.907606
 20
2406.757080
 30
0.0
 10
3247.306480
 20
2404.995853
 30
0.0
  0
LWPOLYLINE
  5
19b
100
AcDbEntity
  8
DEFAULT
 62
1
100
AcDbPolyline
 90
2
 70
0
 10
3259.830240
 20
2405.062253
 30
0.0
 10
3259.968720
 20
2404.909453
 30
0.0
  0
LWPOLYLINE
  5
19c
100
AcDbEntity
  8
DEFAULT
 62
1
100
AcDbPolyline
 90
2
 70
0
 10
3247.890560
 20
3135.953453
 30
0.0
 10
3210.035840
 20
3135.968653
 30
0.0
  0
SPLINE
  5
19d
100
AcDbEntity
  8
DEFAULT
 62
1
100
AcDbSpline
 70
8
 71
3
 72
8
 73
4
 74
0
 40
0
 40
0
 40
0
 40
0
 40
1
 40
1
 40
1
 40
1
 10
3247.890560
 20
3135.953453
 30
0.0
 10
3249.565249
 20
3132.896778
 30
0.0
 10
3252.935578
 20
3131.171449
 30
0.0
 10
3256.394489
 20
3131.600146
 30
0.0
  0
SPLINE
  5
19e
100
AcDbEntity
  8
DEFAULT
 62
1
100
AcDbSpline
 70
8
 71
3
 72
8
 73
4
 74
0
 40
0
 40
0
 40
0
 40
0
 40
1
 40
1
 40
1
 40
1
 10
3256.394489
 20
3131.600146
 30
0.0
 10
3259.853401
 20
3132.028844
 30
0.0
 10
3262.700547
 20
3134.524768
 30
0.0
 10
3263.578338
 20
3137.897798
 30
0.0
  0
SPLINE
  5
19f
100
AcDbEntity
  8
DEFAULT
 62
1
100
AcDbSpline
 70
8
 71
3
 72
8
 73
4
 74
0
 40
0
 40
0
 40
0
 40
0
 40
1
 40
1
 40
1
 40
1
 10
3263.578338
 20
3137.897798
 30
0.0
 10
3264.456129
 20
3141.270828
 30
0.0
 10
3263.186832
 20
3144.838007
 30
0.0
 10
3260.375680
 20
3146.898413
 30
0.0
  0
LWPOLYLINE
  5
1a0
100
AcDbEntity
  8
DEFAULT
 62
1
100
AcDbPolyline
 90
3
 70
0
 10
3210.035840
 20
3135.968333
 30
0.0
 10
3210.035840
 20
2404.797453
 30
0.0
 10
3247.306480
 20
2404.995693
 30
0.0
  0
SPLINE
  5
1a1
100
AcDbEntity
  8
DEFAULT
 62
1
100
AcDbSpline
 70
8
 71
3
 72
8
 73
4
 74
0
 40
0
 40
0
 40
0
 40
0
 40
1
 40
1
 40
1
 40
1
 10
3260.375680
 20
3526.075133
 30
0.0
 10
3263.199714
 20
3527.923879
 30
0.0
 10
3264.663028
 20
3531.267845
 30
0.0
 10
3264.104707
 20
3534.596705
 30
0.0
  0
SPLINE
  5
1a2
100
AcDbEntity
  8
DEFAULT
 62
1
100
AcDbSpline
 70
8
 71
3
 72
8
 73
4
 74
0
 40
0
 40
0
 40
0
 40
0
 40
1
 40
1
 40
1
 40
1
 10
3264.104707
 20
3534.596705
 30
0.0
 10
3263.546385
 20
3537.925564
 30
0.0
 10
3261.072126
 20
3540.609114
 30
0.0
 10
3257.799447
 20
3541.435309
 30
0.0
  0
SPLINE
  5
1a3
100
AcDbEntity
  8
DEFAULT
 62
1
100
AcDbSpline
 70
8
 71
3
 72
8
 73
4
 74
0
 40
0
 40
0
 40
0
 40
0
 40
1
 40
1
 40
1
 40
1
 10
3257.799447
 20
3541.435309
 30
0.0
 10
3254.526768
 20
3542.261505
 30
0.0
 10
3251.075235
 20
3541.073934
 30
0.0
 10
3249.003760
 20
3538.408973
 30
0.0
  0
LWPOLYLINE
  5
1a4
100
AcDbEntity
  8
DEFAULT
 62
1
100
AcDbPolyline
 90
2
 70
0
 10
3260.375680
 20
3526.075133
 30
0.0
 10
3260.375680
 20
3146.898413
 30
0.0
  0
SPLINE
  5
1a5
100
AcDbEntity
  8
DEFAULT
 62
1
100
AcDbSpline
 70
8
 71
3
 72
8
 73
4
 74
0
 40
0
 40
0
 40
0
 40
0
 40
1
 40
1
 40
1
 40
1
 10
3246.078480
 20
4270.124493
 30
0.0
 10
3247.720866
 20
4267.531453
 30
0.0
 10
3250.633154
 20
4266.024696
 30
0.0
 10
3253.698531
 20
4266.182038
 30
0.0
  0
SPLINE
  5
1a6
100
AcDbEntity
  8
DEFAULT
 62
1
100
AcDbSpline
 70
8
 71
3
 72
8
 73
4
 74
0
 40
0
 40
0
 40
0
 40
0
 40
1
 40
1
 40
1
 40
1
 10
3253.698531
 20
4266.182038
 30
0.0
 10
3256.763907
 20
4266.339380
 30
0.0
 10
3259.506616
 20
4268.136401
 30
0.0
 10
3260.874876
 20
4270.883974
 30
0.0
  0
SPLINE
  5
1a7
100
AcDbEntity
  8
DEFAULT
 62
1
100
AcDbSpline
 70
8
 71
3
 72
8
 73
4
 74
0
 40
0
 40
0
 40
0
 40
0
 40
1
 40
1
 40
1
 40
1
 10
3260.874876
 20
4270.883974
 30
0.0
 10
3262.243135
 20
4273.631546
 30
0.0
 10
3262.024586
 20
4276.903239
 30
0.0
 10
3260.303040
 20
4279.444413
 30
0.0
  0
LWPOLYLINE
  5
1a8
100
AcDbEntity
  8
DEFAULT
 62
1
100
AcDbPolyline
 90
4
 70
0
 10
3246.078480
 20
4270.124493
 30
0.0
 10
3210.035840
 20
4270.124493
 30
0.0
 10
3210.035840
 20
3538.421533
 30
0.0
 10
3249.003760
 20
3538.408733
 30
0.0
  0
SPLINE
  5
1a9
100
AcDbEntity
  8
DEFAULT
 62
1
100
AcDbSpline
 70
8
 71
3
 72
8
 73
4
 74
0
 40
0
 40
0
 40
0
 40
0
 40
1
 40
1
 40
1
 40
1
 10
3260.303040
 20
4661.053853
 30
0.0
 10
3262.747668
 20
4664.145402
 30
0.0
 10
3262.747668
 20
4668.511584
 30
0.0
 10
3260.303040
 20
4671.603133
 30
0.0
  0
LWPOLYLINE
  5
1aa
100
AcDbEntity
  8
DEFAULT
 62
1
100
AcDbPolyline
 90
2
 70
0
 10
3260.303040
 20
4661.053853
 30
0.0
 10
3260.303040
 20
4279.444413
 30
0.0
  0
SPLINE
  5
1ab
100
AcDbEntity
  8
DEFAULT
 62
1
100
AcDbSpline
 70
8
 71
3
 72
8
 73
4
 74
0
 40
0
 40
0
 40
0
 40
0
 40
1
 40
1
 40
1
 40
1
 10
3259.380960
 20
4672.595293
 30
0.0
 10
3256.126388
 20
4675.578615
 30
0.0
 10
3251.130099
 20
4675.575140
 30
0.0
 10
3247.879680
 20
4672.587293
 30
0.0
  0
LWPOLYLINE
  5
1ac
100
AcDbEntity
  8
DEFAULT
 62
1
100
AcDbPolyline
 90
3
 70
0
 10
3259.380960
 20
4672.595293
 30
0.0
 10
3260.303040
 20
4672.595613
 30
0.0
 10
3260.303040
 20
4671.603133
 30
0.0
  0
LWPOLYLINE
  5
1ad
100
AcDbEntity
  8
DEFAULT
 62
1
100
AcDbPolyline
 90
3
 70
0
 10
3210.121920
 20
4794.325053
 30
0.0
 10
3210.035840
 20
4672.577773
 30
0.0
 10
3247.879680
 20
4672.591373
 30
0.0
  0
SPLINE
  5
1ae
100
AcDbEntity
  8
DEFAULT
 62
1
100
AcDbSpline
 70
8
 71
3
 72
8
 73
4
 74
0
 40
0
 40
0
 40
0
 40
0
 40
1
 40
1
 40
1
 40
1
 10
3247.005600
 20
5795.949453
 30
0.0
 10
3248.732802
 20
5793.194122
 30
0.0
 10
3251.880118
 20
5791.665048
 30
0.0
 10
3255.113676
 20
5792.010273
 30
0.0
  0
SPLINE
  5
1af
100
AcDbEntity
  8
DEFAULT
 62
1
100
AcDbSpline
 70
8
 71
3
 72
8
 73
4
 74
0
 40
0
 40
0
 40
0
 40
0
 40
1
 40
1
 40
1
 40
1
 10
3255.113676
 20
5792.010273
 30
0.0
 10
3258.347234
 20
5792.355497
 30
0.0
 10
3261.100792
 20
5794.514566
 30
0.0
 10
3262.207359
 20
5797.572439
 30
0.0
  0
SPLINE
  5
1b0
100
AcDbEntity
  8
DEFAULT
 62
1
100
AcDbSpline
 70
8
 71
3
 72
8
 73
4
 74
0
 40
0
 40
0
 40
0
 40
0
 40
1
 40
1
 40
1
 40
1
 10
3262.207359
 20
5797.572439
 30
0.0
 10
3263.313926
 20
5800.630312
 30
0.0
 10
3262.579725
 20
5804.051513
 30
0.0
 10
3260.315920
 20
5806.386093
 30
0.0
  0
LWPOLYLINE
  5
1b1
100
AcDbEntity
  8
DEFAULT
 62
1
100
AcDbPolyline
 90
6
 70
0
 10
3247.005600
 20
5795.949453
 30
0.0
 10
3210.121920
 20
5796.160813
 30
0.0
 10
3210.121920
 20
5625.630973
 30
0.0
 10
2927.867840
 20
5830.877933
 30
0.0
 10
2927.867840
 20
6254.620733
 30
0.0
 10
3210.121920
 20
6254.620733
 30
0.0
  0
SPLINE
  5
1b2
100
AcDbEntity
  8
DEFAULT
 62
1
100
AcDbSpline
 70
8
 71
3
 72
8
 73
4
 74
0
 40
0
 40
0
 40
0
 40
0
 40
1
 40
1
 40
1
 40
1
 10
3260.435040
 20
6131.591853
 30
0.0
 10
3262.509548
 20
6133.817615
 30
0.0
 10
3263.236843
 20
6136.982120
 30
0.0
 10
3262.342255
 20
6139.890266
 30
0.0
  0
SPLINE
  5
1b3
100
AcDbEntity
  8
DEFAULT
 62
1
100
AcDbSpline
 70
8
 71
3
 72
8
 73
4
 74
0
 40
0
 40
0
 40
0
 40
0
 40
1
 40
1
 40
1
 40
1
 10
3262.342255
 20
6139.890266
 30
0.0
 10
3261.447668
 20
6142.798412
 30
0.0
 10
3259.067524
 20
6145.007024
 30
0.0
 10
3256.100707
 20
6145.682002
 30
0.0
  0
SPLINE
  5
1b4
100
AcDbEntity
  8
DEFAULT
 62
1
100
AcDbSpline
 70
8
 71
3
 72
8
 73
4
 74
0
 40
0
 40
0
 40
0
 40
0
 40
1
 40
1
 40
1
 40
1
 10
3256.100707
 20
6145.682002
 30
0.0
 10
3253.133890
 20
6146.356979
 30
0.0
 10
3250.032513
 20
6145.395461
 30
0.0
 10
3247.967840
 20
6143.160573
 30
0.0
  0
LWPOLYLINE
  5
1b5
100
AcDbEntity
  8
DEFAULT
 62
1
100
AcDbPolyline
 90
2
 70
0
 10
3260.435040
 20
6131.591853
 30
0.0
 10
3260.315920
 20
5806.386093
 30
0.0
  0
LWPOLYLINE
  5
1b6
100
AcDbEntity
  8
DEFAULT
 62
1
100
AcDbPolyline
 90
3
 70
0
 10
3210.121920
 20
6254.620733
 30
0.0
 10
3210.121920
 20
6143.160573
 30
0.0
 10
3247.967840
 20
6143.160573
 30
0.0
  0
SPLINE
  5
1b7
100
AcDbEntity
  8
DEFAULT
 62
1
100
AcDbSpline
 70
8
 71
3
 72
8
 73
4
 74
0
 40
0
 40
0
 40
0
 40
0
 40
1
 40
1
 40
1
 40
1
 10
2694.436800
 20
6182.227453
 30
0.0
 10
2697.048604
 20
6185.375932
 30
0.0
 10
2697.048604
 20
6189.937855
 30
0.0
 10
2694.436800
 20
6193.086333
 30
0.0
  0
LWPOLYLINE
  5
1b8
100
AcDbEntity
  8
DEFAULT
 62
1
100
AcDbPolyline
 90
2
 70
0
 10
2694.436800
 20
6182.227453
 30
0.0
 10
2694.436800
 20
5936.445293
 30
0.0
  0
SPLINE
  5
1b9
100
AcDbEntity
  8
DEFAULT
 62
1
100
AcDbSpline
 70
8
 71
3
 72
8
 73
4
 74
0
 40
0
 40
0
 40
0
 40
0
 40
1
 40
1
 40
1
 40
1
 10
2693.781360
 20
6193.791053
 30
0.0
 10
2690.490547
 20
6196.950680
 30
0.0
 10
2685.292813
 20
6196.950680
 30
0.0
 10
2682.002000
 20
6193.791053
 30
0.0
  0
LWPOLYLINE
  5
1ba
100
AcDbEntity
  8
DEFAULT
 62
1
100
AcDbPolyline
 90
3
 70
0
 10
2693.781360
 20
6193.791053
 30
0.0
 10
2694.436800
 20
6193.791053
 30
0.0
 10
2694.436800
 20
6193.086333
 30
0.0
  0
SPLINE
  5
1bb
100
AcDbEntity
  8
DEFAULT
 62
1
100
AcDbSpline
 70
8
 71
3
 72
8
 73
4
 74
0
 40
0
 40
0
 40
0
 40
0
 40
1
 40
1
 40
1
 40
1
 10
3056.006320
 20
6362.782013
 30
0.0
 10
3057.676428
 20
6360.084271
 30
0.0
 10
3060.709493
 20
6358.540647
 30
0.0
 10
3063.873455
 20
6358.778176
 30
0.0
  0
SPLINE
  5
1bc
100
AcDbEntity
  8
DEFAULT
 62
1
100
AcDbSpline
 70
8
 71
3
 72
8
 73
4
 74
0
 40
0
 40
0
 40
0
 40
0
 40
1
 40
1
 40
1
 40
1
 10
3063.873455
 20
6358.778176
 30
0.0
 10
3067.037417
 20
6359.015705
 30
0.0
 10
3069.806014
 20
6360.994879
 30
0.0
 10
3071.054616
 20
6363.911738
 30
0.0
  0
SPLINE
  5
1bd
100
AcDbEntity
  8
DEFAULT
 62
1
100
AcDbSpline
 70
8
 71
3
 72
8
 73
4
 74
0
 40
0
 40
0
 40
0
 40
0
 40
1
 40
1
 40
1
 40
1
 10
3071.054616
 20
6363.911738
 30
0.0
 10
3072.303217
 20
6366.828597
 30
0.0
 10
3071.824144
 20
6370.197981
 30
0.0
 10
3069.812000
 20
6372.651213
 30
0.0
  0
LWPOLYLINE
  5
1be
100
AcDbEntity
  8
DEFAULT
 62
1
100
AcDbPolyline
 90
4
 70
0
 10
3056.006320
 20
6362.782013
 30
0.0
 10
2644.403280
 20
6362.782013
 30
0.0
 10
2644.403280
 20
6193.791053
 30
0.0
 10
2682.002000
 20
6193.791053
 30
0.0
  0
SPLINE
  5
1bf
100
AcDbEntity
  8
DEFAULT
 62
1
100
AcDbSpline
 70
8
 71
3
 72
8
 73
4
 74
0
 40
0
 40
0
 40
0
 40
0
 40
1
 40
1
 40
1
 40
1
 10
3069.812000
 20
6401.762493
 30
0.0
 10
3072.383770
 20
6404.897955
 30
0.0
 10
3072.383770
 20
6409.413112
 30
0.0
 10
3069.812000
 20
6412.548573
 30
0.0
  0
LWPOLYLINE
  5
1c0
100
AcDbEntity
  8
DEFAULT
 62
1
100
AcDbPolyline
 90
2
 70
0
 10
3069.812000
 20
6401.762493
 30
0.0
 10
3069.812000
 20
6372.651213
 30
0.0
  0
SPLINE
  5
1c1
100
AcDbEntity
  8
DEFAULT
 62
1
100
AcDbSpline
 70
8
 71
3
 72
8
 73
4
 74
0
 40
0
 40
0
 40
0
 40
0
 40
1
 40
1
 40
1
 40
1
 10
3069.676560
 20
6412.709533
 30
0.0
 10
3068.061139
 20
6414.582572
 30
0.0
 10
3065.710270
 20
6415.659467
 30
0.0
 10
3063.236840
 20
6415.659467
 30
0.0
  0
SPLINE
  5
1c2
100
AcDbEntity
  8
DEFAULT
 62
1
100
AcDbSpline
 70
8
 71
3
 72
8
 73
4
 74
0
 40
0
 40
0
 40
0
 40
0
 40
1
 40
1
 40
1
 40
1
 10
3063.236840
 20
6415.659467
 30
0.0
 10
3060.763410
 20
6415.659467
 30
0.0
 10
3058.412541
 20
6414.582572
 30
0.0
 10
3056.797120
 20
6412.709533
 30
0.0
  0
LWPOLYLINE
  5
1c3
100
AcDbEntity
  8
DEFAULT
 62
1
100
AcDbPolyline
 90
2
 70
0
 10
3069.676560
 20
6412.709533
 30
0.0
 10
3069.812000
 20
6412.548573
 30
0.0
  0
LWPOLYLINE
  5
1c4
100
AcDbEntity
  8
DEFAULT
 62
1
100
AcDbPolyline
 90
4
 70
0
 10
3493.586480
 20
6538.085293
 30
0.0
 10
2644.403280
 20
6538.085293
 30
0.0
 10
2644.615120
 20
6412.709533
 30
0.0
 10
3056.797120
 20
6412.709533
 30
0.0
  0
LWPOLYLINE
  5
1c5
100
AcDbEntity
  8
DEFAULT
 62
1
100
AcDbPolyline
 90
3
 70
0
 10
2799.729040
 20
1544.252733
 30
0.0
 10
2132.935360
 20
1544.122573
 30
0.0
 10
2132.956160
 20
1435.723053
 30
0.0
  0
SPLINE
  5
1c6
100
AcDbEntity
  8
DEFAULT
 62
1
100
AcDbSpline
 70
8
 71
3
 72
8
 73
4
 74
0
 40
0
 40
0
 40
0
 40
0
 40
1
 40
1
 40
1
 40
1
 10
2799.729040
 20
1544.252733
 30
0.0
 10
2801.419383
 20
1541.532891
 30
0.0
 10
2804.494334
 20
1539.993238
 30
0.0
 10
2807.684728
 20
1540.269255
 30
0.0
  0
SPLINE
  5
1c7
100
AcDbEntity
  8
DEFAULT
 62
1
100
AcDbSpline
 70
8
 71
3
 72
8
 73
4
 74
0
 40
0
 40
0
 40
0
 40
0
 40
1
 40
1
 40
1
 40
1
 10
2807.684728
 20
1540.269255
 30
0.0
 10
2810.875122
 20
1540.545272
 30
0.0
 10
2813.639957
 20
1542.590154
 30
0.0
 10
2814.838067
 20
1545.559890
 30
0.0
  0
SPLINE
  5
1c8
100
AcDbEntity
  8
DEFAULT
 62
1
100
AcDbSpline
 70
8
 71
3
 72
8
 73
4
 74
0
 40
0
 40
0
 40
0
 40
0
 40
1
 40
1
 40
1
 40
1
 10
2814.838067
 20
1545.559890
 30
0.0
 10
2816.036176
 20
1548.529626
 30
0.0
 10
2815.464395
 20
1551.920632
 30
0.0
 10
2813.358720
 20
1554.333293
 30
0.0
  0
LWPOLYLINE
  5
1c9
100
AcDbEntity
  8
DEFAULT
 62
1
100
AcDbPolyline
 90
3
 70
0
 10
2132.956560
 20
1435.723053
 30
0.0
 10
3493.586480
 20
1435.723053
 30
0.0
 10
3493.586480
 20
6538.085293
 30
0.0
  0
SPLINE
  5
1ca
100
AcDbEntity
  8
DEFAULT
 62
1
100
AcDbSpline
 70
8
 71
3
 72
8
 73
4
 74
0
 40
0
 40
0
 40
0
 40
0
 40
1
 40
1
 40
1
 40
1
 10
2813.440080
 20
1583.341133
 30
0.0
 10
2816.115877
 20
1586.499537
 30
0.0
 10
2816.128711
 20
1591.125851
 30
0.0
 10
2813.470480
 20
1594.299053
 30
0.0
  0
LWPOLYLINE
  5
1cb
100
AcDbEntity
  8
DEFAULT
 62
1
100
AcDbPolyline
 90
2
 70
0
 10
2813.440080
 20
1583.341133
 30
0.0
 10
2813.358720
 20
1554.333293
 30
0.0
  0
SPLINE
  5
1cc
100
AcDbEntity
  8
DEFAULT
 62
1
100
AcDbSpline
 70
8
 71
3
 72
8
 73
4
 74
0
 40
0
 40
0
 40
0
 40
0
 40
1
 40
1
 40
1
 40
1
 10
2813.356640
 20
1594.432573
 30
0.0
 10
2811.741750
 20
1596.281476
 30
0.0
 10
2809.406655
 20
1597.342320
 30
0.0
 10
2806.951800
 20
1597.342320
 30
0.0
  0
SPLINE
  5
1cd
100
AcDbEntity
  8
DEFAULT
 62
1
100
AcDbSpline
 70
8
 71
3
 72
8
 73
4
 74
0
 40
0
 40
0
 40
0
 40
0
 40
1
 40
1
 40
1
 40
1
 10
2806.951800
 20
1597.342320
 30
0.0
 10
2804.496945
 20
1597.342320
 30
0.0
 10
2802.161850
 20
1596.281476
 30
0.0
 10
2800.546960
 20
1594.432573
 30
0.0
  0
LWPOLYLINE
  5
1ce
100
AcDbEntity
  8
DEFAULT
 62
1
100
AcDbPolyline
 90
2
 70
0
 10
2813.356640
 20
1594.432573
 30
0.0
 10
2813.470800
 20
1594.299053
 30
0.0
  0
LWPOLYLINE
  5
1cf
100
AcDbEntity
  8
DEFAULT
 62
1
100
AcDbPolyline
 90
2
 70
0
 10
2169.081760
 20
2170.233533
 30
0.0
 10
2132.813200
 20
2170.225533
 30
0.0
  0
SPLINE
  5
1d0
100
AcDbEntity
  8
DEFAULT
 62
1
100
AcDbSpline
 70
8
 71
3
 72
8
 73
4
 74
0
 40
0
 40
0
 40
0
 40
0
 40
1
 40
1
 40
1
 40
1
 10
2169.081760
 20
2170.233533
 30
0.0
 10
2170.888601
 20
2167.731904
 30
0.0
 10
2173.908862
 20
2166.405411
 30
0.0
 10
2176.973450
 20
2166.767517
 30
0.0
  0
SPLINE
  5
1d1
100
AcDbEntity
  8
DEFAULT
 62
1
100
AcDbSpline
 70
8
 71
3
 72
8
 73
4
 74
0
 40
0
 40
0
 40
0
 40
0
 40
1
 40
1
 40
1
 40
1
 10
2176.973450
 20
2166.767517
 30
0.0
 10
2180.038039
 20
2167.129624
 30
0.0
 10
2182.665971
 20
2169.123496
 30
0.0
 10
2183.840019
 20
2171.977342
 30
0.0
  0
SPLINE
  5
1d2
100
AcDbEntity
  8
DEFAULT
 62
1
100
AcDbSpline
 70
8
 71
3
 72
8
 73
4
 74
0
 40
0
 40
0
 40
0
 40
0
 40
1
 40
1
 40
1
 40
1
 10
2183.840019
 20
2171.977342
 30
0.0
 10
2185.014067
 20
2174.831188
 30
0.0
 10
2184.549966
 20
2178.097097
 30
0.0
 10
2182.627360
 20
2180.510893
 30
0.0
  0
LWPOLYLINE
  5
1d3
100
AcDbEntity
  8
DEFAULT
 62
1
100
AcDbPolyline
 90
3
 70
0
 10
2132.813200
 20
2170.226413
 30
0.0
 10
2133.156240
 20
1594.432573
 30
0.0
 10
2800.546960
 20
1594.432573
 30
0.0
  0
SPLINE
  5
1d4
100
AcDbEntity
  8
DEFAULT
 62
1
100
AcDbSpline
 70
8
 71
3
 72
8
 73
4
 74
0
 40
0
 40
0
 40
0
 40
0
 40
1
 40
1
 40
1
 40
1
 10
2182.840160
 20
3249.795133
 30
0.0
 10
2186.054185
 20
3253.096683
 30
0.0
 10
2186.054185
 20
3258.357343
 30
0.0
 10
2182.840160
 20
3261.658893
 30
0.0
  0
LWPOLYLINE
  5
1d5
100
AcDbEntity
  8
DEFAULT
 62
1
100
AcDbPolyline
 90
2
 70
0
 10
2182.840160
 20
3249.795133
 30
0.0
 10
2182.627360
 20
2180.510893
 30
0.0
  0
SPLINE
  5
1d6
100
AcDbEntity
  8
DEFAULT
 62
1
100
AcDbSpline
 70
8
 71
3
 72
8
 73
4
 74
0
 40
0
 40
0
 40
0
 40
0
 40
1
 40
1
 40
1
 40
1
 10
2182.542880
 20
3261.952013
 30
0.0
 10
2179.277695
 20
3264.992228
 30
0.0
 10
2174.218145
 20
3264.992228
 30
0.0
 10
2170.952960
 20
3261.952013
 30
0.0
  0
LWPOLYLINE
  5
1d7
100
AcDbEntity
  8
DEFAULT
 62
1
100
AcDbPolyline
 90
3
 70
0
 10
2182.542880
 20
3261.952013
 30
0.0
 10
2182.842560
 20
3261.952013
 30
0.0
 10
2182.842560
 20
3261.658893
 30
0.0
  0
SPLINE
  5
1d8
100
AcDbEntity
  8
DEFAULT
 62
1
100
AcDbSpline
 70
8
 71
3
 72
8
 73
4
 74
0
 40
0
 40
0
 40
0
 40
0
 40
1
 40
1
 40
1
 40
1
 10
2163.063600
 20
3770.586653
 30
0.0
 10
2163.384692
 20
3767.354536
 30
0.0
 10
2165.518824
 20
3764.587603
 30
0.0
 10
2168.563389
 20
3763.456097
 30
0.0
  0
SPLINE
  5
1d9
100
AcDbEntity
  8
DEFAULT
 62
1
100
AcDbSpline
 70
8
 71
3
 72
8
 73
4
 74
0
 40
0
 40
0
 40
0
 40
0
 40
1
 40
1
 40
1
 40
1
 10
2168.563389
 20
3763.456097
 30
0.0
 10
2171.607955
 20
3762.324591
 30
0.0
 10
2175.031146
 20
3763.026156
 30
0.0
 10
2177.385165
 20
3765.264075
 30
0.0
  0
SPLINE
  5
1da
100
AcDbEntity
  8
DEFAULT
 62
1
100
AcDbSpline
 70
8
 71
3
 72
8
 73
4
 74
0
 40
0
 40
0
 40
0
 40
0
 40
1
 40
1
 40
1
 40
1
 10
2177.385165
 20
3765.264075
 30
0.0
 10
2179.739184
 20
3767.501993
 30
0.0
 10
2180.612844
 20
3770.885357
 30
0.0
 10
2179.636640
 20
3773.983213
 30
0.0
  0
LWPOLYLINE
  5
1db
100
AcDbEntity
  8
DEFAULT
 62
1
100
AcDbPolyline
 90
4
 70
0
 10
2163.063600
 20
3770.586653
 30
0.0
 10
2131.844320
 20
3793.198893
 30
0.0
 10
2132.685680
 20
3261.952013
 30
0.0
 10
2170.952960
 20
3261.952013
 30
0.0
  0
SPLINE
  5
1dc
100
AcDbEntity
  8
DEFAULT
 62
1
100
AcDbSpline
 70
8
 71
3
 72
8
 73
4
 74
0
 40
0
 40
0
 40
0
 40
0
 40
1
 40
1
 40
1
 40
1
 10
2590.630880
 20
4339.580413
 30
0.0
 10
2593.065182
 20
4339.807256
 30
0.0
 10
2595.284093
 20
4341.070832
 30
0.0
 10
2596.721293
 20
4343.048644
 30
0.0
  0
SPLINE
  5
1dd
100
AcDbEntity
  8
DEFAULT
 62
1
100
AcDbSpline
 70
8
 71
3
 72
8
 73
4
 74
0
 40
0
 40
0
 40
0
 40
0
 40
1
 40
1
 40
1
 40
1
 10
2596.721293
 20
4343.048644
 30
0.0
 10
2598.158492
 20
4345.026457
 30
0.0
 10
2598.674930
 20
4347.527153
 30
0.0
 10
2598.138800
 20
4349.912493
 30
0.0
  0
LWPOLYLINE
  5
1de
100
AcDbEntity
  8
DEFAULT
 62
1
100
AcDbPolyline
 90
2
 70
0
 10
2590.630880
 20
4339.580413
 30
0.0
 10
2179.636640
 20
3773.983213
 30
0.0
  0
SPLINE
  5
1df
100
AcDbEntity
  8
DEFAULT
 62
1
100
AcDbSpline
 70
8
 71
3
 72
8
 73
4
 74
0
 40
0
 40
0
 40
0
 40
0
 40
1
 40
1
 40
1
 40
1
 10
2598.101840
 20
4350.069693
 30
0.0
 10
2597.114415
 20
4354.103314
 30
0.0
 10
2593.358126
 20
4356.833857
 30
0.0
 10
2589.216640
 20
4356.528573
 30
0.0
  0
LWPOLYLINE
  5
1e0
100
AcDbEntity
  8
DEFAULT
 62
1
100
AcDbPolyline
 90
2
 70
0
 10
2598.101840
 20
4350.069693
 30
0.0
 10
2598.138640
 20
4349.912493
 30
0.0
  0
SPLINE
  5
1e1
100
AcDbEntity
  8
DEFAULT
 62
1
100
AcDbSpline
 70
8
 71
3
 72
8
 73
4
 74
0
 40
0
 40
0
 40
0
 40
0
 40
1
 40
1
 40
1
 40
1
 10
2855.696480
 20
4725.741293
 30
0.0
 10
2855.710236
 20
4722.516797
 30
0.0
 10
2857.546539
 20
4719.577455
 30
0.0
 10
2860.438386
 20
4718.150996
 30
0.0
  0
SPLINE
  5
1e2
100
AcDbEntity
  8
DEFAULT
 62
1
100
AcDbSpline
 70
8
 71
3
 72
8
 73
4
 74
0
 40
0
 40
0
 40
0
 40
0
 40
1
 40
1
 40
1
 40
1
 10
2860.438386
 20
4718.150996
 30
0.0
 10
2863.330233
 20
4716.724537
 30
0.0
 10
2866.780107
 20
4717.056373
 30
0.0
 10
2869.347034
 20
4719.007898
 30
0.0
  0
SPLINE
  5
1e3
100
AcDbEntity
  8
DEFAULT
 62
1
100
AcDbSpline
 70
8
 71
3
 72
8
 73
4
 74
0
 40
0
 40
0
 40
0
 40
0
 40
1
 40
1
 40
1
 40
1
 10
2869.347034
 20
4719.007898
 30
0.0
 10
2871.913961
 20
4720.959423
 30
0.0
 10
2873.156323
 20
4724.194895
 30
0.0
 10
2872.555200
 20
4727.362893
 30
0.0
  0
LWPOLYLINE
  5
1e4
100
AcDbEntity
  8
DEFAULT
 62
1
100
AcDbPolyline
 90
4
 70
0
 10
2855.696480
 20
4725.741293
 30
0.0
 10
2825.714400
 20
4747.543373
 30
0.0
 10
2557.894640
 20
4379.297373
 30
0.0
 10
2589.216640
 20
4356.528573
 30
0.0
  0
SPLINE
  5
1e5
100
AcDbEntity
  8
DEFAULT
 62
1
100
AcDbSpline
 70
8
 71
3
 72
8
 73
4
 74
0
 40
0
 40
0
 40
0
 40
0
 40
1
 40
1
 40
1
 40
1
 10
3285.003600
 20
5294.296893
 30
0.0
 10
3288.026743
 20
5294.706226
 30
0.0
 10
3290.598992
 20
5296.703582
 30
0.0
 10
3291.744390
 20
5299.531128
 30
0.0
  0
SPLINE
  5
1e6
100
AcDbEntity
  8
DEFAULT
 62
1
100
AcDbSpline
 70
8
 71
3
 72
8
 73
4
 74
0
 40
0
 40
0
 40
0
 40
0
 40
1
 40
1
 40
1
 40
1
 10
3291.744390
 20
5299.531128
 30
0.0
 10
3292.889787
 20
5302.358673
 30
0.0
 10
3292.432815
 20
5305.583122
 30
0.0
 10
3290.546857
 20
5307.981061
 30
0.0
  0
SPLINE
  5
1e7
100
AcDbEntity
  8
DEFAULT
 62
1
100
AcDbSpline
 70
8
 71
3
 72
8
 73
4
 74
0
 40
0
 40
0
 40
0
 40
0
 40
1
 40
1
 40
1
 40
1
 10
3290.546857
 20
5307.981061
 30
0.0
 10
3288.660898
 20
5310.379000
 30
0.0
 10
3285.634954
 20
5311.582973
 30
0.0
 10
3282.617120
 20
5311.136173
 30
0.0
  0
LWPOLYLINE
  5
1e8
100
AcDbEntity
  8
DEFAULT
 62
1
100
AcDbPolyline
 90
2
 70
0
 10
3285.003600
 20
5294.296893
 30
0.0
 10
2872.555200
 20
4727.362893
 30
0.0
  0
SPLINE
  5
1e9
100
AcDbEntity
  8
DEFAULT
 62
1
100
AcDbSpline
 70
8
 71
3
 72
8
 73
4
 74
0
 40
0
 40
0
 40
0
 40
0
 40
1
 40
1
 40
1
 40
1
 10
3259.573120
 20
5328.043373
 30
0.0
 10
3258.382833
 20
5331.175151
 30
0.0
 10
3255.464641
 20
5333.316184
 30
0.0
 10
3252.120000
 20
5333.511613
 30
0.0
  0
LWPOLYLINE
  5
1ea
100
AcDbEntity
  8
DEFAULT
 62
1
100
AcDbPolyline
 90
2
 70
0
 10
3259.573120
 20
5328.043373
 30
0.0
 10
3282.617120
 20
5311.136173
 30
0.0
  0
SPLINE
  5
1eb
100
AcDbEntity
  8
DEFAULT
 62
1
100
AcDbSpline
 70
8
 71
3
 72
8
 73
4
 74
0
 40
0
 40
0
 40
0
 40
0
 40
1
 40
1
 40
1
 40
1
 10
3251.549520
 20
5333.525773
 30
0.0
 10
3246.882144
 20
5333.484928
 30
0.0
 10
3243.120006
 20
5329.689728
 30
0.0
 10
3243.120000
 20
5325.022173
 30
0.0
  0
SPLINE
  5
1ec
100
AcDbEntity
  8
DEFAULT
 62
1
100
AcDbSpline
 70
8
 71
3
 72
8
 73
4
 74
0
 40
0
 40
0
 40
0
 40
0
 40
1
 40
1
 40
1
 40
1
 10
3243.120000
 20
5325.022173
 30
0.0
 10
3243.119989
 20
5324.139431
 30
0.0
 10
3243.257422
 20
5323.262070
 30
0.0
 10
3243.527360
 20
5322.421613
 30
0.0
  0
LWPOLYLINE
  5
1ed
100
AcDbEntity
  8
DEFAULT
 62
1
100
AcDbPolyline
 90
3
 70
0
 10
3251.549520
 20
5333.525773
 30
0.0
 10
3251.740480
 20
5333.790093
 30
0.0
 10
3252.120000
 20
5333.511613
 30
0.0
  0
SPLINE
  5
1ee
100
AcDbEntity
  8
DEFAULT
 62
1
100
AcDbSpline
 70
8
 71
3
 72
8
 73
4
 74
0
 40
0
 40
0
 40
0
 40
0
 40
1
 40
1
 40
1
 40
1
 10
3117.154080
 20
5388.753613
 30
0.0
 10
3120.197286
 20
5388.931301
 30
0.0
 10
3122.912588
 20
5390.724299
 30
0.0
 10
3124.271134
 20
5393.453223
 30
0.0
  0
SPLINE
  5
1ef
100
AcDbEntity
  8
DEFAULT
 62
1
100
AcDbSpline
 70
8
 71
3
 72
8
 73
4
 74
0
 40
0
 40
0
 40
0
 40
0
 40
1
 40
1
 40
1
 40
1
 10
3124.271134
 20
5393.453223
 30
0.0
 10
3125.629681
 20
5396.182146
 30
0.0
 10
3125.423623
 20
5399.429491
 30
0.0
 10
3123.731039
 20
5401.964808
 30
0.0
  0
SPLINE
  5
1f0
100
AcDbEntity
  8
DEFAULT
 62
1
100
AcDbSpline
 70
8
 71
3
 72
8
 73
4
 74
0
 40
0
 40
0
 40
0
 40
0
 40
1
 40
1
 40
1
 40
1
 10
3123.731039
 20
5401.964808
 30
0.0
 10
3122.038455
 20
5404.500125
 30
0.0
 10
3119.118297
 20
5405.935529
 30
0.0
 10
3116.077040
 20
5405.727133
 30
0.0
  0
LWPOLYLINE
  5
1f1
100
AcDbEntity
  8
DEFAULT
 62
1
100
AcDbPolyline
 90
4
 70
0
 10
3117.154080
 20
5388.753613
 30
0.0
 10
3095.373760
 20
5358.823373
 30
0.0
 10
3209.630640
 20
5275.502013
 30
0.0
 10
3243.527360
 20
5322.421613
 30
0.0
  0
SPLINE
  5
1f2
100
AcDbEntity
  8
DEFAULT
 62
1
100
AcDbSpline
 70
8
 71
3
 72
8
 73
4
 74
0
 40
0
 40
0
 40
0
 40
0
 40
1
 40
1
 40
1
 40
1
 10
2807.944240
 20
5629.929693
 30
0.0
 10
2806.798640
 20
5633.389819
 30
0.0
 10
2803.575393
 20
5635.735128
 30
0.0
 10
2799.930640
 20
5635.760573
 30
0.0
  0
LWPOLYLINE
  5
1f3
100
AcDbEntity
  8
DEFAULT
 62
1
100
AcDbPolyline
 90
2
 70
0
 10
2807.944240
 20
5629.929693
 30
0.0
 10
3116.077040
 20
5405.727133
 30
0.0
  0
SPLINE
  5
1f4
100
AcDbEntity
  8
DEFAULT
 62
1
100
AcDbSpline
 70
8
 71
3
 72
8
 73
4
 74
0
 40
0
 40
0
 40
0
 40
0
 40
1
 40
1
 40
1
 40
1
 10
2799.070720
 20
5635.722973
 30
0.0
 10
2794.703748
 20
5635.310024
 30
0.0
 10
2791.367365
 20
5631.643266
 30
0.0
 10
2791.367360
 20
5627.256813
 30
0.0
  0
SPLINE
  5
1f5
100
AcDbEntity
  8
DEFAULT
 62
1
100
AcDbSpline
 70
8
 71
3
 72
8
 73
4
 74
0
 40
0
 40
0
 40
0
 40
0
 40
1
 40
1
 40
1
 40
1
 10
2791.367360
 20
5627.256813
 30
0.0
 10
2791.367375
 20
5626.638797
 30
0.0
 10
2791.434759
 20
5626.022624
 30
0.0
 10
2791.568320
 20
5625.419213
 30
0.0
  0
LWPOLYLINE
  5
1f6
100
AcDbEntity
  8
DEFAULT
 62
1
100
AcDbPolyline
 90
3
 70
0
 10
2799.070720
 20
5635.722973
 30
0.0
 10
2799.386400
 20
5636.156573
 30
0.0
 10
2799.930640
 20
5635.760573
 30
0.0
  0
SPLINE
  5
1f7
100
AcDbEntity
  8
DEFAULT
 62
1
100
AcDbSpline
 70
8
 71
3
 72
8
 73
4
 74
0
 40
0
 40
0
 40
0
 40
0
 40
1
 40
1
 40
1
 40
1
 10
2679.740480
 20
5927.980093
 30
0.0
 10
2681.121250
 20
5925.103634
 30
0.0
 10
2683.996001
 20
5923.242131
 30
0.0
 10
2687.185617
 20
5923.159104
 30
0.0
  0
SPLINE
  5
1f8
100
AcDbEntity
  8
DEFAULT
 62
1
100
AcDbSpline
 70
8
 71
3
 72
8
 73
4
 74
0
 40
0
 40
0
 40
0
 40
0
 40
1
 40
1
 40
1
 40
1
 10
2687.185617
 20
5923.159104
 30
0.0
 10
2690.375233
 20
5923.076077
 30
0.0
 10
2693.342937
 20
5924.785498
 30
0.0
 10
2694.871486
 20
5927.586227
 30
0.0
  0
SPLINE
  5
1f9
100
AcDbEntity
  8
DEFAULT
 62
1
100
AcDbSpline
 70
8
 71
3
 72
8
 73
4
 74
0
 40
0
 40
0
 40
0
 40
0
 40
1
 40
1
 40
1
 40
1
 10
2694.871486
 20
5927.586227
 30
0.0
 10
2696.400036
 20
5930.386956
 30
0.0
 10
2696.232193
 20
5933.807660
 30
0.0
 10
2694.436800
 20
5936.445293
 30
0.0
  0
LWPOLYLINE
  5
1fa
100
AcDbEntity
  8
DEFAULT
 62
1
100
AcDbPolyline
 90
5
 70
0
 10
2679.740480
 20
5927.980093
 30
0.0
 10
2644.403280
 20
5927.980093
 30
0.0
 10
2644.403280
 20
5687.691613
 30
0.0
 10
2770.144400
 20
5595.995453
 30
0.0
 10
2791.568320
 20
5625.419213
 30
0.0
  0
SPLINE
  5
1fb
100
AcDbEntity
  8
DEFAULT
 62
1
100
AcDbSpline
 70
8
 71
3
 72
8
 73
4
 74
0
 40
0
 40
0
 40
0
 40
0
 40
1
 40
1
 40
1
 40
1
 10
3123.056000
 20
3263.382333
 30
0.0
 10
3121.223335
 20
3261.767916
 30
0.0
 10
3120.173261
 20
3259.443469
 30
0.0
 10
3120.173280
 20
3257.001133
 30
0.0
  0
SPLINE
  5
1fc
100
AcDbEntity
  8
DEFAULT
 62
1
100
AcDbSpline
 70
8
 71
3
 72
8
 73
4
 74
0
 40
0
 40
0
 40
0
 40
0
 40
1
 40
1
 40
1
 40
1
 10
3120.173280
 20
3257.001133
 30
0.0
 10
3120.173293
 20
3253.614085
 30
0.0
 10
3122.183274
 20
3250.549984
 30
0.0
 10
3125.290054
 20
3249.200905
 30
0.0
  0
SPLINE
  5
1fd
100
AcDbEntity
  8
DEFAULT
 62
1
100
AcDbSpline
 70
8
 71
3
 72
8
 73
4
 74
0
 40
0
 40
0
 40
0
 40
0
 40
1
 40
1
 40
1
 40
1
 10
3125.290054
 20
3249.200905
 30
0.0
 10
3128.396834
 20
3247.851826
 30
0.0
 10
3132.007978
 20
3248.475025
 30
0.0
 10
3134.482880
 20
3250.787373
 30
0.0
  0
LWPOLYLINE
  5
1fe
100
AcDbEntity
  8
DEFAULT
 62
1
100
AcDbPolyline
 90
3
 70
0
 10
3123.056000
 20
3263.382333
 30
0.0
 10
3123.963040
 20
3482.421213
 30
0.0
 10
2964.620320
 20
3482.421213
 30
0.0
  0
LWPOLYLINE
  5
1ff
100
AcDbEntity
  8
DEFAULT
 62
1
100
AcDbPolyline
 90
3
 70
0
 10
3174.171360
 20
2681.473533
 30
0.0
 10
3174.171360
 20
3250.787373
 30
0.0
 10
3134.482880
 20
3250.787373
 30
0.0
  0
SPLINE
  5
200
100
AcDbEntity
  8
DEFAULT
 62
1
100
AcDbSpline
 70
8
 71
3
 72
8
 73
4
 74
0
 40
0
 40
0
 40
0
 40
0
 40
1
 40
1
 40
1
 40
1
 10
3135.416080
 20
2681.473533
 30
0.0
 10
3133.195373
 20
2684.358654
 30
0.0
 10
3129.384401
 20
2685.510027
 30
0.0
 10
3125.937690
 20
2684.337148
 30
0.0
  0
SPLINE
  5
201
100
AcDbEntity
  8
DEFAULT
 62
1
100
AcDbSpline
 70
8
 71
3
 72
8
 73
4
 74
0
 40
0
 40
0
 40
0
 40
0
 40
1
 40
1
 40
1
 40
1
 10
3125.937690
 20
2684.337148
 30
0.0
 10
3122.490978
 20
2683.164270
 30
0.0
 10
3120.173285
 20
2679.927378
 30
0.0
 10
3120.173280
 20
2676.286573
 30
0.0
  0
SPLINE
  5
202
100
AcDbEntity
  8
DEFAULT
 62
1
100
AcDbSpline
 70
8
 71
3
 72
8
 73
4
 74
0
 40
0
 40
0
 40
0
 40
0
 40
1
 40
1
 40
1
 40
1
 10
3120.173280
 20
2676.286573
 30
0.0
 10
3120.173281
 20
2673.846419
 30
0.0
 10
3121.221505
 20
2671.523839
 30
0.0
 10
3123.051360
 20
2669.909533
 30
0.0
  0
LWPOLYLINE
  5
203
100
AcDbEntity
  8
DEFAULT
 62
1
100
AcDbPolyline
 90
2
 70
0
 10
3135.416080
 20
2681.473533
 30
0.0
 10
3174.171360
 20
2681.473533
 30
0.0
  0
SPLINE
  5
204
100
AcDbEntity
  8
DEFAULT
 62
1
100
AcDbSpline
 70
8
 71
3
 72
8
 73
4
 74
0
 40
0
 40
0
 40
0
 40
0
 40
1
 40
1
 40
1
 40
1
 10
2966.408480
 20
2447.701613
 30
0.0
 10
2964.045761
 20
2450.302558
 30
0.0
 10
2960.326646
 20
2451.182462
 30
0.0
 10
2957.048935
 20
2449.915984
 30
0.0
  0
SPLINE
  5
205
100
AcDbEntity
  8
DEFAULT
 62
1
100
AcDbSpline
 70
8
 71
3
 72
8
 73
4
 74
0
 40
0
 40
0
 40
0
 40
0
 40
1
 40
1
 40
1
 40
1
 10
2957.048935
 20
2449.915984
 30
0.0
 10
2953.771224
 20
2448.649506
 30
0.0
 10
2951.610005
 20
2445.497494
 30
0.0
 10
2951.610000
 20
2441.983613
 30
0.0
  0
SPLINE
  5
206
100
AcDbEntity
  8
DEFAULT
 62
1
100
AcDbSpline
 70
8
 71
3
 72
8
 73
4
 74
0
 40
0
 40
0
 40
0
 40
0
 40
1
 40
1
 40
1
 40
1
 10
2951.610000
 20
2441.983613
 30
0.0
 10
2951.609991
 20
2439.539877
 30
0.0
 10
2952.661275
 20
2437.214242
 30
0.0
 10
2954.495760
 20
2435.599773
 30
0.0
  0
LWPOLYLINE
  5
207
100
AcDbEntity
  8
DEFAULT
 62
1
100
AcDbPolyline
 90
3
 70
0
 10
2966.408480
 20
2447.701613
 30
0.0
 10
3123.963040
 20
2447.701613
 30
0.0
 10
3123.051360
 20
2669.909533
 30
0.0
  0
SPLINE
  5
208
100
AcDbEntity
  8
DEFAULT
 62
1
100
AcDbSpline
 70
8
 71
3
 72
8
 73
4
 74
0
 40
0
 40
0
 40
0
 40
0
 40
1
 40
1
 40
1
 40
1
 10
2687.935440
 20
2434.674893
 30
0.0
 10
2690.806735
 20
2436.382705
 30
0.0
 10
2692.412077
 20
2439.613507
 30
0.0
 10
2692.038984
 20
2442.933411
 30
0.0
  0
SPLINE
  5
209
100
AcDbEntity
  8
DEFAULT
 62
1
100
AcDbSpline
 70
8
 71
3
 72
8
 73
4
 74
0
 40
0
 40
0
 40
0
 40
0
 40
1
 40
1
 40
1
 40
1
 10
2692.038984
 20
2442.933411
 30
0.0
 10
2691.665892
 20
2446.253314
 30
0.0
 10
2689.383491
 20
2449.047210
 30
0.0
 10
2686.204755
 20
2450.075116
 30
0.0
  0
SPLINE
  5
20a
100
AcDbEntity
  8
DEFAULT
 62
1
100
AcDbSpline
 70
8
 71
3
 72
8
 73
4
 74
0
 40
0
 40
0
 40
0
 40
0
 40
1
 40
1
 40
1
 40
1
 10
2686.204755
 20
2450.075116
 30
0.0
 10
2683.026018
 20
2451.103021
 30
0.0
 10
2679.539898
 20
2450.174487
 30
0.0
 10
2677.293600
 20
2447.701613
 30
0.0
  0
LWPOLYLINE
  5
20b
100
AcDbEntity
  8
DEFAULT
 62
1
100
AcDbPolyline
 90
4
 70
0
 10
2687.935440
 20
2434.674893
 30
0.0
 10
2687.935440
 20
2396.534173
 30
0.0
 10
2954.495760
 20
2396.534173
 30
0.0
 10
2954.495760
 20
2435.599773
 30
0.0
  0
SPLINE
  5
20c
100
AcDbEntity
  8
DEFAULT
 62
1
100
AcDbSpline
 70
8
 71
3
 72
8
 73
4
 74
0
 40
0
 40
0
 40
0
 40
0
 40
1
 40
1
 40
1
 40
1
 10
2481.616240
 20
2682.355213
 30
0.0
 10
2483.509028
 20
2679.724581
 30
0.0
 10
2486.732477
 20
2678.398464
 30
0.0
 10
2489.928470
 20
2678.935586
 30
0.0
  0
SPLINE
  5
20d
100
AcDbEntity
  8
DEFAULT
 62
1
100
AcDbSpline
 70
8
 71
3
 72
8
 73
4
 74
0
 40
0
 40
0
 40
0
 40
0
 40
1
 40
1
 40
1
 40
1
 10
2489.928470
 20
2678.935586
 30
0.0
 10
2493.124462
 20
2679.472708
 30
0.0
 10
2495.737329
 20
2681.779685
 30
0.0
 10
2496.666206
 20
2684.884529
 30
0.0
  0
SPLINE
  5
20e
100
AcDbEntity
  8
DEFAULT
 62
1
100
AcDbSpline
 70
8
 71
3
 72
8
 73
4
 74
0
 40
0
 40
0
 40
0
 40
0
 40
1
 40
1
 40
1
 40
1
 10
2496.666206
 20
2684.884529
 30
0.0
 10
2497.595082
 20
2687.989373
 30
0.0
 10
2496.678470
 20
2691.352264
 30
0.0
 10
2494.302560
 20
2693.556333
 30
0.0
  0
LWPOLYLINE
  5
20f
100
AcDbEntity
  8
DEFAULT
 62
1
100
AcDbPolyline
 90
4
 70
0
 10
2481.616240
 20
2682.355213
 30
0.0
 10
2451.030320
 20
2682.355213
 30
0.0
 10
2450.396080
 20
2447.701613
 30
0.0
 10
2677.293600
 20
2447.701613
 30
0.0
  0
SPLINE
  5
210
100
AcDbEntity
  8
DEFAULT
 62
1
100
AcDbSpline
 70
8
 71
3
 72
8
 73
4
 74
0
 40
0
 40
0
 40
0
 40
0
 40
1
 40
1
 40
1
 40
1
 10
2494.302560
 20
3238.060253
 30
0.0
 10
2496.037060
 20
3239.669426
 30
0.0
 10
2497.022753
 20
3241.928459
 30
0.0
 10
2497.022753
 20
3244.294453
 30
0.0
  0
SPLINE
  5
211
100
AcDbEntity
  8
DEFAULT
 62
1
100
AcDbSpline
 70
8
 71
3
 72
8
 73
4
 74
0
 40
0
 40
0
 40
0
 40
0
 40
1
 40
1
 40
1
 40
1
 10
2497.022753
 20
3244.294453
 30
0.0
 10
2497.022753
 20
3246.660447
 30
0.0
 10
2496.037060
 20
3248.919481
 30
0.0
 10
2494.302560
 20
3250.528653
 30
0.0
  0
LWPOLYLINE
  5
212
100
AcDbEntity
  8
DEFAULT
 62
1
100
AcDbPolyline
 90
6
 70
0
 10
2494.302560
 20
3238.060253
 30
0.0
 10
2494.302560
 20
3051.087373
 30
0.0
 10
3117.806800
 20
3051.087373
 30
0.0
 10
3117.806800
 20
2880.529213
 30
0.0
 10
2494.302560
 20
2880.529213
 30
0.0
 10
2494.302560
 20
2693.556333
 30
0.0
  0
SPLINE
  5
213
100
AcDbEntity
  8
DEFAULT
 62
1
100
AcDbSpline
 70
8
 71
3
 72
8
 73
4
 74
0
 40
0
 40
0
 40
0
 40
0
 40
1
 40
1
 40
1
 40
1
 10
2493.003360
 20
3251.519853
 30
0.0
 10
2490.256697
 20
3253.224604
 30
0.0
 10
2486.780983
 20
3253.224604
 30
0.0
 10
2484.034320
 20
3251.519853
 30
0.0
  0
LWPOLYLINE
  5
214
100
AcDbEntity
  8
DEFAULT
 62
1
100
AcDbPolyline
 90
3
 70
0
 10
2493.003360
 20
3251.519853
 30
0.0
 10
2494.302560
 20
3251.519853
 30
0.0
 10
2494.302560
 20
3250.528653
 30
0.0
  0
SPLINE
  5
215
100
AcDbEntity
  8
DEFAULT
 62
1
100
AcDbSpline
 70
8
 71
3
 72
8
 73
4
 74
0
 40
0
 40
0
 40
0
 40
0
 40
1
 40
1
 40
1
 40
1
 10
2679.069600
 20
3482.428813
 30
0.0
 10
2681.663657
 20
3480.801417
 30
0.0
 10
2684.932366
 20
3480.694406
 30
0.0
 10
2687.627310
 20
3482.148652
 30
0.0
  0
SPLINE
  5
216
100
AcDbEntity
  8
DEFAULT
 62
1
100
AcDbSpline
 70
8
 71
3
 72
8
 73
4
 74
0
 40
0
 40
0
 40
0
 40
0
 40
1
 40
1
 40
1
 40
1
 10
2687.627310
 20
3482.148652
 30
0.0
 10
2690.322254
 20
3483.602899
 30
0.0
 10
2692.027195
 20
3486.393792
 30
0.0
 10
2692.090967
 20
3489.455407
 30
0.0
  0
SPLINE
  5
217
100
AcDbEntity
  8
DEFAULT
 62
1
100
AcDbSpline
 70
8
 71
3
 72
8
 73
4
 74
0
 40
0
 40
0
 40
0
 40
0
 40
1
 40
1
 40
1
 40
1
 10
2692.090967
 20
3489.455407
 30
0.0
 10
2692.154738
 20
3492.517022
 30
0.0
 10
2690.567490
 20
3495.376489
 30
0.0
 10
2687.935440
 20
3496.941693
 30
0.0
  0
LWPOLYLINE
  5
218
100
AcDbEntity
  8
DEFAULT
 62
1
100
AcDbPolyline
 90
4
 70
0
 10
2679.069600
 20
3482.428813
 30
0.0
 10
2450.396080
 20
3482.625293
 30
0.0
 10
2451.030320
 20
3251.519853
 30
0.0
 10
2484.034320
 20
3251.519853
 30
0.0
  0
SPLINE
  5
219
100
AcDbEntity
  8
DEFAULT
 62
1
100
AcDbSpline
 70
8
 71
3
 72
8
 73
4
 74
0
 40
0
 40
0
 40
0
 40
0
 40
1
 40
1
 40
1
 40
1
 10
2954.495760
 20
3496.016813
 30
0.0
 10
2952.661275
 20
3494.402344
 30
0.0
 10
2951.609991
 20
3492.076709
 30
0.0
 10
2951.610000
 20
3489.632973
 30
0.0
  0
SPLINE
  5
21a
100
AcDbEntity
  8
DEFAULT
 62
1
100
AcDbSpline
 70
8
 71
3
 72
8
 73
4
 74
0
 40
0
 40
0
 40
0
 40
0
 40
1
 40
1
 40
1
 40
1
 10
2951.610000
 20
3489.632973
 30
0.0
 10
2951.609991
 20
3487.189237
 30
0.0
 10
2952.661275
 20
3484.863602
 30
0.0
 10
2954.495760
 20
3483.249133
 30
0.0
  0
LWPOLYLINE
  5
21b
100
AcDbEntity
  8
DEFAULT
 62
1
100
AcDbPolyline
 90
4
 70
0
 10
2954.495760
 20
3496.016813
 30
0.0
 10
2954.495760
 20
3533.588653
 30
0.0
 10
2687.935440
 20
3533.588653
 30
0.0
 10
2687.935440
 20
3496.941693
 30
0.0
  0
SPLINE
  5
21c
100
AcDbEntity
  8
DEFAULT
 62
1
100
AcDbSpline
 70
8
 71
3
 72
8
 73
4
 74
0
 40
0
 40
0
 40
0
 40
0
 40
1
 40
1
 40
1
 40
1
 10
2955.607520
 20
3482.421213
 30
0.0
 10
2958.364767
 20
3480.698294
 30
0.0
 10
2961.863073
 20
3480.698294
 30
0.0
 10
2964.620320
 20
3482.421213
 30
0.0
  0
LWPOLYLINE
  5
21d
100
AcDbEntity
  8
DEFAULT
 62
1
100
AcDbPolyline
 90
3
 70
0
 10
2955.607520
 20
3482.421213
 30
0.0
 10
2954.495760
 20
3482.421213
 30
0.0
 10
2954.495760
 20
3483.249133
 30
0.0
  0
SPLINE
  5
21e
100
AcDbEntity
  8
DEFAULT
 62
1
100
AcDbSpline
 70
8
 71
3
 72
8
 73
4
 74
0
 40
0
 40
0
 40
0
 40
0
 40
1
 40
1
 40
1
 40
1
 10
510.437888
 20
1536.048093
 30
0.0
 10
511.922703
 20
1537.625585
 30
0.0
 10
512.749492
 20
1539.710284
 30
0.0
 10
512.749488
 20
1541.876653
 30
0.0
  0
SPLINE
  5
21f
100
AcDbEntity
  8
DEFAULT
 62
1
100
AcDbSpline
 70
8
 71
3
 72
8
 73
4
 74
0
 40
0
 40
0
 40
0
 40
0
 40
1
 40
1
 40
1
 40
1
 10
512.749488
 20
1541.876653
 30
0.0
 10
512.749483
 20
1545.496667
 30
0.0
 10
510.457769
 20
1548.719872
 30
0.0
 10
507.038575
 20
1549.908825
 30
0.0
  0
SPLINE
  5
220
100
AcDbEntity
  8
DEFAULT
 62
1
100
AcDbSpline
 70
8
 71
3
 72
8
 73
4
 74
0
 40
0
 40
0
 40
0
 40
0
 40
1
 40
1
 40
1
 40
1
 10
507.038575
 20
1549.908825
 30
0.0
 10
503.619380
 20
1551.097779
 30
0.0
 10
499.822292
 20
1549.991827
 30
0.0
 10
497.576296
 20
1547.152813
 30
0.0
  0
LWPOLYLINE
  5
221
100
AcDbEntity
  8
DEFAULT
 62
1
100
AcDbPolyline
 90
4
 70
0
 10
510.437888
 20
1536.048093
 30
0.0
 10
510.437888
 20
1454.785053
 30
0.0
 10
1542.248960
 20
1454.785053
 30
0.0
 10
1542.248960
 20
1536.041133
 30
0.0
  0
SPLINE
  5
222
100
AcDbEntity
  8
DEFAULT
 62
1
100
AcDbSpline
 70
8
 71
3
 72
8
 73
4
 74
0
 40
0
 40
0
 40
0
 40
0
 40
1
 40
1
 40
1
 40
1
 10
472.376960
 20
1547.152813
 30
0.0
 10
470.449016
 20
1549.590009
 30
0.0
 10
467.345193
 20
1550.781515
 30
0.0
 10
464.281632
 20
1550.260473
 30
0.0
  0
SPLINE
  5
223
100
AcDbEntity
  8
DEFAULT
 62
1
100
AcDbSpline
 70
8
 71
3
 72
8
 73
4
 74
0
 40
0
 40
0
 40
0
 40
0
 40
1
 40
1
 40
1
 40
1
 10
464.281632
 20
1550.260473
 30
0.0
 10
461.218070
 20
1549.739431
 30
0.0
 10
458.682665
 20
1547.588821
 30
0.0
 10
457.668838
 20
1544.651297
 30
0.0
  0
SPLINE
  5
224
100
AcDbEntity
  8
DEFAULT
 62
1
100
AcDbSpline
 70
8
 71
3
 72
8
 73
4
 74
0
 40
0
 40
0
 40
0
 40
0
 40
1
 40
1
 40
1
 40
1
 10
457.668838
 20
1544.651297
 30
0.0
 10
456.655012
 20
1541.713773
 30
0.0
 10
457.324225
 20
1538.457155
 30
0.0
 10
459.414264
 20
1536.157453
 30
0.0
  0
LWPOLYLINE
  5
225
100
AcDbEntity
  8
DEFAULT
 62
1
100
AcDbPolyline
 90
2
 70
0
 10
472.376960
 20
1547.152813
 30
0.0
 10
497.576296
 20
1547.152813
 30
0.0
  0
LWPOLYLINE
  5
226
100
AcDbEntity
  8
DEFAULT
 62
1
100
AcDbPolyline
 90
4
 70
0
 10
375.279416
 20
1688.843053
 30
0.0
 10
375.279416
 20
1404.905533
 30
0.0
 10
459.414264
 20
1404.905533
 30
0.0
 10
459.414264
 20
1536.157453
 30
0.0
  0
SPLINE
  5
227
100
AcDbEntity
  8
DEFAULT
 62
1
100
AcDbSpline
 70
8
 71
3
 72
8
 73
4
 74
0
 40
0
 40
0
 40
0
 40
0
 40
1
 40
1
 40
1
 40
1
 10
1593.272560
 20
1536.164653
 30
0.0
 10
1594.690887
 20
1537.728994
 30
0.0
 10
1595.476485
 20
1539.765063
 30
0.0
 10
1595.476480
 20
1541.876653
 30
0.0
  0
SPLINE
  5
228
100
AcDbEntity
  8
DEFAULT
 62
1
100
AcDbSpline
 70
8
 71
3
 72
8
 73
4
 74
0
 40
0
 40
0
 40
0
 40
0
 40
1
 40
1
 40
1
 40
1
 10
1595.476480
 20
1541.876653
 30
0.0
 10
1595.476480
 20
1545.496671
 30
0.0
 10
1593.184764
 20
1548.719882
 30
0.0
 10
1589.765565
 20
1549.908836
 30
0.0
  0
SPLINE
  5
229
100
AcDbEntity
  8
DEFAULT
 62
1
100
AcDbSpline
 70
8
 71
3
 72
8
 73
4
 74
0
 40
0
 40
0
 40
0
 40
0
 40
1
 40
1
 40
1
 40
1
 10
1589.765565
 20
1549.908836
 30
0.0
 10
1586.346367
 20
1551.097790
 30
0.0
 10
1582.549275
 20
1549.991834
 30
0.0
 10
1580.303280
 20
1547.152813
 30
0.0
  0
LWPOLYLINE
  5
22a
100
AcDbEntity
  8
DEFAULT
 62
1
100
AcDbPolyline
 90
5
 70
0
 10
1593.272560
 20
1536.164653
 30
0.0
 10
1593.272560
 20
1404.905533
 30
0.0
 10
1679.216480
 20
1404.905533
 30
0.0
 10
1679.216480
 20
1688.843053
 30
0.0
 10
375.279416
 20
1688.843053
 30
0.0
  0
SPLINE
  5
22b
100
AcDbEntity
  8
DEFAULT
 62
1
100
AcDbSpline
 70
8
 71
3
 72
8
 73
4
 74
0
 40
0
 40
0
 40
0
 40
0
 40
1
 40
1
 40
1
 40
1
 10
1555.104000
 20
1547.152813
 30
0.0
 10
1553.164239
 20
1549.604670
 30
0.0
 10
1550.035550
 20
1550.794452
 30
0.0
 10
1546.956752
 20
1550.251058
 30
0.0
  0
SPLINE
  5
22c
100
AcDbEntity
  8
DEFAULT
 62
1
100
AcDbSpline
 70
8
 71
3
 72
8
 73
4
 74
0
 40
0
 40
0
 40
0
 40
0
 40
1
 40
1
 40
1
 40
1
 10
1546.956752
 20
1550.251058
 30
0.0
 10
1543.877954
 20
1549.707664
 30
0.0
 10
1541.345592
 20
1547.518733
 30
0.0
 10
1540.362367
 20
1544.550983
 30
0.0
  0
SPLINE
  5
22d
100
AcDbEntity
  8
DEFAULT
 62
1
100
AcDbSpline
 70
8
 71
3
 72
8
 73
4
 74
0
 40
0
 40
0
 40
0
 40
0
 40
1
 40
1
 40
1
 40
1
 10
1540.362367
 20
1544.550983
 30
0.0
 10
1539.379142
 20
1541.583232
 30
0.0
 10
1540.103628
 20
1538.315298
 30
0.0
 10
1542.248960
 20
1536.041133
 30
0.0
  0
LWPOLYLINE
  5
22e
100
AcDbEntity
  8
DEFAULT
 62
1
100
AcDbPolyline
 90
2
 70
0
 10
1555.104000
 20
1547.152813
 30
0.0
 10
1580.303280
 20
1547.152813
 30
0.0
  0
SPLINE
  5
22f
100
AcDbEntity
  8
DEFAULT
 62
1
100
AcDbSpline
 70
8
 71
3
 72
8
 73
4
 74
0
 40
0
 40
0
 40
0
 40
0
 40
1
 40
1
 40
1
 40
1
 10
2825.175760
 20
1024.561997
 30
0.0
 10
2823.165525
 20
1026.926475
 30
0.0
 10
2820.026840
 20
1028.008076
 30
0.0
 10
2816.986727
 20
1027.383965
 30
0.0
  0
SPLINE
  5
230
100
AcDbEntity
  8
DEFAULT
 62
1
100
AcDbSpline
 70
8
 71
3
 72
8
 73
4
 74
0
 40
0
 40
0
 40
0
 40
0
 40
1
 40
1
 40
1
 40
1
 10
2816.986727
 20
1027.383965
 30
0.0
 10
2813.946615
 20
1026.759853
 30
0.0
 10
2811.487920
 20
1024.529152
 30
0.0
 10
2810.571833
 20
1021.563923
 30
0.0
  0
SPLINE
  5
231
100
AcDbEntity
  8
DEFAULT
 62
1
100
AcDbSpline
 70
8
 71
3
 72
8
 73
4
 74
0
 40
0
 40
0
 40
0
 40
0
 40
1
 40
1
 40
1
 40
1
 10
2810.571833
 20
1021.563923
 30
0.0
 10
2809.655746
 20
1018.598693
 30
0.0
 10
2810.427765
 20
1015.369887
 30
0.0
 10
2812.586080
 20
1013.139757
 30
0.0
  0
LWPOLYLINE
  5
232
100
AcDbEntity
  8
DEFAULT
 62
1
100
AcDbPolyline
 90
2
 70
0
 10
2825.175760
 20
1024.561997
 30
0.0
 10
2849.110240
 20
1024.561997
 30
0.0
  0
SPLINE
  5
233
100
AcDbEntity
  8
DEFAULT
 62
1
100
AcDbSpline
 70
8
 71
3
 72
8
 73
4
 74
0
 40
0
 40
0
 40
0
 40
0
 40
1
 40
1
 40
1
 40
1
 10
2812.586080
 20
468.764317
 30
0.0
 10
2810.316002
 20
466.597934
 30
0.0
 10
2809.423402
 20
463.357484
 30
0.0
 10
2810.263973
 20
460.334256
 30
0.0
  0
SPLINE
  5
234
100
AcDbEntity
  8
DEFAULT
 62
1
100
AcDbSpline
 70
8
 71
3
 72
8
 73
4
 74
0
 40
0
 40
0
 40
0
 40
0
 40
1
 40
1
 40
1
 40
1
 10
2810.263973
 20
460.334256
 30
0.0
 10
2811.104544
 20
457.311028
 30
0.0
 10
2813.541673
 20
454.996367
 30
0.0
 10
2816.604187
 20
454.312644
 30
0.0
  0
SPLINE
  5
235
100
AcDbEntity
  8
DEFAULT
 62
1
100
AcDbSpline
 70
8
 71
3
 72
8
 73
4
 74
0
 40
0
 40
0
 40
0
 40
0
 40
1
 40
1
 40
1
 40
1
 10
2816.604187
 20
454.312644
 30
0.0
 10
2819.666701
 20
453.628922
 30
0.0
 10
2822.856869
 20
454.687259
 30
0.0
 10
2824.903440
 20
457.065917
 30
0.0
  0
LWPOLYLINE
  5
236
100
AcDbEntity
  8
DEFAULT
 62
1
100
AcDbPolyline
 90
2
 70
0
 10
2812.586080
 20
468.764317
 30
0.0
 10
2812.586080
 20
1013.139757
 30
0.0
  0
SPLINE
  5
237
100
AcDbEntity
  8
DEFAULT
 62
1
100
AcDbSpline
 70
8
 71
3
 72
8
 73
4
 74
0
 40
0
 40
0
 40
0
 40
0
 40
1
 40
1
 40
1
 40
1
 10
2848.874000
 20
457.065917
 30
0.0
 10
2850.678451
 20
454.583274
 30
0.0
 10
2853.680642
 20
453.265557
 30
0.0
 10
2856.729467
 20
453.618007
 30
0.0
  0
SPLINE
  5
238
100
AcDbEntity
  8
DEFAULT
 62
1
100
AcDbSpline
 70
8
 71
3
 72
8
 73
4
 74
0
 40
0
 40
0
 40
0
 40
0
 40
1
 40
1
 40
1
 40
1
 10
2856.729467
 20
453.618007
 30
0.0
 10
2859.778293
 20
453.970457
 30
0.0
 10
2862.400657
 20
455.938383
 30
0.0
 10
2863.591089
 20
458.767240
 30
0.0
  0
SPLINE
  5
239
100
AcDbEntity
  8
DEFAULT
 62
1
100
AcDbSpline
 70
8
 71
3
 72
8
 73
4
 74
0
 40
0
 40
0
 40
0
 40
0
 40
1
 40
1
 40
1
 40
1
 10
2863.591089
 20
458.767240
 30
0.0
 10
2864.781521
 20
461.596097
 30
0.0
 10
2864.355296
 20
464.846921
 30
0.0
 10
2862.475840
 20
467.273277
 30
0.0
  0
LWPOLYLINE
  5
23a
100
AcDbEntity
  8
DEFAULT
 62
1
100
AcDbPolyline
 90
2
 70
0
 10
2848.874000
 20
457.065917
 30
0.0
 10
2824.903440
 20
457.065917
 30
0.0
  0
SPLINE
  5
23b
100
AcDbEntity
  8
DEFAULT
 62
1
100
AcDbSpline
 70
8
 71
3
 72
8
 73
4
 74
0
 40
0
 40
0
 40
0
 40
0
 40
1
 40
1
 40
1
 40
1
 10
2862.475840
 20
1014.064077
 30
0.0
 10
2864.492574
 20
1016.439016
 30
0.0
 10
2865.049069
 20
1019.726687
 30
0.0
 10
2863.926283
 20
1022.633043
 30
0.0
  0
SPLINE
  5
23c
100
AcDbEntity
  8
DEFAULT
 62
1
100
AcDbSpline
 70
8
 71
3
 72
8
 73
4
 74
0
 40
0
 40
0
 40
0
 40
0
 40
1
 40
1
 40
1
 40
1
 10
2863.926283
 20
1022.633043
 30
0.0
 10
2862.803498
 20
1025.539398
 30
0.0
 10
2860.181224
 20
1027.599046
 30
0.0
 10
2857.091605
 20
1028.001294
 30
0.0
  0
SPLINE
  5
23d
100
AcDbEntity
  8
DEFAULT
 62
1
100
AcDbSpline
 70
8
 71
3
 72
8
 73
4
 74
0
 40
0
 40
0
 40
0
 40
0
 40
1
 40
1
 40
1
 40
1
 10
2857.091605
 20
1028.001294
 30
0.0
 10
2854.001986
 20
1028.403543
 30
0.0
 10
2850.939761
 20
1027.083981
 30
0.0
 10
2849.110240
 20
1024.561997
 30
0.0
  0
LWPOLYLINE
  5
23e
100
AcDbEntity
  8
DEFAULT
 62
1
100
AcDbPolyline
 90
2
 70
0
 10
2862.475840
 20
1014.064077
 30
0.0
 10
2862.475840
 20
467.273277
 30
0.0
  0
SPLINE
  5
23f
100
AcDbEntity
  8
DEFAULT
 62
1
100
AcDbSpline
 70
8
 71
3
 72
8
 73
4
 74
0
 40
0
 40
0
 40
0
 40
0
 40
1
 40
1
 40
1
 40
1
 10
3002.764080
 20
1296.733613
 30
0.0
 10
3005.060832
 20
1298.983944
 30
0.0
 10
3005.891933
 20
1302.337266
 30
0.0
 10
3004.911925
 20
1305.399724
 30
0.0
  0
SPLINE
  5
240
100
AcDbEntity
  8
DEFAULT
 62
1
100
AcDbSpline
 70
8
 71
3
 72
8
 73
4
 74
0
 40
0
 40
0
 40
0
 40
0
 40
1
 40
1
 40
1
 40
1
 10
3004.911925
 20
1305.399724
 30
0.0
 10
3003.931916
 20
1308.462181
 30
0.0
 10
3001.308408
 20
1310.710003
 30
0.0
 10
2998.131898
 20
1311.208850
 30
0.0
  0
SPLINE
  5
241
100
AcDbEntity
  8
DEFAULT
 62
1
100
AcDbSpline
 70
8
 71
3
 72
8
 73
4
 74
0
 40
0
 40
0
 40
0
 40
0
 40
1
 40
1
 40
1
 40
1
 10
2998.131898
 20
1311.208850
 30
0.0
 10
2994.955389
 20
1311.707698
 30
0.0
 10
2991.769155
 20
1310.372253
 30
0.0
 10
2989.897600
 20
1307.757613
 30
0.0
  0
LWPOLYLINE
  5
242
100
AcDbEntity
  8
DEFAULT
 62
1
100
AcDbPolyline
 90
2
 70
0
 10
3002.764080
 20
1296.733613
 30
0.0
 10
3002.764080
 20
1269.524173
 30
0.0
  0
SPLINE
  5
243
100
AcDbEntity
  8
DEFAULT
 62
1
100
AcDbSpline
 70
8
 71
3
 72
8
 73
4
 74
0
 40
0
 40
0
 40
0
 40
0
 40
1
 40
1
 40
1
 40
1
 10
3392.011840
 20
1024.522957
 30
0.0
 10
3389.951156
 20
1026.976334
 30
0.0
 10
3386.686445
 20
1028.063251
 30
0.0
 10
3383.566402
 20
1027.334690
 30
0.0
  0
SPLINE
  5
244
100
AcDbEntity
  8
DEFAULT
 62
1
100
AcDbSpline
 70
8
 71
3
 72
8
 73
4
 74
0
 40
0
 40
0
 40
0
 40
0
 40
1
 40
1
 40
1
 40
1
 10
3383.566402
 20
1027.334690
 30
0.0
 10
3380.446358
 20
1026.606129
 30
0.0
 10
3378.000632
 20
1024.185768
 30
0.0
 10
3377.239584
 20
1021.073489
 30
0.0
  0
SPLINE
  5
245
100
AcDbEntity
  8
DEFAULT
 62
1
100
AcDbSpline
 70
8
 71
3
 72
8
 73
4
 74
0
 40
0
 40
0
 40
0
 40
0
 40
1
 40
1
 40
1
 40
1
 10
3377.239584
 20
1021.073489
 30
0.0
 10
3376.478536
 20
1017.961210
 30
0.0
 10
3377.531360
 20
1014.685345
 30
0.0
 10
3379.963120
 20
1012.599197
 30
0.0
  0
LWPOLYLINE
  5
246
100
AcDbEntity
  8
DEFAULT
 62
1
100
AcDbPolyline
 90
6
 70
0
 10
3392.011840
 20
1024.522957
 30
0.0
 10
3429.739520
 20
1024.522957
 30
0.0
 10
3429.383280
 20
1392.762973
 30
0.0
 10
2578.989600
 20
1392.762973
 30
0.0
 10
2578.989600
 20
1307.757613
 30
0.0
 10
2989.897600
 20
1307.757613
 30
0.0
  0
SPLINE
  5
247
100
AcDbEntity
  8
DEFAULT
 62
1
100
AcDbSpline
 70
8
 71
3
 72
8
 73
4
 74
0
 40
0
 40
0
 40
0
 40
0
 40
1
 40
1
 40
1
 40
1
 10
3379.728560
 20
468.582557
 30
0.0
 10
3377.275940
 20
466.482274
 30
0.0
 10
3376.224422
 20
463.174126
 30
0.0
 10
3377.014265
 20
460.043203
 30
0.0
  0
SPLINE
  5
248
100
AcDbEntity
  8
DEFAULT
 62
1
100
AcDbSpline
 70
8
 71
3
 72
8
 73
4
 74
0
 40
0
 40
0
 40
0
 40
0
 40
1
 40
1
 40
1
 40
1
 10
3377.014265
 20
460.043203
 30
0.0
 10
3377.804108
 20
456.912279
 30
0.0
 10
3380.299031
 20
454.498798
 30
0.0
 10
3383.454434
 20
453.813260
 30
0.0
  0
SPLINE
  5
249
100
AcDbEntity
  8
DEFAULT
 62
1
100
AcDbSpline
 70
8
 71
3
 72
8
 73
4
 74
0
 40
0
 40
0
 40
0
 40
0
 40
1
 40
1
 40
1
 40
1
 10
3383.454434
 20
453.813260
 30
0.0
 10
3386.609837
 20
453.127721
 30
0.0
 10
3389.881279
 20
454.288410
 30
0.0
 10
3391.899040
 20
456.809357
 30
0.0
  0
LWPOLYLINE
  5
24a
100
AcDbEntity
  8
DEFAULT
 62
1
100
AcDbPolyline
 90
2
 70
0
 10
3379.728560
 20
468.582557
 30
0.0
 10
3379.963120
 20
1012.599197
 30
0.0
  0
LWPOLYLINE
  5
24b
100
AcDbEntity
  8
DEFAULT
 62
1
100
AcDbPolyline
 90
4
 70
0
 10
2578.989600
 20
88.825917
 30
0.0
 10
3429.383280
 20
88.825917
 30
0.0
 10
3429.383280
 20
456.809357
 30
0.0
 10
3391.899040
 20
456.809357
 30
0.0
  0
SPLINE
  5
24c
100
AcDbEntity
  8
DEFAULT
 62
1
100
AcDbSpline
 70
8
 71
3
 72
8
 73
4
 74
0
 40
0
 40
0
 40
0
 40
0
 40
1
 40
1
 40
1
 40
1
 10
2989.335040
 20
173.865357
 30
0.0
 10
2991.125595
 20
171.277548
 30
0.0
 10
2994.198856
 20
169.890095
 30
0.0
 10
2997.324080
 20
170.258627
 30
0.0
  0
SPLINE
  5
24d
100
AcDbEntity
  8
DEFAULT
 62
1
100
AcDbSpline
 70
8
 71
3
 72
8
 73
4
 74
0
 40
0
 40
0
 40
0
 40
0
 40
1
 40
1
 40
1
 40
1
 10
2997.324080
 20
170.258627
 30
0.0
 10
3000.449305
 20
170.627159
 30
0.0
 10
3003.115532
 20
172.691423
 30
0.0
 10
3004.255026
 20
175.624749
 30
0.0
  0
SPLINE
  5
24e
100
AcDbEntity
  8
DEFAULT
 62
1
100
AcDbSpline
 70
8
 71
3
 72
8
 73
4
 74
0
 40
0
 40
0
 40
0
 40
0
 40
1
 40
1
 40
1
 40
1
 10
3004.255026
 20
175.624749
 30
0.0
 10
3005.394519
 20
178.558074
 30
0.0
 10
3004.820975
 20
181.880875
 30
0.0
 10
3002.764080
 20
184.262477
 30
0.0
  0
LWPOLYLINE
  5
24f
100
AcDbEntity
  8
DEFAULT
 62
1
100
AcDbPolyline
 90
3
 70
0
 10
2989.335040
 20
173.865357
 30
0.0
 10
2578.989600
 20
173.865357
 30
0.0
 10
2578.989600
 20
88.825917
 30
0.0
  0
SPLINE
  5
250
100
AcDbEntity
  8
DEFAULT
 62
1
100
AcDbSpline
 70
8
 71
3
 72
8
 73
4
 74
0
 40
0
 40
0
 40
0
 40
0
 40
1
 40
1
 40
1
 40
1
 10
3002.764080
 20
212.465277
 30
0.0
 10
3005.566336
 20
215.670604
 30
0.0
 10
3005.566336
 20
220.454270
 30
0.0
 10
3002.764080
 20
223.659597
 30
0.0
  0
LWPOLYLINE
  5
251
100
AcDbEntity
  8
DEFAULT
 62
1
100
AcDbPolyline
 90
2
 70
0
 10
3002.764080
 20
212.465277
 30
0.0
 10
3002.764080
 20
184.262477
 30
0.0
  0
SPLINE
  5
252
100
AcDbEntity
  8
DEFAULT
 62
1
100
AcDbSpline
 70
8
 71
3
 72
8
 73
4
 74
0
 40
0
 40
0
 40
0
 40
0
 40
1
 40
1
 40
1
 40
1
 10
3002.728800
 20
223.699597
 30
0.0
 10
3001.114738
 20
225.522611
 30
0.0
 10
2998.796666
 20
226.566314
 30
0.0
 10
2996.361800
 20
226.566314
 30
0.0
  0
SPLINE
  5
253
100
AcDbEntity
  8
DEFAULT
 62
1
100
AcDbSpline
 70
8
 71
3
 72
8
 73
4
 74
0
 40
0
 40
0
 40
0
 40
0
 40
1
 40
1
 40
1
 40
1
 10
2996.361800
 20
226.566314
 30
0.0
 10
2993.926934
 20
226.566314
 30
0.0
 10
2991.608862
 20
225.522611
 30
0.0
 10
2989.994800
 20
223.699597
 30
0.0
  0
LWPOLYLINE
  5
254
100
AcDbEntity
  8
DEFAULT
 62
1
100
AcDbPolyline
 90
2
 70
0
 10
3002.728800
 20
223.699597
 30
0.0
 10
3002.764000
 20
223.659597
 30
0.0
  0
SPLINE
  5
255
100
AcDbEntity
  8
DEFAULT
 62
1
100
AcDbSpline
 70
8
 71
3
 72
8
 73
4
 74
0
 40
0
 40
0
 40
0
 40
0
 40
1
 40
1
 40
1
 40
1
 10
2990.442720
 20
1257.815933
 30
0.0
 10
2992.503550
 20
1255.485907
 30
0.0
 10
2995.672117
 20
1254.467000
 30
0.0
 10
2998.704772
 20
1255.159129
 30
0.0
  0
SPLINE
  5
256
100
AcDbEntity
  8
DEFAULT
 62
1
100
AcDbSpline
 70
8
 71
3
 72
8
 73
4
 74
0
 40
0
 40
0
 40
0
 40
0
 40
1
 40
1
 40
1
 40
1
 10
2998.704772
 20
1255.159129
 30
0.0
 10
3001.737428
 20
1255.851259
 30
0.0
 10
3004.150200
 20
1258.143969
 30
0.0
 10
3004.996085
 20
1261.137382
 30
0.0
  0
SPLINE
  5
257
100
AcDbEntity
  8
DEFAULT
 62
1
100
AcDbSpline
 70
8
 71
3
 72
8
 73
4
 74
0
 40
0
 40
0
 40
0
 40
0
 40
1
 40
1
 40
1
 40
1
 10
3004.996085
 20
1261.137382
 30
0.0
 10
3005.841971
 20
1264.130794
 30
0.0
 10
3004.985978
 20
1267.347200
 30
0.0
 10
3002.764080
 20
1269.524173
 30
0.0
  0
SPLINE
  5
258
100
AcDbEntity
  8
DEFAULT
 62
1
100
AcDbSpline
 70
8
 71
3
 72
8
 73
4
 74
0
 40
0
 40
0
 40
0
 40
0
 40
1
 40
1
 40
1
 40
1
 10
1312.279760
 20
1294.806573
 30
0.0
 10
1312.279743
 20
1297.222483
 30
0.0
 10
1311.252153
 20
1299.524356
 30
0.0
 10
1309.453600
 20
1301.137373
 30
0.0
  0
LWPOLYLINE
  5
259
100
AcDbEntity
  8
DEFAULT
 62
1
100
AcDbPolyline
 90
4
 70
0
 10
2990.442720
 20
1257.815933
 30
0.0
 10
2578.989600
 20
1257.815933
 30
0.0
 10
2578.989600
 20
223.699597
 30
0.0
 10
2989.994800
 20
223.699597
 30
0.0
  0
SPLINE
  5
25a
100
AcDbEntity
  8
DEFAULT
 62
1
100
AcDbSpline
 70
8
 71
3
 72
8
 73
4
 74
0
 40
0
 40
0
 40
0
 40
0
 40
1
 40
1
 40
1
 40
1
 10
2035.978080
 20
1302.271773
 30
0.0
 10
2033.737690
 20
1300.205837
 30
0.0
 10
2032.774085
 20
1297.098989
 30
0.0
 10
2033.452203
 20
1294.127863
 30
0.0
  0
SPLINE
  5
25b
100
AcDbEntity
  8
DEFAULT
 62
1
100
AcDbSpline
 70
8
 71
3
 72
8
 73
4
 74
0
 40
0
 40
0
 40
0
 40
0
 40
1
 40
1
 40
1
 40
1
 10
2033.452203
 20
1294.127863
 30
0.0
 10
2034.130321
 20
1291.156736
 30
0.0
 10
2036.346477
 20
1288.775624
 30
0.0
 10
2039.261362
 20
1287.886308
 30
0.0
  0
SPLINE
  5
25c
100
AcDbEntity
  8
DEFAULT
 62
1
100
AcDbSpline
 70
8
 71
3
 72
8
 73
4
 74
0
 40
0
 40
0
 40
0
 40
0
 40
1
 40
1
 40
1
 40
1
 10
2039.261362
 20
1287.886308
 30
0.0
 10
2042.176247
 20
1286.996992
 30
0.0
 10
2045.344168
 20
1287.735451
 30
0.0
 10
2047.565360
 20
1289.822013
 30
0.0
  0
LWPOLYLINE
  5
25d
100
AcDbEntity
  8
DEFAULT
 62
1
100
AcDbPolyline
 90
4
 70
0
 10
2035.978080
 20
1302.271773
 30
0.0
 10
2035.978080
 20
1340.995773
 30
0.0
 10
1309.453600
 20
1340.995773
 30
0.0
 10
1309.453600
 20
1301.137373
 30
0.0
  0
SPLINE
  5
25e
100
AcDbEntity
  8
DEFAULT
 62
1
100
AcDbSpline
 70
8
 71
3
 72
8
 73
4
 74
0
 40
0
 40
0
 40
0
 40
0
 40
1
 40
1
 40
1
 40
1
 10
2047.296000
 20
254.905037
 30
0.0
 10
2044.104516
 20
257.658289
 30
0.0
 10
2039.377804
 20
257.658289
 30
0.0
 10
2036.186320
 20
254.905037
 30
0.0
  0
LWPOLYLINE
  5
25f
100
AcDbEntity
  8
DEFAULT
 62
1
100
AcDbPolyline
 90
12
 70
0
 10
2047.296000
 20
254.905037
 30
0.0
 10
2379.332400
 20
254.905037
 30
0.0
 10
2379.332400
 20
630.117437
 30
0.0
 10
1992.221520
 20
513.522557
 30
0.0
 10
1992.221520
 20
686.963277
 30
0.0
 10
882.420400
 20
686.963117
 30
0.0
 10
882.420400
 20
857.521281
 30
0.0
 10
1992.221520
 20
857.521441
 30
0.0
 10
1992.221520
 20
1030.962157
 30
0.0
 10
2379.332400
 20
914.287441
 30
0.0
 10
2379.332400
 20
1289.640893
 30
0.0
 10
2047.565360
 20
1289.822013
 30
0.0
  0
SPLINE
  5
260
100
AcDbEntity
  8
DEFAULT
 62
1
100
AcDbSpline
 70
8
 71
3
 72
8
 73
4
 74
0
 40
0
 40
0
 40
0
 40
0
 40
1
 40
1
 40
1
 40
1
 10
2035.978080
 20
254.719277
 30
0.0
 10
2034.231082
 20
253.109219
 30
0.0
 10
2033.237253
 20
250.841769
 30
0.0
 10
2033.237253
 20
248.465997
 30
0.0
  0
SPLINE
  5
261
100
AcDbEntity
  8
DEFAULT
 62
1
100
AcDbSpline
 70
8
 71
3
 72
8
 73
4
 74
0
 40
0
 40
0
 40
0
 40
0
 40
1
 40
1
 40
1
 40
1
 10
2033.237253
 20
248.465997
 30
0.0
 10
2033.237253
 20
246.090226
 30
0.0
 10
2034.231082
 20
243.822775
 30
0.0
 10
2035.978080
 20
242.212717
 30
0.0
  0
LWPOLYLINE
  5
262
100
AcDbEntity
  8
DEFAULT
 62
1
100
AcDbPolyline
 90
2
 70
0
 10
2035.978080
 20
254.719277
 30
0.0
 10
2036.186320
 20
254.905037
 30
0.0
  0
SPLINE
  5
263
100
AcDbEntity
  8
DEFAULT
 62
1
100
AcDbSpline
 70
8
 71
3
 72
8
 73
4
 74
0
 40
0
 40
0
 40
0
 40
0
 40
1
 40
1
 40
1
 40
1
 10
1309.453600
 20
243.347037
 30
0.0
 10
1311.252153
 20
244.960054
 30
0.0
 10
1312.279743
 20
247.261928
 30
0.0
 10
1312.279760
 20
249.677837
 30
0.0
  0
SPLINE
  5
264
100
AcDbEntity
  8
DEFAULT
 62
1
100
AcDbSpline
 70
8
 71
3
 72
8
 73
4
 74
0
 40
0
 40
0
 40
0
 40
0
 40
1
 40
1
 40
1
 40
1
 10
1312.279760
 20
249.677837
 30
0.0
 10
1312.279746
 20
253.309296
 30
0.0
 10
1309.973739
 20
256.540041
 30
0.0
 10
1306.539385
 20
257.720172
 30
0.0
  0
SPLINE
  5
265
100
AcDbEntity
  8
DEFAULT
 62
1
100
AcDbSpline
 70
8
 71
3
 72
8
 73
4
 74
0
 40
0
 40
0
 40
0
 40
0
 40
1
 40
1
 40
1
 40
1
 10
1306.539385
 20
257.720172
 30
0.0
 10
1303.105031
 20
258.900303
 30
0.0
 10
1299.300245
 20
257.769383
 30
0.0
 10
1297.068080
 20
254.904957
 30
0.0
  0
LWPOLYLINE
  5
266
100
AcDbEntity
  8
DEFAULT
 62
1
100
AcDbPolyline
 90
4
 70
0
 10
1309.453600
 20
243.347037
 30
0.0
 10
1309.453600
 20
203.737517
 30
0.0
 10
2035.978080
 20
203.737517
 30
0.0
 10
2035.978080
 20
242.212717
 30
0.0
  0
SPLINE
  5
267
100
AcDbEntity
  8
DEFAULT
 62
1
100
AcDbSpline
 70
8
 71
3
 72
8
 73
4
 74
0
 40
0
 40
0
 40
0
 40
0
 40
1
 40
1
 40
1
 40
1
 10
864.268640
 20
254.904957
 30
0.0
 10
862.065395
 20
257.175591
 30
0.0
 10
858.783736
 20
258.035354
 30
0.0
 10
855.750172
 20
257.136713
 30
0.0
  0
SPLINE
  5
268
100
AcDbEntity
  8
DEFAULT
 62
1
100
AcDbSpline
 70
8
 71
3
 72
8
 73
4
 74
0
 40
0
 40
0
 40
0
 40
0
 40
1
 40
1
 40
1
 40
1
 10
855.750172
 20
257.136713
 30
0.0
 10
852.716609
 20
256.238072
 30
0.0
 10
850.432727
 20
253.729613
 30
0.0
 10
849.821716
 20
250.625305
 30
0.0
  0
SPLINE
  5
269
100
AcDbEntity
  8
DEFAULT
 62
1
100
AcDbSpline
 70
8
 71
3
 72
8
 73
4
 74
0
 40
0
 40
0
 40
0
 40
0
 40
1
 40
1
 40
1
 40
1
 10
849.821716
 20
250.625305
 30
0.0
 10
849.210706
 20
247.520996
 30
0.0
 10
850.373594
 20
244.334122
 30
0.0
 10
852.840320
 20
242.352877
 30
0.0
  0
LWPOLYLINE
  5
26a
100
AcDbEntity
  8
DEFAULT
 62
1
100
AcDbPolyline
 90
2
 70
0
 10
864.268640
 20
254.904957
 30
0.0
 10
1297.068080
 20
254.904957
 30
0.0
  0
LWPOLYLINE
  5
26b
100
AcDbEntity
  8
DEFAULT
 62
1
100
AcDbPolyline
 90
3
 70
0
 10
126.294040
 20
203.737597
 30
0.0
 10
852.840320
 20
203.737517
 30
0.0
 10
852.840320
 20
242.352877
 30
0.0
  0
SPLINE
  5
26c
100
AcDbEntity
  8
DEFAULT
 62
1
100
AcDbSpline
 70
8
 71
3
 72
8
 73
4
 74
0
 40
0
 40
0
 40
0
 40
0
 40
1
 40
1
 40
1
 40
1
 10
852.840320
 20
1302.131533
 30
0.0
 10
850.341919
 20
1300.124710
 30
0.0
 10
849.183819
 20
1296.883788
 30
0.0
 10
849.844601
 20
1293.748072
 30
0.0
  0
SPLINE
  5
26d
100
AcDbEntity
  8
DEFAULT
 62
1
100
AcDbSpline
 70
8
 71
3
 72
8
 73
4
 74
0
 40
0
 40
0
 40
0
 40
0
 40
1
 40
1
 40
1
 40
1
 10
849.844601
 20
1293.748072
 30
0.0
 10
850.505383
 20
1290.612356
 30
0.0
 10
852.872830
 20
1288.114365
 30
0.0
 10
855.968602
 20
1287.286388
 30
0.0
  0
SPLINE
  5
26e
100
AcDbEntity
  8
DEFAULT
 62
1
100
AcDbSpline
 70
8
 71
3
 72
8
 73
4
 74
0
 40
0
 40
0
 40
0
 40
0
 40
1
 40
1
 40
1
 40
1
 10
855.968602
 20
1287.286388
 30
0.0
 10
859.064374
 20
1286.458411
 30
0.0
 10
862.362732
 20
1287.441058
 30
0.0
 10
864.500640
 20
1289.828253
 30
0.0
  0
LWPOLYLINE
  5
26f
100
AcDbEntity
  8
DEFAULT
 62
1
100
AcDbPolyline
 90
4
 70
0
 10
852.840320
 20
1302.131533
 30
0.0
 10
852.840320
 20
1340.995773
 30
0.0
 10
126.294040
 20
1340.995773
 30
0.0
 10
126.294040
 20
203.737597
 30
0.0
  0
SPLINE
  5
270
100
AcDbEntity
  8
DEFAULT
 62
1
100
AcDbSpline
 70
8
 71
3
 72
8
 73
4
 74
0
 40
0
 40
0
 40
0
 40
0
 40
1
 40
1
 40
1
 40
1
 10
1296.881360
 20
1289.828253
 30
0.0
 10
1299.040779
 20
1286.837658
 30
0.0
 10
1302.881976
 20
1285.580232
 30
0.0
 10
1306.391835
 20
1286.714973
 30
0.0
  0
SPLINE
  5
271
100
AcDbEntity
  8
DEFAULT
 62
1
100
AcDbSpline
 70
8
 71
3
 72
8
 73
4
 74
0
 40
0
 40
0
 40
0
 40
0
 40
1
 40
1
 40
1
 40
1
 10
1306.391835
 20
1286.714973
 30
0.0
 10
1309.901694
 20
1287.849714
 30
0.0
 10
1312.279775
 20
1291.117841
 30
0.0
 10
1312.279760
 20
1294.806573
 30
0.0
  0
LWPOLYLINE
  5
272
100
AcDbEntity
  8
DEFAULT
 62
1
100
AcDbPolyline
 90
2
 70
0
 10
1296.881360
 20
1289.828253
 30
0.0
 10
864.500640
 20
1289.828253
 30
0.0
  0
SPLINE
  5
273
100
AcDbEntity
  8
DEFAULT
 62
1
100
AcDbSpline
 70
8
 71
3
 72
8
 73
4
 74
0
 40
0
 40
0
 40
0
 40
0
 40
1
 40
1
 40
1
 40
1
 10
938.572880
 20
2023.905133
 30
0.0
 10
943.269461
 20
2023.905142
 30
0.0
 10
947.076791
 20
2027.712472
 30
0.0
 10
947.076800
 20
2032.409053
 30
0.0
  0
LWPOLYLINE
  5
274
100
AcDbEntity
  8
DEFAULT
 62
1
100
AcDbPolyline
 90
5
 70
0
 10
577.029480
 20
2688.041773
 30
0.0
 10
577.029480
 20
3358.016893
 30
0.0
 10
747.587656
 20
3358.016893
 30
0.0
 10
747.587656
 20
2688.041773
 30
0.0
 10
577.029480
 20
2688.041773
 30
0.0
  0
SPLINE
  5
275
100
AcDbEntity
  8
DEFAULT
 62
1
100
AcDbSpline
 70
8
 71
3
 72
8
 73
4
 74
0
 40
0
 40
0
 40
0
 40
0
 40
1
 40
1
 40
1
 40
1
 10
378.277424
 20
2032.409053
 30
0.0
 10
378.277433
 20
2027.712465
 30
0.0
 10
382.084772
 20
2023.905134
 30
0.0
 10
386.781360
 20
2023.905133
 30
0.0
  0
LWPOLYLINE
  5
276
100
AcDbEntity
  8
DEFAULT
 62
1
100
AcDbPolyline
 90
2
 70
0
 10
386.781360
 20
2023.905133
 30
0.0
 10
938.572880
 20
2023.905133
 30
0.0
  0
SPLINE
  5
277
100
AcDbEntity
  8
DEFAULT
 62
1
100
AcDbSpline
 70
8
 71
3
 72
8
 73
4
 74
0
 40
0
 40
0
 40
0
 40
0
 40
1
 40
1
 40
1
 40
1
 10
378.277424
 20
2065.408013
 30
0.0
 10
379.946205
 20
2068.133355
 30
0.0
 10
379.946205
 20
2071.564192
 30
0.0
 10
378.277424
 20
2074.289533
 30
0.0
  0
LWPOLYLINE
  5
278
100
AcDbEntity
  8
DEFAULT
 62
1
100
AcDbPolyline
 90
2
 70
0
 10
378.277424
 20
2065.408013
 30
0.0
 10
378.277424
 20
2032.409053
 30
0.0
  0
SPLINE
  5
279
100
AcDbEntity
  8
DEFAULT
 62
1
100
AcDbSpline
 70
8
 71
3
 72
8
 73
4
 74
0
 40
0
 40
0
 40
0
 40
0
 40
1
 40
1
 40
1
 40
1
 10
377.735440
 20
2075.072573
 30
0.0
 10
376.124214
 20
2077.142306
 30
0.0
 10
373.648037
 20
2078.352702
 30
0.0
 10
371.025092
 20
2078.352702
 30
0.0
  0
SPLINE
  5
27a
100
AcDbEntity
  8
DEFAULT
 62
1
100
AcDbSpline
 70
8
 71
3
 72
8
 73
4
 74
0
 40
0
 40
0
 40
0
 40
0
 40
1
 40
1
 40
1
 40
1
 10
371.025092
 20
2078.352702
 30
0.0
 10
368.402147
 20
2078.352702
 30
0.0
 10
365.925970
 20
2077.142306
 30
0.0
 10
364.314744
 20
2075.072573
 30
0.0
  0
LWPOLYLINE
  5
27b
100
AcDbEntity
  8
DEFAULT
 62
1
100
AcDbPolyline
 90
3
 70
0
 10
377.735440
 20
2075.072573
 30
0.0
 10
378.277424
 20
2075.072573
 30
0.0
 10
378.277424
 20
2074.289533
 30
0.0
  0
SPLINE
  5
27c
100
AcDbEntity
  8
DEFAULT
 62
1
100
AcDbSpline
 70
8
 71
3
 72
8
 73
4
 74
0
 40
0
 40
0
 40
0
 40
0
 40
1
 40
1
 40
1
 40
1
 10
144.251048
 20
2282.770973
 30
0.0
 10
146.865115
 20
2284.832500
 30
0.0
 10
148.035826
 20
2288.229817
 30
0.0
 10
147.246684
 20
2291.464085
 30
0.0
  0
SPLINE
  5
27d
100
AcDbEntity
  8
DEFAULT
 62
1
100
AcDbSpline
 70
8
 71
3
 72
8
 73
4
 74
0
 40
0
 40
0
 40
0
 40
0
 40
1
 40
1
 40
1
 40
1
 10
147.246684
 20
2291.464085
 30
0.0
 10
146.457541
 20
2294.698354
 30
0.0
 10
143.853692
 20
2297.174700
 30
0.0
 10
140.583908
 20
2297.800603
 30
0.0
  0
SPLINE
  5
27e
100
AcDbEntity
  8
DEFAULT
 62
1
100
AcDbSpline
 70
8
 71
3
 72
8
 73
4
 74
0
 40
0
 40
0
 40
0
 40
0
 40
1
 40
1
 40
1
 40
1
 10
140.583908
 20
2297.800603
 30
0.0
 10
137.314125
 20
2298.426506
 30
0.0
 10
133.979814
 20
2297.086844
 30
0.0
 10
132.052016
 20
2294.372653
 30
0.0
  0
LWPOLYLINE
  5
27f
100
AcDbEntity
  8
DEFAULT
 62
1
100
AcDbPolyline
 90
3
 70
0
 10
144.251048
 20
2282.770973
 30
0.0
 10
144.251048
 20
2075.072573
 30
0.0
 10
364.314744
 20
2075.072573
 30
0.0
  0
SPLINE
  5
280
100
AcDbEntity
  8
DEFAULT
 62
1
100
AcDbSpline
 70
8
 71
3
 72
8
 73
4
 74
0
 40
0
 40
0
 40
0
 40
0
 40
1
 40
1
 40
1
 40
1
 10
132.645952
 20
2642.464013
 30
0.0
 10
134.785569
 20
2640.071213
 30
0.0
 10
138.090198
 20
2639.087058
 30
0.0
 10
141.190302
 20
2639.919411
 30
0.0
  0
SPLINE
  5
281
100
AcDbEntity
  8
DEFAULT
 62
1
100
AcDbSpline
 70
8
 71
3
 72
8
 73
4
 74
0
 40
0
 40
0
 40
0
 40
0
 40
1
 40
1
 40
1
 40
1
 10
141.190302
 20
2639.919411
 30
0.0
 10
144.290405
 20
2640.751764
 30
0.0
 10
146.657682
 20
2643.258781
 30
0.0
 10
147.311062
 20
2646.401479
 30
0.0
  0
SPLINE
  5
282
100
AcDbEntity
  8
DEFAULT
 62
1
100
AcDbSpline
 70
8
 71
3
 72
8
 73
4
 74
0
 40
0
 40
0
 40
0
 40
0
 40
1
 40
1
 40
1
 40
1
 10
147.311062
 20
2646.401479
 30
0.0
 10
147.964441
 20
2649.544177
 30
0.0
 10
146.792578
 20
2652.786995
 30
0.0
 10
144.281128
 20
2654.786013
 30
0.0
  0
LWPOLYLINE
  5
283
100
AcDbEntity
  8
DEFAULT
 62
1
100
AcDbPolyline
 90
4
 70
0
 10
132.645952
 20
2642.464013
 30
0.0
 10
93.066720
 20
2642.464013
 30
0.0
 10
93.066720
 20
2294.372653
 30
0.0
 10
132.052016
 20
2294.372653
 30
0.0
  0
SPLINE
  5
284
100
AcDbEntity
  8
DEFAULT
 62
1
100
AcDbSpline
 70
8
 71
3
 72
8
 73
4
 74
0
 40
0
 40
0
 40
0
 40
0
 40
1
 40
1
 40
1
 40
1
 10
390.743000
 20
3091.907293
 30
0.0
 10
392.801473
 20
3089.545444
 30
0.0
 10
395.991868
 20
3088.506734
 30
0.0
 10
399.046295
 20
3089.203958
 30
0.0
  0
SPLINE
  5
285
100
AcDbEntity
  8
DEFAULT
 62
1
100
AcDbSpline
 70
8
 71
3
 72
8
 73
4
 74
0
 40
0
 40
0
 40
0
 40
0
 40
1
 40
1
 40
1
 40
1
 10
399.046295
 20
3089.203958
 30
0.0
 10
402.100722
 20
3089.901181
 30
0.0
 10
404.524388
 20
3092.221392
 30
0.0
 10
405.354107
 20
3095.242519
 30
0.0
  0
SPLINE
  5
286
100
AcDbEntity
  8
DEFAULT
 62
1
100
AcDbSpline
 70
8
 71
3
 72
8
 73
4
 74
0
 40
0
 40
0
 40
0
 40
0
 40
1
 40
1
 40
1
 40
1
 10
405.354107
 20
3095.242519
 30
0.0
 10
406.183827
 20
3098.263647
 30
0.0
 10
405.285192
 20
3101.496292
 30
0.0
 10
403.015328
 20
3103.655773
 30
0.0
  0
LWPOLYLINE
  5
287
100
AcDbEntity
  8
DEFAULT
 62
1
100
AcDbPolyline
 90
3
 70
0
 10
390.743000
 20
3091.907293
 30
0.0
 10
144.366272
 20
3092.194333
 30
0.0
 10
144.281128
 20
2654.786013
 30
0.0
  0
SPLINE
  5
288
100
AcDbEntity
  8
DEFAULT
 62
1
100
AcDbSpline
 70
8
 71
3
 72
8
 73
4
 74
0
 40
0
 40
0
 40
0
 40
0
 40
1
 40
1
 40
1
 40
1
 10
403.015328
 20
3229.844973
 30
0.0
 10
405.307755
 20
3232.026124
 30
0.0
 10
406.199570
 20
3235.299727
 30
0.0
 10
405.330206
 20
3238.342234
 30
0.0
  0
SPLINE
  5
289
100
AcDbEntity
  8
DEFAULT
 62
1
100
AcDbSpline
 70
8
 71
3
 72
8
 73
4
 74
0
 40
0
 40
0
 40
0
 40
0
 40
1
 40
1
 40
1
 40
1
 10
405.330206
 20
3238.342234
 30
0.0
 10
404.460841
 20
3241.384740
 30
0.0
 10
401.974080
 20
3243.692950
 30
0.0
 10
398.875344
 20
3244.333632
 30
0.0
  0
SPLINE
  5
28a
100
AcDbEntity
  8
DEFAULT
 62
1
100
AcDbSpline
 70
8
 71
3
 72
8
 73
4
 74
0
 40
0
 40
0
 40
0
 40
0
 40
1
 40
1
 40
1
 40
1
 10
398.875344
 20
3244.333632
 30
0.0
 10
395.776608
 20
3244.974314
 30
0.0
 10
392.578396
 20
3243.841506
 30
0.0
 10
390.573776
 20
3241.393213
 30
0.0
  0
LWPOLYLINE
  5
28b
100
AcDbEntity
  8
DEFAULT
 62
1
100
AcDbPolyline
 90
2
 70
0
 10
403.015328
 20
3229.844973
 30
0.0
 10
403.015328
 20
3103.655773
 30
0.0
  0
SPLINE
  5
28c
100
AcDbEntity
  8
DEFAULT
 62
1
100
AcDbSpline
 70
8
 71
3
 72
8
 73
4
 74
0
 40
0
 40
0
 40
0
 40
0
 40
1
 40
1
 40
1
 40
1
 10
144.278728
 20
3756.139213
 30
0.0
 10
147.108294
 20
3757.888008
 30
0.0
 10
148.658461
 20
3761.126036
 30
0.0
 10
148.246297
 20
3764.426771
 30
0.0
  0
SPLINE
  5
28d
100
AcDbEntity
  8
DEFAULT
 62
1
100
AcDbSpline
 70
8
 71
3
 72
8
 73
4
 74
0
 40
0
 40
0
 40
0
 40
0
 40
1
 40
1
 40
1
 40
1
 10
148.246297
 20
3764.426771
 30
0.0
 10
147.834132
 20
3767.727505
 30
0.0
 10
145.535313
 20
3770.484908
 30
0.0
 10
142.362592
 20
3771.484195
 30
0.0
  0
SPLINE
  5
28e
100
AcDbEntity
  8
DEFAULT
 62
1
100
AcDbSpline
 70
8
 71
3
 72
8
 73
4
 74
0
 40
0
 40
0
 40
0
 40
0
 40
1
 40
1
 40
1
 40
1
 10
142.362592
 20
3771.484195
 30
0.0
 10
139.189872
 20
3772.483481
 30
0.0
 10
135.725785
 20
3771.541175
 30
0.0
 10
133.496448
 20
3769.072413
 30
0.0
  0
LWPOLYLINE
  5
28f
100
AcDbEntity
  8
DEFAULT
 62
1
100
AcDbPolyline
 90
3
 70
0
 10
144.278728
 20
3756.139213
 30
0.0
 10
144.278728
 20
3241.412653
 30
0.0
 10
390.573776
 20
3241.393453
 30
0.0
  0
SPLINE
  5
290
100
AcDbEntity
  8
DEFAULT
 62
1
100
AcDbSpline
 70
8
 71
3
 72
8
 73
4
 74
0
 40
0
 40
0
 40
0
 40
0
 40
1
 40
1
 40
1
 40
1
 10
132.606632
 20
4172.491373
 30
0.0
 10
134.681969
 20
4169.934477
 30
0.0
 10
138.046987
 20
4168.805642
 30
0.0
 10
141.244435
 20
4169.593720
 30
0.0
  0
SPLINE
  5
291
100
AcDbEntity
  8
DEFAULT
 62
1
100
AcDbSpline
 70
8
 71
3
 72
8
 73
4
 74
0
 40
0
 40
0
 40
0
 40
0
 40
1
 40
1
 40
1
 40
1
 10
141.244435
 20
4169.593720
 30
0.0
 10
144.441883
 20
4170.381799
 30
0.0
 10
146.896896
 20
4172.945104
 30
0.0
 10
147.546307
 20
4176.173572
 30
0.0
  0
SPLINE
  5
292
100
AcDbEntity
  8
DEFAULT
 62
1
100
AcDbSpline
 70
8
 71
3
 72
8
 73
4
 74
0
 40
0
 40
0
 40
0
 40
0
 40
1
 40
1
 40
1
 40
1
 10
147.546307
 20
4176.173572
 30
0.0
 10
148.195718
 20
4179.402040
 30
0.0
 10
146.922771
 20
4182.715230
 30
0.0
 10
144.278728
 20
4184.678333
 30
0.0
  0
LWPOLYLINE
  5
293
100
AcDbEntity
  8
DEFAULT
 62
1
100
AcDbPolyline
 90
4
 70
0
 10
132.606632
 20
4172.491373
 30
0.0
 10
93.214488
 20
4172.491373
 30
0.0
 10
93.214488
 20
3769.072413
 30
0.0
 10
133.496448
 20
3769.072413
 30
0.0
  0
SPLINE
  5
294
100
AcDbEntity
  8
DEFAULT
 62
1
100
AcDbSpline
 70
8
 71
3
 72
8
 73
4
 74
0
 40
0
 40
0
 40
0
 40
0
 40
1
 40
1
 40
1
 40
1
 10
144.278728
 20
4894.703133
 30
0.0
 10
146.960242
 20
4896.694031
 30
0.0
 10
148.228133
 20
4900.070226
 30
0.0
 10
147.519979
 20
4903.334074
 30
0.0
  0
SPLINE
  5
295
100
AcDbEntity
  8
DEFAULT
 62
1
100
AcDbSpline
 70
8
 71
3
 72
8
 73
4
 74
0
 40
0
 40
0
 40
0
 40
0
 40
1
 40
1
 40
1
 40
1
 10
147.519979
 20
4903.334074
 30
0.0
 10
146.811824
 20
4906.597923
 30
0.0
 10
144.258748
 20
4909.145086
 30
0.0
 10
140.993266
 20
4909.845670
 30
0.0
  0
SPLINE
  5
296
100
AcDbEntity
  8
DEFAULT
 62
1
100
AcDbSpline
 70
8
 71
3
 72
8
 73
4
 74
0
 40
0
 40
0
 40
0
 40
0
 40
1
 40
1
 40
1
 40
1
 10
140.993266
 20
4909.845670
 30
0.0
 10
137.727784
 20
4910.546253
 30
0.0
 10
134.354538
 20
4909.270536
 30
0.0
 10
132.369864
 20
4906.584413
 30
0.0
  0
LWPOLYLINE
  5
297
100
AcDbEntity
  8
DEFAULT
 62
1
100
AcDbPolyline
 90
2
 70
0
 10
144.278728
 20
4894.703133
 30
0.0
 10
144.278728
 20
4184.678333
 30
0.0
  0
SPLINE
  5
298
100
AcDbEntity
  8
DEFAULT
 62
1
100
AcDbSpline
 70
8
 71
3
 72
8
 73
4
 74
0
 40
0
 40
0
 40
0
 40
0
 40
1
 40
1
 40
1
 40
1
 10
133.352720
 20
5310.003373
 30
0.0
 10
135.644639
 20
5307.826296
 30
0.0
 10
138.955013
 20
5307.100163
 30
0.0
 10
141.947749
 20
5308.118047
 30
0.0
  0
SPLINE
  5
299
100
AcDbEntity
  8
DEFAULT
 62
1
100
AcDbSpline
 70
8
 71
3
 72
8
 73
4
 74
0
 40
0
 40
0
 40
0
 40
0
 40
1
 40
1
 40
1
 40
1
 10
141.947749
 20
5308.118047
 30
0.0
 10
144.940485
 20
5309.135932
 30
0.0
 10
147.121652
 20
5311.729838
 30
0.0
 10
147.610915
 20
5314.852846
 30
0.0
  0
SPLINE
  5
29a
100
AcDbEntity
  8
DEFAULT
 62
1
100
AcDbSpline
 70
8
 71
3
 72
8
 73
4
 74
0
 40
0
 40
0
 40
0
 40
0
 40
1
 40
1
 40
1
 40
1
 10
147.610915
 20
5314.852846
 30
0.0
 10
148.100178
 20
5317.975854
 30
0.0
 10
146.816787
 20
5321.112532
 30
0.0
 10
144.278728
 20
5322.996893
 30
0.0
  0
LWPOLYLINE
  5
29b
100
AcDbEntity
  8
DEFAULT
 62
1
100
AcDbPolyline
 90
4
 70
0
 10
133.352720
 20
5310.003373
 30
0.0
 10
93.214488
 20
5310.003373
 30
0.0
 10
93.214488
 20
4906.584413
 30
0.0
 10
132.369864
 20
4906.584413
 30
0.0
  0
SPLINE
  5
29c
100
AcDbEntity
  8
DEFAULT
 62
1
100
AcDbSpline
 70
8
 71
3
 72
8
 73
4
 74
0
 40
0
 40
0
 40
0
 40
0
 40
1
 40
1
 40
1
 40
1
 10
144.278728
 20
6030.322013
 30
0.0
 10
146.737138
 20
6032.323143
 30
0.0
 10
147.878470
 20
6035.525536
 30
0.0
 10
147.239850
 20
6038.630446
 30
0.0
  0
SPLINE
  5
29d
100
AcDbEntity
  8
DEFAULT
 62
1
100
AcDbSpline
 70
8
 71
3
 72
8
 73
4
 74
0
 40
0
 40
0
 40
0
 40
0
 40
1
 40
1
 40
1
 40
1
 10
147.239850
 20
6038.630446
 30
0.0
 10
146.601230
 20
6041.735356
 30
0.0
 10
144.288674
 20
6044.227351
 30
0.0
 10
141.240049
 20
6045.095791
 30
0.0
  0
SPLINE
  5
29e
100
AcDbEntity
  8
DEFAULT
 62
1
100
AcDbSpline
 70
8
 71
3
 72
8
 73
4
 74
0
 40
0
 40
0
 40
0
 40
0
 40
1
 40
1
 40
1
 40
1
 10
141.240049
 20
6045.095791
 30
0.0
 10
138.191424
 20
6045.964230
 30
0.0
 10
134.912819
 20
6045.064948
 30
0.0
 10
132.733888
 20
6042.762653
 30
0.0
  0
LWPOLYLINE
  5
29f
100
AcDbEntity
  8
DEFAULT
 62
1
100
AcDbPolyline
 90
2
 70
0
 10
144.278728
 20
6030.322013
 30
0.0
 10
144.278728
 20
5322.996893
 30
0.0
  0
SPLINE
  5
2a0
100
AcDbEntity
  8
DEFAULT
 62
1
100
AcDbSpline
 70
8
 71
3
 72
8
 73
4
 74
0
 40
0
 40
0
 40
0
 40
0
 40
1
 40
1
 40
1
 40
1
 10
132.304808
 20
6446.181613
 30
0.0
 10
134.350511
 20
6443.658839
 30
0.0
 10
137.654554
 20
6442.521642
 30
0.0
 10
140.819577
 20
6443.250972
 30
0.0
  0
SPLINE
  5
2a1
100
AcDbEntity
  8
DEFAULT
 62
1
100
AcDbSpline
 70
8
 71
3
 72
8
 73
4
 74
0
 40
0
 40
0
 40
0
 40
0
 40
1
 40
1
 40
1
 40
1
 10
140.819577
 20
6443.250972
 30
0.0
 10
143.984600
 20
6443.980301
 30
0.0
 10
146.457775
 20
6446.448767
 30
0.0
 10
147.193135
 20
6449.612394
 30
0.0
  0
SPLINE
  5
2a2
100
AcDbEntity
  8
DEFAULT
 62
1
100
AcDbSpline
 70
8
 71
3
 72
8
 73
4
 74
0
 40
0
 40
0
 40
0
 40
0
 40
1
 40
1
 40
1
 40
1
 10
147.193135
 20
6449.612394
 30
0.0
 10
147.928496
 20
6452.776021
 30
0.0
 10
146.797599
 20
6456.082226
 30
0.0
 10
144.278728
 20
6458.132733
 30
0.0
  0
LWPOLYLINE
  5
2a3
100
AcDbEntity
  8
DEFAULT
 62
1
100
AcDbPolyline
 90
4
 70
0
 10
132.304808
 20
6446.181613
 30
0.0
 10
93.214488
 20
6446.181613
 30
0.0
 10
93.214488
 20
6042.762653
 30
0.0
 10
132.733888
 20
6042.762653
 30
0.0
  0
SPLINE
  5
2a4
100
AcDbEntity
  8
DEFAULT
 62
1
100
AcDbSpline
 70
8
 71
3
 72
8
 73
4
 74
0
 40
0
 40
0
 40
0
 40
0
 40
1
 40
1
 40
1
 40
1
 10
366.464128
 20
6856.933613
 30
0.0
 10
368.605951
 20
6854.553747
 30
0.0
 10
371.902949
 20
6853.578589
 30
0.0
 10
374.994726
 20
6854.410505
 30
0.0
  0
SPLINE
  5
2a5
100
AcDbEntity
  8
DEFAULT
 62
1
100
AcDbSpline
 70
8
 71
3
 72
8
 73
4
 74
0
 40
0
 40
0
 40
0
 40
0
 40
1
 40
1
 40
1
 40
1
 10
374.994726
 20
6854.410505
 30
0.0
 10
378.086503
 20
6855.242422
 30
0.0
 10
380.448972
 20
6857.740395
 30
0.0
 10
381.107339
 20
6860.873719
 30
0.0
  0
SPLINE
  5
2a6
100
AcDbEntity
  8
DEFAULT
 62
1
100
AcDbSpline
 70
8
 71
3
 72
8
 73
4
 74
0
 40
0
 40
0
 40
0
 40
0
 40
1
 40
1
 40
1
 40
1
 10
381.107339
 20
6860.873719
 30
0.0
 10
381.765707
 20
6864.007044
 30
0.0
 10
380.608373
 20
6867.244590
 30
0.0
 10
378.112872
 20
6869.250493
 30
0.0
  0
LWPOLYLINE
  5
2a7
100
AcDbEntity
  8
DEFAULT
 62
1
100
AcDbPolyline
 90
3
 70
0
 10
366.464128
 20
6856.933613
 30
0.0
 10
144.278728
 20
6856.933613
 30
0.0
 10
144.278728
 20
6458.132733
 30
0.0
  0
SPLINE
  5
2a8
100
AcDbEntity
  8
DEFAULT
 62
1
100
AcDbSpline
 70
8
 71
3
 72
8
 73
4
 74
0
 40
0
 40
0
 40
0
 40
0
 40
1
 40
1
 40
1
 40
1
 10
386.617160
 20
6907.002413
 30
0.0
 10
384.361718
 20
6907.002506
 30
0.0
 10
382.198621
 20
6906.106602
 30
0.0
 10
380.603748
 20
6904.511798
 30
0.0
  0
SPLINE
  5
2a9
100
AcDbEntity
  8
DEFAULT
 62
1
100
AcDbSpline
 70
8
 71
3
 72
8
 73
4
 74
0
 40
0
 40
0
 40
0
 40
0
 40
1
 40
1
 40
1
 40
1
 10
380.603748
 20
6904.511798
 30
0.0
 10
379.008875
 20
6902.916994
 30
0.0
 10
378.112876
 20
6900.753935
 30
0.0
 10
378.112872
 20
6898.498493
 30
0.0
  0
LWPOLYLINE
  5
2aa
100
AcDbEntity
  8
DEFAULT
 62
1
100
AcDbPolyline
 90
2
 70
0
 10
378.112872
 20
6898.498493
 30
0.0
 10
378.112872
 20
6869.250493
 30
0.0
  0
SPLINE
  5
2ab
100
AcDbEntity
  8
DEFAULT
 62
1
100
AcDbSpline
 70
8
 71
3
 72
8
 73
4
 74
0
 40
0
 40
0
 40
0
 40
0
 40
1
 40
1
 40
1
 40
1
 10
945.685360
 20
6898.475213
 30
0.0
 10
945.685547
 20
6900.730661
 30
0.0
 10
944.789727
 20
6902.893800
 30
0.0
 10
943.194982
 20
6904.488740
 30
0.0
  0
SPLINE
  5
2ac
100
AcDbEntity
  8
DEFAULT
 62
1
100
AcDbSpline
 70
8
 71
3
 72
8
 73
4
 74
0
 40
0
 40
0
 40
0
 40
0
 40
1
 40
1
 40
1
 40
1
 10
943.194982
 20
6904.488740
 30
0.0
 10
941.600237
 20
6906.083680
 30
0.0
 10
939.437208
 20
6906.979764
 30
0.0
 10
937.181760
 20
6906.979853
 30
0.0
  0
LWPOLYLINE
  5
2ad
100
AcDbEntity
  8
DEFAULT
 62
1
100
AcDbPolyline
 90
2
 70
0
 10
937.181760
 20
6906.979853
 30
0.0
 10
386.617160
 20
6907.002253
 30
0.0
  0
SPLINE
  5
2ae
100
AcDbEntity
  8
DEFAULT
 62
1
100
AcDbSpline
 70
8
 71
3
 72
8
 73
4
 74
0
 40
0
 40
0
 40
0
 40
0
 40
1
 40
1
 40
1
 40
1
 10
945.682960
 20
6869.248013
 30
0.0
 10
943.191956
 20
6867.243651
 30
0.0
 10
942.035716
 20
6864.011457
 30
0.0
 10
942.690177
 20
6860.881880
 30
0.0
  0
SPLINE
  5
2af
100
AcDbEntity
  8
DEFAULT
 62
1
100
AcDbSpline
 70
8
 71
3
 72
8
 73
4
 74
0
 40
0
 40
0
 40
0
 40
0
 40
1
 40
1
 40
1
 40
1
 10
942.690177
 20
6860.881880
 30
0.0
 10
943.344637
 20
6857.752303
 30
0.0
 10
945.699184
 20
6855.254290
 30
0.0
 10
948.784630
 20
6854.416080
 30
0.0
  0
SPLINE
  5
2b0
100
AcDbEntity
  8
DEFAULT
 62
1
100
AcDbSpline
 70
8
 71
3
 72
8
 73
4
 74
0
 40
0
 40
0
 40
0
 40
0
 40
1
 40
1
 40
1
 40
1
 10
948.784630
 20
6854.416080
 30
0.0
 10
951.870076
 20
6853.577871
 30
0.0
 10
955.164932
 20
6854.541136
 30
0.0
 10
957.312960
 20
6856.909373
 30
0.0
  0
LWPOLYLINE
  5
2b1
100
AcDbEntity
  8
DEFAULT
 62
1
100
AcDbPolyline
 90
2
 70
0
 10
945.682960
 20
6869.248013
 30
0.0
 10
945.682960
 20
6898.475213
 30
0.0
  0
SPLINE
  5
2b2
100
AcDbEntity
  8
DEFAULT
 62
1
100
AcDbSpline
 70
8
 71
3
 72
8
 73
4
 74
0
 40
0
 40
0
 40
0
 40
0
 40
1
 40
1
 40
1
 40
1
 10
1179.047840
 20
6457.718253
 30
0.0
 10
1176.746910
 20
6455.543782
 30
0.0
 10
1175.844373
 20
6452.271149
 30
0.0
 10
1176.705445
 20
6449.224650
 30
0.0
  0
SPLINE
  5
2b3
100
AcDbEntity
  8
DEFAULT
 62
1
100
AcDbSpline
 70
8
 71
3
 72
8
 73
4
 74
0
 40
0
 40
0
 40
0
 40
0
 40
1
 40
1
 40
1
 40
1
 10
1176.705445
 20
6449.224650
 30
0.0
 10
1177.566518
 20
6446.178151
 30
0.0
 10
1180.048641
 20
6443.862170
 30
0.0
 10
1183.147404
 20
6443.213886
 30
0.0
  0
SPLINE
  5
2b4
100
AcDbEntity
  8
DEFAULT
 62
1
100
AcDbSpline
 70
8
 71
3
 72
8
 73
4
 74
0
 40
0
 40
0
 40
0
 40
0
 40
1
 40
1
 40
1
 40
1
 10
1183.147404
 20
6443.213886
 30
0.0
 10
1186.246166
 20
6442.565602
 30
0.0
 10
1189.448532
 20
6443.692346
 30
0.0
 10
1191.458640
 20
6446.138173
 30
0.0
  0
LWPOLYLINE
  5
2b5
100
AcDbEntity
  8
DEFAULT
 62
1
100
AcDbPolyline
 90
3
 70
0
 10
1179.047840
 20
6457.718253
 30
0.0
 10
1179.516080
 20
6856.891133
 30
0.0
 10
957.312960
 20
6856.909533
 30
0.0
  0
LWPOLYLINE
  5
2b6
100
AcDbEntity
  8
DEFAULT
 62
1
100
AcDbPolyline
 90
2
 70
0
 10
1191.105840
 20
6042.719293
 30
0.0
 10
1230.065360
 20
6042.719293
 30
0.0
  0
LWPOLYLINE
  5
2b7
100
AcDbEntity
  8
DEFAULT
 62
1
100
AcDbPolyline
 90
2
 70
0
 10
1230.065360
 20
6042.716093
 30
0.0
 10
1230.098160
 20
6446.135053
 30
0.0
  0
SPLINE
  5
2b8
100
AcDbEntity
  8
DEFAULT
 62
1
100
AcDbSpline
 70
8
 71
3
 72
8
 73
4
 74
0
 40
0
 40
0
 40
0
 40
0
 40
1
 40
1
 40
1
 40
1
 10
1191.105840
 20
6042.719293
 30
0.0
 10
1188.994685
 20
6044.980913
 30
0.0
 10
1185.821808
 20
6045.917529
 30
0.0
 10
1182.820883
 20
6045.164968
 30
0.0
  0
SPLINE
  5
2b9
100
AcDbEntity
  8
DEFAULT
 62
1
100
AcDbSpline
 70
8
 71
3
 72
8
 73
4
 74
0
 40
0
 40
0
 40
0
 40
0
 40
1
 40
1
 40
1
 40
1
 10
1182.820883
 20
6045.164968
 30
0.0
 10
1179.819959
 20
6044.412408
 30
0.0
 10
1177.464513
 20
6042.089419
 30
0.0
 10
1176.670389
 20
6039.099225
 30
0.0
  0
SPLINE
  5
2ba
100
AcDbEntity
  8
DEFAULT
 62
1
100
AcDbSpline
 70
8
 71
3
 72
8
 73
4
 74
0
 40
0
 40
0
 40
0
 40
0
 40
1
 40
1
 40
1
 40
1
 10
1176.670389
 20
6039.099225
 30
0.0
 10
1175.876265
 20
6036.109030
 30
0.0
 10
1176.768769
 20
6032.923463
 30
0.0
 10
1179.000880
 20
6030.781133
 30
0.0
  0
LWPOLYLINE
  5
2bb
100
AcDbEntity
  8
DEFAULT
 62
1
100
AcDbPolyline
 90
2
 70
0
 10
1230.098480
 20
6446.135053
 30
0.0
 10
1191.458640
 20
6446.135053
 30
0.0
  0
SPLINE
  5
2bc
100
AcDbEntity
  8
DEFAULT
 62
1
100
AcDbSpline
 70
8
 71
3
 72
8
 73
4
 74
0
 40
0
 40
0
 40
0
 40
0
 40
1
 40
1
 40
1
 40
1
 10
1178.986000
 20
5322.565773
 30
0.0
 10
1176.670165
 20
5320.536852
 30
0.0
 10
1175.631882
 20
5317.414635
 30
0.0
 10
1176.271461
 20
5314.402899
 30
0.0
  0
SPLINE
  5
2bd
100
AcDbEntity
  8
DEFAULT
 62
1
100
AcDbSpline
 70
8
 71
3
 72
8
 73
4
 74
0
 40
0
 40
0
 40
0
 40
0
 40
1
 40
1
 40
1
 40
1
 10
1176.271461
 20
5314.402899
 30
0.0
 10
1176.911041
 20
5311.391164
 30
0.0
 10
1179.128578
 20
5308.960361
 30
0.0
 10
1182.069096
 20
5308.047692
 30
0.0
  0
SPLINE
  5
2be
100
AcDbEntity
  8
DEFAULT
 62
1
100
AcDbSpline
 70
8
 71
3
 72
8
 73
4
 74
0
 40
0
 40
0
 40
0
 40
0
 40
1
 40
1
 40
1
 40
1
 10
1182.069096
 20
5308.047692
 30
0.0
 10
1185.009614
 20
5307.135022
 30
0.0
 10
1188.213787
 20
5307.883051
 30
0.0
 10
1190.446240
 20
5310.003373
 30
0.0
  0
LWPOLYLINE
  5
2bf
100
AcDbEntity
  8
DEFAULT
 62
1
100
AcDbPolyline
 90
2
 70
0
 10
1178.986000
 20
5322.565773
 30
0.0
 10
1179.001200
 20
6030.781133
 30
0.0
  0
SPLINE
  5
2c0
100
AcDbEntity
  8
DEFAULT
 62
1
100
AcDbSpline
 70
8
 71
3
 72
8
 73
4
 74
0
 40
0
 40
0
 40
0
 40
0
 40
1
 40
1
 40
1
 40
1
 10
1191.429120
 20
4906.584413
 30
0.0
 10
1189.493632
 20
4909.203905
 30
0.0
 10
1186.232023
 20
4910.487834
 30
0.0
 10
1183.030278
 20
4909.890607
 30
0.0
  0
SPLINE
  5
2c1
100
AcDbEntity
  8
DEFAULT
 62
1
100
AcDbSpline
 70
8
 71
3
 72
8
 73
4
 74
0
 40
0
 40
0
 40
0
 40
0
 40
1
 40
1
 40
1
 40
1
 10
1183.030278
 20
4909.890607
 30
0.0
 10
1179.828533
 20
4909.293380
 30
0.0
 10
1177.249142
 20
4906.919920
 30
0.0
 10
1176.388190
 20
4903.778803
 30
0.0
  0
SPLINE
  5
2c2
100
AcDbEntity
  8
DEFAULT
 62
1
100
AcDbSpline
 70
8
 71
3
 72
8
 73
4
 74
0
 40
0
 40
0
 40
0
 40
0
 40
1
 40
1
 40
1
 40
1
 10
1176.388190
 20
4903.778803
 30
0.0
 10
1175.527238
 20
4900.637687
 30
0.0
 10
1176.535980
 20
4897.280752
 30
0.0
 10
1178.985760
 20
4895.134493
 30
0.0
  0
LWPOLYLINE
  5
2c3
100
AcDbEntity
  8
DEFAULT
 62
1
100
AcDbPolyline
 90
4
 70
0
 10
1191.429120
 20
4906.584413
 30
0.0
 10
1230.050000
 20
4906.584413
 30
0.0
 10
1230.050000
 20
5310.003373
 30
0.0
 10
1190.446240
 20
5310.003373
 30
0.0
  0
SPLINE
  5
2c4
100
AcDbEntity
  8
DEFAULT
 62
1
100
AcDbSpline
 70
8
 71
3
 72
8
 73
4
 74
0
 40
0
 40
0
 40
0
 40
0
 40
1
 40
1
 40
1
 40
1
 10
1178.985760
 20
4184.246973
 30
0.0
 10
1176.570908
 20
4182.131337
 30
0.0
 10
1175.553385
 20
4178.836045
 30
0.0
 10
1176.355023
 20
4175.727218
 30
0.0
  0
SPLINE
  5
2c5
100
AcDbEntity
  8
DEFAULT
 62
1
100
AcDbSpline
 70
8
 71
3
 72
8
 73
4
 74
0
 40
0
 40
0
 40
0
 40
0
 40
1
 40
1
 40
1
 40
1
 10
1176.355023
 20
4175.727218
 30
0.0
 10
1177.156661
 20
4172.618392
 30
0.0
 10
1179.640795
 20
4170.226032
 30
0.0
 10
1182.777582
 20
4169.541934
 30
0.0
  0
SPLINE
  5
2c6
100
AcDbEntity
  8
DEFAULT
 62
1
100
AcDbSpline
 70
8
 71
3
 72
8
 73
4
 74
0
 40
0
 40
0
 40
0
 40
0
 40
1
 40
1
 40
1
 40
1
 10
1182.777582
 20
4169.541934
 30
0.0
 10
1185.914370
 20
4168.857837
 30
0.0
 10
1189.169043
 20
4169.998628
 30
0.0
 10
1191.192320
 20
4172.491373
 30
0.0
  0
LWPOLYLINE
  5
2c7
100
AcDbEntity
  8
DEFAULT
 62
1
100
AcDbPolyline
 90
2
 70
0
 10
1178.985760
 20
4184.246973
 30
0.0
 10
1178.985760
 20
4895.134493
 30
0.0
  0
SPLINE
  5
2c8
100
AcDbEntity
  8
DEFAULT
 62
1
100
AcDbSpline
 70
8
 71
3
 72
8
 73
4
 74
0
 40
0
 40
0
 40
0
 40
0
 40
1
 40
1
 40
1
 40
1
 10
1190.302480
 20
3769.072413
 30
0.0
 10
1188.125130
 20
3771.483615
 30
0.0
 10
1184.764245
 20
3772.443567
 30
0.0
 10
1181.641858
 20
3771.546103
 30
0.0
  0
SPLINE
  5
2c9
100
AcDbEntity
  8
DEFAULT
 62
1
100
AcDbSpline
 70
8
 71
3
 72
8
 73
4
 74
0
 40
0
 40
0
 40
0
 40
0
 40
1
 40
1
 40
1
 40
1
 10
1181.641858
 20
3771.546103
 30
0.0
 10
1178.519470
 20
3770.648638
 30
0.0
 10
1176.181255
 20
3768.050600
 30
0.0
 10
1175.616541
 20
3764.851249
 30
0.0
  0
SPLINE
  5
2ca
100
AcDbEntity
  8
DEFAULT
 62
1
100
AcDbSpline
 70
8
 71
3
 72
8
 73
4
 74
0
 40
0
 40
0
 40
0
 40
0
 40
1
 40
1
 40
1
 40
1
 10
1175.616541
 20
3764.851249
 30
0.0
 10
1175.051826
 20
3761.651899
 30
0.0
 10
1176.359302
 20
3758.410362
 30
0.0
 10
1178.985760
 20
3756.498173
 30
0.0
  0
LWPOLYLINE
  5
2cb
100
AcDbEntity
  8
DEFAULT
 62
1
100
AcDbPolyline
 90
4
 70
0
 10
1190.302480
 20
3769.072413
 30
0.0
 10
1230.050000
 20
3769.072413
 30
0.0
 10
1230.050000
 20
4172.491373
 30
0.0
 10
1191.192320
 20
4172.491373
 30
0.0
  0
SPLINE
  5
2cc
100
AcDbEntity
  8
DEFAULT
 62
1
100
AcDbSpline
 70
8
 71
3
 72
8
 73
4
 74
0
 40
0
 40
0
 40
0
 40
0
 40
1
 40
1
 40
1
 40
1
 10
933.226000
 20
3241.392173
 30
0.0
 10
931.265824
 20
3243.786873
 30
0.0
 10
928.159491
 20
3244.927692
 30
0.0
 10
925.115347
 20
3244.370858
 30
0.0
  0
SPLINE
  5
2cd
100
AcDbEntity
  8
DEFAULT
 62
1
100
AcDbSpline
 70
8
 71
3
 72
8
 73
4
 74
0
 40
0
 40
0
 40
0
 40
0
 40
1
 40
1
 40
1
 40
1
 10
925.115347
 20
3244.370858
 30
0.0
 10
922.071204
 20
3243.814024
 30
0.0
 10
919.569858
 20
3241.647450
 30
0.0
 10
918.584320
 20
3238.713922
 30
0.0
  0
SPLINE
  5
2ce
100
AcDbEntity
  8
DEFAULT
 62
1
100
AcDbSpline
 70
8
 71
3
 72
8
 73
4
 74
0
 40
0
 40
0
 40
0
 40
0
 40
1
 40
1
 40
1
 40
1
 10
918.584320
 20
3238.713922
 30
0.0
 10
917.598782
 20
3235.780394
 30
0.0
 10
918.284648
 20
3232.543055
 30
0.0
 10
920.375120
 20
3230.261213
 30
0.0
  0
LWPOLYLINE
  5
2cf
100
AcDbEntity
  8
DEFAULT
 62
1
100
AcDbPolyline
 90
3
 70
0
 10
933.226000
 20
3241.392173
 30
0.0
 10
1178.985760
 20
3241.392173
 30
0.0
 10
1178.985760
 20
3756.498173
 30
0.0
  0
SPLINE
  5
2d0
100
AcDbEntity
  8
DEFAULT
 62
1
100
AcDbSpline
 70
8
 71
3
 72
8
 73
4
 74
0
 40
0
 40
0
 40
0
 40
0
 40
1
 40
1
 40
1
 40
1
 10
920.375120
 20
3103.239533
 30
0.0
 10
918.307169
 20
3100.982583
 30
0.0
 10
917.611784
 20
3097.788365
 30
0.0
 10
918.554373
 20
3094.876017
 30
0.0
  0
SPLINE
  5
2d1
100
AcDbEntity
  8
DEFAULT
 62
1
100
AcDbSpline
 70
8
 71
3
 72
8
 73
4
 74
0
 40
0
 40
0
 40
0
 40
0
 40
1
 40
1
 40
1
 40
1
 10
918.554373
 20
3094.876017
 30
0.0
 10
919.496962
 20
3091.963668
 30
0.0
 10
921.932059
 20
3089.782639
 30
0.0
 10
924.930261
 20
3089.165362
 30
0.0
  0
SPLINE
  5
2d2
100
AcDbEntity
  8
DEFAULT
 62
1
100
AcDbSpline
 70
8
 71
3
 72
8
 73
4
 74
0
 40
0
 40
0
 40
0
 40
0
 40
1
 40
1
 40
1
 40
1
 10
924.930261
 20
3089.165362
 30
0.0
 10
927.928464
 20
3088.548085
 30
0.0
 10
931.027072
 20
3089.589822
 30
0.0
 10
933.043440
 20
3091.892973
 30
0.0
  0
LWPOLYLINE
  5
2d3
100
AcDbEntity
  8
DEFAULT
 62
1
100
AcDbPolyline
 90
2
 70
0
 10
920.375120
 20
3103.239533
 30
0.0
 10
920.375120
 20
3230.261213
 30
0.0
  0
LWPOLYLINE
  5
2d4
100
AcDbEntity
  8
DEFAULT
 62
1
100
AcDbPolyline
 90
2
 70
0
 10
1155.692720
 20
3091.892973
 30
0.0
 10
933.043440
 20
3091.892973
 30
0.0
  0
SPLINE
  5
2d5
100
AcDbEntity
  8
DEFAULT
 62
1
100
AcDbSpline
 70
8
 71
3
 72
8
 73
4
 74
0
 40
0
 40
0
 40
0
 40
0
 40
1
 40
1
 40
1
 40
1
 10
1178.997440
 20
2654.336253
 30
0.0
 10
1176.715725
 20
2652.197220
 30
0.0
 10
1175.792291
 20
2648.978356
 30
0.0
 10
1176.593015
 20
2645.955025
 30
0.0
  0
SPLINE
  5
2d6
100
AcDbEntity
  8
DEFAULT
 62
1
100
AcDbSpline
 70
8
 71
3
 72
8
 73
4
 74
0
 40
0
 40
0
 40
0
 40
0
 40
1
 40
1
 40
1
 40
1
 10
1176.593015
 20
2645.955025
 30
0.0
 10
1177.393740
 20
2642.931695
 30
0.0
 10
1179.789381
 20
2640.591883
 30
0.0
 10
1182.830749
 20
2639.862660
 30
0.0
  0
SPLINE
  5
2d7
100
AcDbEntity
  8
DEFAULT
 62
1
100
AcDbSpline
 70
8
 71
3
 72
8
 73
4
 74
0
 40
0
 40
0
 40
0
 40
0
 40
1
 40
1
 40
1
 40
1
 10
1182.830749
 20
2639.862660
 30
0.0
 10
1185.872117
 20
2639.133437
 30
0.0
 10
1189.068315
 20
2640.132503
 30
0.0
 10
1191.152960
 20
2642.464013
 30
0.0
  0
LWPOLYLINE
  5
2d8
100
AcDbEntity
  8
DEFAULT
 62
1
100
AcDbPolyline
 90
3
 70
0
 10
1178.997440
 20
2654.336253
 30
0.0
 10
1179.427840
 20
3091.892973
 30
0.0
 10
1155.692720
 20
3091.892973
 30
0.0
  0
SPLINE
  5
2d9
100
AcDbEntity
  8
DEFAULT
 62
1
100
AcDbSpline
 70
8
 71
3
 72
8
 73
4
 74
0
 40
0
 40
0
 40
0
 40
0
 40
1
 40
1
 40
1
 40
1
 10
1191.746960
 20
2294.372653
 30
0.0
 10
1189.858153
 20
2297.031859
 30
0.0
 10
1186.614773
 20
2298.376412
 30
0.0
 10
1183.398527
 20
2297.833519
 30
0.0
  0
SPLINE
  5
2da
100
AcDbEntity
  8
DEFAULT
 62
1
100
AcDbSpline
 70
8
 71
3
 72
8
 73
4
 74
0
 40
0
 40
0
 40
0
 40
0
 40
1
 40
1
 40
1
 40
1
 10
1183.398527
 20
2297.833519
 30
0.0
 10
1180.182282
 20
2297.290627
 30
0.0
 10
1177.559942
 20
2294.955959
 30
0.0
 10
1176.648649
 20
2291.824105
 30
0.0
  0
SPLINE
  5
2db
100
AcDbEntity
  8
DEFAULT
 62
1
100
AcDbSpline
 70
8
 71
3
 72
8
 73
4
 74
0
 40
0
 40
0
 40
0
 40
0
 40
1
 40
1
 40
1
 40
1
 10
1176.648649
 20
2291.824105
 30
0.0
 10
1175.737355
 20
2288.692250
 30
0.0
 10
1176.697697
 20
2285.315109
 30
0.0
 10
1179.120560
 20
2283.131373
 30
0.0
  0
LWPOLYLINE
  5
2dc
100
AcDbEntity
  8
DEFAULT
 62
1
100
AcDbPolyline
 90
4
 70
0
 10
1191.746960
 20
2294.372653
 30
0.0
 10
1230.197760
 20
2294.372653
 30
0.0
 10
1230.197760
 20
2642.464013
 30
0.0
 10
1191.152960
 20
2642.464013
 30
0.0
  0
SPLINE
  5
2dd
100
AcDbEntity
  8
DEFAULT
 62
1
100
AcDbSpline
 70
8
 71
3
 72
8
 73
4
 74
0
 40
0
 40
0
 40
0
 40
0
 40
1
 40
1
 40
1
 40
1
 10
959.484160
 20
2075.072573
 30
0.0
 10
957.508498
 20
2077.610672
 30
0.0
 10
954.269920
 20
2078.816944
 30
0.0
 10
951.115274
 20
2078.189728
 30
0.0
  0
SPLINE
  5
2de
100
AcDbEntity
  8
DEFAULT
 62
1
100
AcDbSpline
 70
8
 71
3
 72
8
 73
4
 74
0
 40
0
 40
0
 40
0
 40
0
 40
1
 40
1
 40
1
 40
1
 10
951.115274
 20
2078.189728
 30
0.0
 10
947.960629
 20
2077.562513
 30
0.0
 10
945.429787
 20
2075.209150
 30
0.0
 10
944.575267
 20
2072.108346
 30
0.0
  0
SPLINE
  5
2df
100
AcDbEntity
  8
DEFAULT
 62
1
100
AcDbSpline
 70
8
 71
3
 72
8
 73
4
 74
0
 40
0
 40
0
 40
0
 40
0
 40
1
 40
1
 40
1
 40
1
 10
944.575267
 20
2072.108346
 30
0.0
 10
943.720746
 20
2069.007543
 30
0.0
 10
944.688786
 20
2065.689957
 30
0.0
 10
947.076800
 20
2063.535293
 30
0.0
  0
LWPOLYLINE
  5
2e0
100
AcDbEntity
  8
DEFAULT
 62
1
100
AcDbPolyline
 90
3
 70
0
 10
959.484160
 20
2075.072573
 30
0.0
 10
1181.103200
 20
2075.072573
 30
0.0
 10
1179.120560
 20
2283.131373
 30
0.0
  0
LWPOLYLINE
  5
2e1
100
AcDbEntity
  8
DEFAULT
 62
1
100
AcDbPolyline
 90
2
 70
0
 10
947.076800
 20
2032.409053
 30
0.0
 10
947.076800
 20
2063.535293
 30
0.0
  0
ENDSEC
  0
SECTION
  2
OBJECTS
  0
DICTIONARY
  5
C
330
0
100
AcDbDictionary
  3
ACAD_GROUP
350
D
  3
ACAD_MLINESTYLE
350
17
  0
DICTIONARY
  5
D
330
C
100
AcDbDictionary
  0
DICTIONARY
  5
1A
330
C
100
AcDbDictionary
  0
DICTIONARY
  5
17
330
C
100
AcDbDictionary
  3
STANDARD
350
18
  0
DICTIONARY
  5
19
330
C
100
AcDbDictionary
  0
ENDSEC
  0
EOF
