  0
SECTION
  2
HEADER
  9
$ACADVER
  1
AC1009
  9
$DWGCODEPAGE
  3
mac-roman
  9
$INSBASE
 10
0.0
 20
0.0
 30
0.0
  9
$EXTMIN
 10
1714.551056363386
 20
168.5618876182576
 30
0.0
  9
$EXTMAX
 10
2495.028038268915
 20
567.9735293091471
 30
0.0
  9
$LIMMIN
 10
0.0
 20
0.0
  9
$LIMMAX
 10
12.0
 20
9.0
  9
$ORTHOMODE
 70
     0
  9
$REGENMODE
 70
     1
  9
$FILLMODE
 70
     1
  9
$QTEXTMODE
 70
     0
  9
$MIRRTEXT
 70
     1
  9
$DRAGMODE
 70
     2
  9
$LTSCALE
 40
1.0
  9
$OSMODE
 70
    37
  9
$ATTMODE
 70
     1
  9
$TEXTSIZE
 40
0.2
  9
$TRACEWID
 40
0.05
  9
$TEXTSTYLE
  7
STANDARD
  9
$CLAYER
  8
DEFAULT
  9
$CELTYPE
  6
BYLAYER
  9
$CECOLOR
 62
   256
  9
$DIMSCALE
 40
1.0
  9
$DIMASZ
 40
0.18
  9
$DIMEXO
 40
0.0625
  9
$DIMDLI
 40
0.38
  9
$DIMRND
 40
0.0
  9
$DIMDLE
 40
0.0
  9
$DIMEXE
 40
0.18
  9
$DIMTP
 40
0.0
  9
$DIMTM
 40
0.0
  9
$DIMTXT
 40
0.18
  9
$DIMCEN
 40
0.09
  9
$DIMTSZ
 40
0.0
  9
$DIMTOL
 70
     0
  9
$DIMLIM
 70
     0
  9
$DIMTIH
 70
     1
  9
$DIMTOH
 70
     1
  9
$DIMSE1
 70
     0
  9
$DIMSE2
 70
     0
  9
$DIMTAD
 70
     0
  9
$DIMZIN
 70
     0
  9
$DIMBLK
  1

  9
$DIMASO
 70
     1
  9
$DIMSHO
 70
     1
  9
$DIMPOST
  1

  9
$DIMAPOST
  1

  9
$DIMALT
 70
     0
  9
$DIMALTD
 70
     2
  9
$DIMALTF
 40
25.4
  9
$DIMLFAC
 40
1.0
  9
$DIMTOFL
 70
     0
  9
$DIMTVP
 40
0.0
  9
$DIMTIX
 70
     0
  9
$DIMSOXD
 70
     0
  9
$DIMSAH
 70
     0
  9
$DIMBLK1
  1

  9
$DIMBLK2
  1

  9
$DIMSTYLE
  2
STANDARD
  9
$DIMCLRD
 70
     0
  9
$DIMCLRE
 70
     0
  9
$DIMCLRT
 70
     0
  9
$DIMTFAC
 40
1.0
  9
$DIMGAP
 40
0.09
  9
$LUNITS
 70
     2
  9
$LUPREC
 70
     3
  9
$SKETCHINC
 40
0.1
  9
$FILLETRAD
 40
0.5
  9
$AUNITS
 70
     0
  9
$AUPREC
 70
     0
  9
$MENU
  1
.
  9
$ELEVATION
 40
0.0
  9
$PELEVATION
 40
0.0
  9
$THICKNESS
 40
0.0
  9
$LIMCHECK
 70
     0
  9
$CHAMFERA
 40
0.0
  9
$CHAMFERB
 40
0.0
  9
$SKPOLY
 70
     0
  9
$TDCREATE
 40
2457952.663298611
  9
$TDUPDATE
 40
2457952.663310185
  9
$TDINDWG
 40
0.0000000116
  9
$TDUSRTIMER
 40
0.0000000116
  9
$USRTIMER
 70
     1
  9
$ANGBASE
 50
0.0
  9
$ANGDIR
 70
     0
  9
$PDMODE
 70
     0
  9
$PDSIZE
 40
0.0
  9
$PLINEWID
 40
0.0
  9
$COORDS
 70
     1
  9
$SPLFRAME
 70
     0
  9
$SPLINETYPE
 70
     6
  9
$SPLINESEGS
 70
     8
  9
$ATTDIA
 70
     0
  9
$ATTREQ
 70
     1
  9
$HANDLING
 70
     1
  9
$HANDSEED
  5
98
  9
$SURFTAB1
 70
     6
  9
$SURFTAB2
 70
     6
  9
$SURFTYPE
 70
     6
  9
$SURFU
 70
     6
  9
$SURFV
 70
     6
  9
$UCSNAME
  2

  9
$UCSORG
 10
0.0
 20
0.0
 30
0.0
  9
$UCSXDIR
 10
1.0
 20
0.0
 30
0.0
  9
$UCSYDIR
 10
0.0
 20
1.0
 30
0.0
  9
$PUCSNAME
  2

  9
$PUCSORG
 10
0.0
 20
0.0
 30
0.0
  9
$PUCSXDIR
 10
1.0
 20
0.0
 30
0.0
  9
$PUCSYDIR
 10
0.0
 20
1.0
 30
0.0
  9
$USERI1
 70
     0
  9
$USERI2
 70
     0
  9
$USERI3
 70
     0
  9
$USERI4
 70
     0
  9
$USERI5
 70
     0
  9
$USERR1
 40
0.0
  9
$USERR2
 40
0.0
  9
$USERR3
 40
0.0
  9
$USERR4
 40
0.0
  9
$USERR5
 40
0.0
  9
$WORLDVIEW
 70
     1
  9
$SHADEDGE
 70
     3
  9
$SHADEDIF
 70
    70
  9
$TILEMODE
 70
     1
  9
$MAXACTVP
 70
    64
  9
$PLIMCHECK
 70
     0
  9
$PEXTMIN
 10
1.000000000000000E+20
 20
1.000000000000000E+20
 30
1.000000000000000E+20
  9
$PEXTMAX
 10
-1.000000000000000E+20
 20
-1.000000000000000E+20
 30
-1.000000000000000E+20
  9
$PLIMMIN
 10
0.0
 20
0.0
  9
$PLIMMAX
 10
12.0
 20
9.0
  9
$UNITMODE
 70
     0
  9
$VISRETAIN
 70
     1
  9
$PLINEGEN
 70
     0
  9
$PSLTSCALE
 70
     1
  0
ENDSEC
  0
SECTION
  2
TABLES
  0
TABLE
  2
VPORT
 70
     1
  0
VPORT
  2
*ACTIVE
 70
     0
 10
0.0
 20
0.0
 11
1.0
 21
1.0
 12
2104.789547316151
 22
368.2677084637023
 13
0.0
 23
0.0
 14
0.5
 24
0.5
 15
0.5
 25
0.5
 16
0.0
 26
0.0
 36
1.0
 17
0.0
 27
0.0
 37
0.0
 40
407.3998745247073
 41
1.954066683187847
 42
50.0
 43
0.0
 44
0.0
 50
0.0
 51
0.0
 71
     0
 72
   100
 73
     1
 74
     3
 75
     0
 76
     0
 77
     0
 78
     0
  0
ENDTAB
  0
TABLE
  2
LTYPE
 70
     1
  0
LTYPE
  2
CONTINUOUS
 70
     0
  3
Solid line
 72
    65
 73
     0
 40
0.0
  0
ENDTAB
  0
TABLE
  2
LAYER
 70
     2
  0
LAYER
  2
0
 70
     0
 62
     7
  6
CONTINUOUS
  0
LAYER
  2
DEFAULT
 70
     0
 62
     7
  6
CONTINUOUS
  0
ENDTAB
  0
TABLE
  2
STYLE
 70
     1
  0
STYLE
  2
STANDARD
 70
     0
 40
0.0
 41
1.0
 50
0.0
 71
     0
 42
0.2
  3
txt
  4

  0
ENDTAB
  0
TABLE
  2
VIEW
 70
     0
  0
ENDTAB
  0
TABLE
  2
UCS
 70
     0
  0
ENDTAB
  0
TABLE
  2
APPID
 70
     1
  0
APPID
  2
ACAD
 70
     0
  0
ENDTAB
  0
TABLE
  2
DIMSTYLE
 70
     1
  0
DIMSTYLE
  2
STANDARD
 70
     0
  3

  4

  5

  6

  7

 40
1.0
 41
0.18
 42
0.0625
 43
0.38
 44
0.18
 45
0.0
 46
0.0
 47
0.0
 48
0.0
140
0.18
141
0.09
142
0.0
143
25.4
144
1.0
145
0.0
146
1.0
147
0.09
 71
     0
 72
     0
 73
     1
 74
     1
 75
     0
 76
     0
 77
     0
 78
     0
170
     0
171
     2
172
     0
173
     0
174
     0
175
     0
176
     0
177
     0
178
     0
  0
ENDTAB
  0
ENDSEC
  0
SECTION
  2
BLOCKS
  0
BLOCK
  8
0
  2
$MODEL_SPACE
 70
     0
 10
0.0
 20
0.0
 30
0.0
  3
$MODEL_SPACE
  1

  0
ENDBLK
  5
21
  8
0
  0
BLOCK
 67
     1
  8
0
  2
$PAPER_SPACE
 70
     0
 10
0.0
 20
0.0
 30
0.0
  3
$PAPER_SPACE
  1

  0
ENDBLK
  5
1D
 67
     1
  8
0
  0
ENDSEC
  0
SECTION
  2
ENTITIES
  0
LINE
  5
6F
  8
DEFAULT
 10
1935.988247117869
 20
182.4849199468584
 30
0.0
 11
1935.988247117869
 21
168.5618876182576
 31
0.0
  0
LINE
  5
70
  8
DEFAULT
 10
1935.988247117869
 20
168.5618876182576
 30
0.0
 11
2321.51834210335
 21
168.5618876182576
 31
0.0
  0
LINE
  5
71
  8
DEFAULT
 10
2321.51834210335
 20
168.5618876182576
 30
0.0
 11
2321.51834210335
 21
182.3191213299318
 31
0.0
  0
ARC
  5
72
  8
DEFAULT
 10
1933.76511717446
 20
184.4992916242633
 30
0.0
 40
3.000000000002728
 50
317.8203659471617
 51
359.9999999999957
  0
ARC
  5
73
  8
DEFAULT
 10
1933.765117174465
 20
184.499291624263
 30
0.0
 40
2.999999999997699
 50
0.0000000000027141
 51
42.17963405293969
  0
LINE
  5
74
  8
DEFAULT
 10
1935.95345072308
 20
186.551411572023
 30
0.0
 11
1935.988247117869
 21
186.5136633016685
 31
0.0
  0
ARC
  5
75
  8
DEFAULT
 10
1933.765117174463
 20
184.4992916242625
 30
0.0
 40
3.000000000000379
 50
43.16015391640786
 51
136.8398460835906
  0
LINE
  5
76
  8
DEFAULT
 10
1732.505000112586
 20
263.9551997220721
 30
0.0
 11
1732.505000112586
 21
186.551411572023
 31
0.0
  0
LINE
  5
77
  8
DEFAULT
 10
1732.505000112586
 20
186.551411572023
 30
0.0
 11
1931.576783625846
 21
186.551411572023
 31
0.0
  0
ARC
  5
78
  8
DEFAULT
 10
1730.531412747912
 20
266.2146140076788
 30
0.0
 40
2.999999999999773
 50
311.1370544852356
 51
359.9999999999913
  0
ARC
  5
79
  8
DEFAULT
 10
1730.531412747912
 20
266.2146140076784
 30
0.0
 40
3.00000000000028
 50
0.0
 51
139.6847647701476
  0
LINE
  5
7A
  8
DEFAULT
 10
1728.243923793466
 20
468.3798252580091
 30
0.0
 11
1714.551056363386
 21
468.3798252580091
 31
0.0
  0
LINE
  5
7B
  8
DEFAULT
 10
1714.551056363386
 20
468.3798252580091
 30
0.0
 11
1714.551056363386
 21
268.1555916693965
 31
0.0
  0
LINE
  5
7C
  8
DEFAULT
 10
1714.551056363386
 20
268.1555916693965
 30
0.0
 11
1728.243923793466
 21
268.1555916693965
 31
0.0
  0
ARC
  5
7D
  8
DEFAULT
 10
1730.531412747913
 20
470.3208029197268
 30
0.0
 40
2.999999999999545
 50
220.3152352298522
 51
0.000000000008685
  0
ARC
  5
7E
  8
DEFAULT
 10
1730.531412747914
 20
470.3208029197282
 30
0.0
 40
2.999999999998234
 50
359.9999999999815
 51
48.86294551474693
  0
LINE
  5
7F
  8
DEFAULT
 10
1931.576783625846
 20
549.9840053553821
 30
0.0
 11
1732.505000112586
 21
549.9840053553821
 31
0.0
  0
LINE
  5
80
  8
DEFAULT
 10
1732.505000112586
 20
549.9840053553821
 30
0.0
 11
1732.505000112586
 21
472.5802172053332
 31
0.0
  0
ARC
  5
81
  8
DEFAULT
 10
1933.765117174463
 20
552.0361253031424
 30
0.0
 40
3.0
 50
223.1601539164203
 51
316.8398460835919
  0
LINE
  5
82
  8
DEFAULT
 10
1935.988247117869
 20
550.0217536257371
 30
0.0
 11
1935.953450723081
 21
549.9840053553821
 31
0.0
  0
ARC
  5
83
  8
DEFAULT
 10
1933.765117174462
 20
552.0361253031427
 30
0.0
 40
3.000000000001364
 50
317.8203659471249
 51
359.9999999999935
  0
ARC
  5
84
  8
DEFAULT
 10
1933.765117174463
 20
552.0361253031424
 30
0.0
 40
3.000000000000038
 50
0.0
 51
42.17963405289846
  0
LINE
  5
85
  8
DEFAULT
 10
2321.51834210335
 20
554.2162955974736
 30
0.0
 11
2321.51834210335
 21
567.9735293091471
 31
0.0
  0
LINE
  5
86
  8
DEFAULT
 10
2321.51834210335
 20
567.9735293091471
 30
0.0
 11
1935.988247117869
 21
567.9735293091471
 31
0.0
  0
LINE
  5
87
  8
DEFAULT
 10
1935.988247117869
 20
567.9735293091471
 30
0.0
 11
1935.988247117869
 21
554.0504969805477
 31
0.0
  0
ARC
  5
88
  8
DEFAULT
 10
2323.579132604043
 20
552.0361253031424
 30
0.0
 40
2.999999999999911
 50
133.387593540792
 51
316.8398460835874
  0
LINE
  5
89
  8
DEFAULT
 10
2495.028038268915
 20
186.551411572023
 30
0.0
 11
2495.028038268915
 21
549.9840053553821
 31
0.0
  0
LINE
  5
8A
  8
DEFAULT
 10
2495.028038268915
 20
549.9840053553821
 30
0.0
 11
2325.76746615266
 21
549.9840053553821
 31
0.0
  0
LINE
  5
8B
  8
DEFAULT
 10
2325.76746615266
 20
186.551411572023
 30
0.0
 11
2495.028038268915
 21
186.551411572023
 31
0.0
  0
ARC
  5
8C
  8
DEFAULT
 10
2323.579132604042
 20
184.4992916242626
 30
0.0
 40
2.9999999999994
 50
43.16015391640628
 51
226.6124064592192
  0
LINE
  5
8D
  8
DEFAULT
 10
1866.219318853008
 20
338.7340219399258
 30
0.0
 11
1866.219318853008
 21
398.7340219399258
 31
0.0
  0
LINE
  5
8E
  8
DEFAULT
 10
1866.219318853008
 20
398.7340219399258
 30
0.0
 11
2225.092218132731
 21
398.7340219399258
 31
0.0
  0
LINE
  5
8F
  8
DEFAULT
 10
2225.092218132731
 20
398.7340219399258
 30
0.0
 11
2225.092218132731
 21
338.7340219399258
 31
0.0
  0
LINE
  5
90
  8
DEFAULT
 10
2225.092218132731
 20
338.7340219399258
 30
0.0
 11
1866.219318853008
 21
338.7340219399258
 31
0.0
  0
ENDSEC
  0
EOF
