  0
SECTION
  2
HEADER
  9
$ACADVER
  1
AC1009
  9
$DWGCODEPAGE
  3
mac-roman
  9
$INSBASE
 10
0.0
 20
0.0
 30
0.0
  9
$EXTMIN
 10
2322.312262058408
 20
9.335705396889637
 30
0.0
  9
$EXTMAX
 10
2782.312262058408
 20
489.3389770728662
 30
0.0
  9
$LIMMIN
 10
0.0
 20
0.0
  9
$LIMMAX
 10
12.0
 20
9.0
  9
$ORTHOMODE
 70
     0
  9
$REGENMODE
 70
     1
  9
$FILLMODE
 70
     1
  9
$QTEXTMODE
 70
     0
  9
$MIRRTEXT
 70
     1
  9
$DRAGMODE
 70
     2
  9
$LTSCALE
 40
1.0
  9
$OSMODE
 70
    37
  9
$ATTMODE
 70
     1
  9
$TEXTSIZE
 40
0.2
  9
$TRACEWID
 40
0.05
  9
$TEXTSTYLE
  7
STANDARD
  9
$CLAYER
  8
DEFAULT
  9
$CELTYPE
  6
BYLAYER
  9
$CECOLOR
 62
   256
  9
$DIMSCALE
 40
1.0
  9
$DIMASZ
 40
0.18
  9
$DIMEXO
 40
0.0625
  9
$DIMDLI
 40
0.38
  9
$DIMRND
 40
0.0
  9
$DIMDLE
 40
0.0
  9
$DIMEXE
 40
0.18
  9
$DIMTP
 40
0.0
  9
$DIMTM
 40
0.0
  9
$DIMTXT
 40
0.18
  9
$DIMCEN
 40
0.09
  9
$DIMTSZ
 40
0.0
  9
$DIMTOL
 70
     0
  9
$DIMLIM
 70
     0
  9
$DIMTIH
 70
     1
  9
$DIMTOH
 70
     1
  9
$DIMSE1
 70
     0
  9
$DIMSE2
 70
     0
  9
$DIMTAD
 70
     0
  9
$DIMZIN
 70
     0
  9
$DIMBLK
  1

  9
$DIMASO
 70
     1
  9
$DIMSHO
 70
     1
  9
$DIMPOST
  1

  9
$DIMAPOST
  1

  9
$DIMALT
 70
     0
  9
$DIMALTD
 70
     2
  9
$DIMALTF
 40
25.4
  9
$DIMLFAC
 40
1.0
  9
$DIMTOFL
 70
     0
  9
$DIMTVP
 40
0.0
  9
$DIMTIX
 70
     0
  9
$DIMSOXD
 70
     0
  9
$DIMSAH
 70
     0
  9
$DIMBLK1
  1

  9
$DIMBLK2
  1

  9
$DIMSTYLE
  2
STANDARD
  9
$DIMCLRD
 70
     0
  9
$DIMCLRE
 70
     0
  9
$DIMCLRT
 70
     0
  9
$DIMTFAC
 40
1.0
  9
$DIMGAP
 40
0.09
  9
$LUNITS
 70
     2
  9
$LUPREC
 70
     3
  9
$SKETCHINC
 40
0.1
  9
$FILLETRAD
 40
0.5
  9
$AUNITS
 70
     0
  9
$AUPREC
 70
     0
  9
$MENU
  1
.
  9
$ELEVATION
 40
0.0
  9
$PELEVATION
 40
0.0
  9
$THICKNESS
 40
0.0
  9
$LIMCHECK
 70
     0
  9
$CHAMFERA
 40
0.0
  9
$CHAMFERB
 40
0.0
  9
$SKPOLY
 70
     0
  9
$TDCREATE
 40
2457952.662581019
  9
$TDUPDATE
 40
2457952.662604167
  9
$TDINDWG
 40
0.0000000116
  9
$TDUSRTIMER
 40
0.0000000116
  9
$USRTIMER
 70
     1
  9
$ANGBASE
 50
0.0
  9
$ANGDIR
 70
     0
  9
$PDMODE
 70
     0
  9
$PDSIZE
 40
0.0
  9
$PLINEWID
 40
0.0
  9
$COORDS
 70
     1
  9
$SPLFRAME
 70
     0
  9
$SPLINETYPE
 70
     6
  9
$SPLINESEGS
 70
     8
  9
$ATTDIA
 70
     0
  9
$ATTREQ
 70
     1
  9
$HANDLING
 70
     1
  9
$HANDSEED
  5
98
  9
$SURFTAB1
 70
     6
  9
$SURFTAB2
 70
     6
  9
$SURFTYPE
 70
     6
  9
$SURFU
 70
     6
  9
$SURFV
 70
     6
  9
$UCSNAME
  2

  9
$UCSORG
 10
0.0
 20
0.0
 30
0.0
  9
$UCSXDIR
 10
1.0
 20
0.0
 30
0.0
  9
$UCSYDIR
 10
0.0
 20
1.0
 30
0.0
  9
$PUCSNAME
  2

  9
$PUCSORG
 10
0.0
 20
0.0
 30
0.0
  9
$PUCSXDIR
 10
1.0
 20
0.0
 30
0.0
  9
$PUCSYDIR
 10
0.0
 20
1.0
 30
0.0
  9
$USERI1
 70
     0
  9
$USERI2
 70
     0
  9
$USERI3
 70
     0
  9
$USERI4
 70
     0
  9
$USERI5
 70
     0
  9
$USERR1
 40
0.0
  9
$USERR2
 40
0.0
  9
$USERR3
 40
0.0
  9
$USERR4
 40
0.0
  9
$USERR5
 40
0.0
  9
$WORLDVIEW
 70
     1
  9
$SHADEDGE
 70
     3
  9
$SHADEDIF
 70
    70
  9
$TILEMODE
 70
     1
  9
$MAXACTVP
 70
    64
  9
$PLIMCHECK
 70
     0
  9
$PEXTMIN
 10
1.000000000000000E+20
 20
1.000000000000000E+20
 30
1.000000000000000E+20
  9
$PEXTMAX
 10
-1.000000000000000E+20
 20
-1.000000000000000E+20
 30
-1.000000000000000E+20
  9
$PLIMMIN
 10
0.0
 20
0.0
  9
$PLIMMAX
 10
12.0
 20
9.0
  9
$UNITMODE
 70
     0
  9
$VISRETAIN
 70
     1
  9
$PLINEGEN
 70
     0
  9
$PSLTSCALE
 70
     1
  0
ENDSEC
  0
SECTION
  2
TABLES
  0
TABLE
  2
VPORT
 70
     1
  0
VPORT
  2
*ACTIVE
 70
     0
 10
0.0
 20
0.0
 11
1.0
 21
1.0
 12
2552.312262058408
 22
249.3373412348779
 13
0.0
 23
0.0
 14
0.5
 24
0.5
 15
0.5
 25
0.5
 16
0.0
 26
0.0
 36
1.0
 17
0.0
 27
0.0
 37
0.0
 40
489.6033371094961
 41
0.9583268013858879
 42
50.0
 43
0.0
 44
0.0
 50
0.0
 51
0.0
 71
     0
 72
   100
 73
     1
 74
     3
 75
     0
 76
     0
 77
     0
 78
     0
  0
ENDTAB
  0
TABLE
  2
LTYPE
 70
     1
  0
LTYPE
  2
CONTINUOUS
 70
     0
  3
Solid line
 72
    65
 73
     0
 40
0.0
  0
ENDTAB
  0
TABLE
  2
LAYER
 70
     2
  0
LAYER
  2
0
 70
     0
 62
     7
  6
CONTINUOUS
  0
LAYER
  2
DEFAULT
 70
     0
 62
     7
  6
CONTINUOUS
  0
ENDTAB
  0
TABLE
  2
STYLE
 70
     1
  0
STYLE
  2
STANDARD
 70
     0
 40
0.0
 41
1.0
 50
0.0
 71
     0
 42
0.2
  3
txt
  4

  0
ENDTAB
  0
TABLE
  2
VIEW
 70
     0
  0
ENDTAB
  0
TABLE
  2
UCS
 70
     0
  0
ENDTAB
  0
TABLE
  2
APPID
 70
     1
  0
APPID
  2
ACAD
 70
     0
  0
ENDTAB
  0
TABLE
  2
DIMSTYLE
 70
     1
  0
DIMSTYLE
  2
STANDARD
 70
     0
  3

  4

  5

  6

  7

 40
1.0
 41
0.18
 42
0.0625
 43
0.38
 44
0.18
 45
0.0
 46
0.0
 47
0.0
 48
0.0
140
0.18
141
0.09
142
0.0
143
25.4
144
1.0
145
0.0
146
1.0
147
0.09
 71
     0
 72
     0
 73
     1
 74
     1
 75
     0
 76
     0
 77
     0
 78
     0
170
     0
171
     2
172
     0
173
     0
174
     0
175
     0
176
     0
177
     0
178
     0
  0
ENDTAB
  0
ENDSEC
  0
SECTION
  2
BLOCKS
  0
BLOCK
  8
0
  2
$MODEL_SPACE
 70
     0
 10
0.0
 20
0.0
 30
0.0
  3
$MODEL_SPACE
  1

  0
ENDBLK
  5
21
  8
0
  0
BLOCK
 67
     1
  8
0
  2
$PAPER_SPACE
 70
     0
 10
0.0
 20
0.0
 30
0.0
  3
$PAPER_SPACE
  1

  0
ENDBLK
  5
1D
 67
     1
  8
0
  0
ENDSEC
  0
SECTION
  2
ENTITIES
  0
LINE
  5
6F
  8
DEFAULT
 10
2451.982825025861
 20
393.7699882613592
 30
0.0
 11
2451.982825025861
 21
402.7492949324605
 31
0.0
  0
ARC
  5
70
  8
DEFAULT
 10
2454.044074359113
 20
391.590251766689
 30
0.0
 40
2.999999999999537
 50
133.3996530504539
 51
316.7013390419644
  0
LINE
  5
71
  8
DEFAULT
 10
2647.962442924698
 20
389.5328477341259
 30
0.0
 11
2456.227440715635
 21
389.5328477341259
 31
0.0
  0
ARC
  5
72
  8
DEFAULT
 10
2650.14580928122
 20
391.5902517666884
 30
0.0
 40
2.999999999999952
 50
223.2986609580188
 51
46.60034694956882
  0
LINE
  5
73
  8
DEFAULT
 10
2652.207058614473
 20
402.7492949324595
 30
0.0
 11
2652.207058614473
 21
393.7699882613598
 31
0.0
  0
ARC
  5
74
  8
DEFAULT
 10
2650.145809281221
 20
404.9290314271305
 30
0.0
 40
2.999999999999858
 50
313.3996530504234
 51
134.1081677978958
  0
LINE
  5
75
  8
DEFAULT
 10
2456.132119845085
 20
407.0831126810555
 30
0.0
 11
2648.057763795249
 21
407.0831126810555
 31
0.0
  0
ARC
  5
76
  8
DEFAULT
 10
2454.044074359113
 20
404.9290314271302
 30
0.0
 40
2.999999999999963
 50
45.89183220211348
 51
226.6003469495212
  0
LINE
  5
77
  8
DEFAULT
 10
2456.37203201775
 20
26.9320782448427
 30
0.0
 11
2648.059770811339
 21
26.9320782448427
 31
0.0
  0
ARC
  5
78
  8
DEFAULT
 10
2454.300589352581
 20
24.76202633649592
 30
0.0
 40
2.999999999998988
 50
46.33181258650975
 51
133.668187413481
  0
LINE
  5
79
  8
DEFAULT
 10
2452.219146664891
 20
26.92248840231821
 30
0.0
 11
2452.229146687416
 21
26.9320782448427
 31
0.0
  0
ARC
  5
7A
  8
DEFAULT
 10
2454.300589352579
 20
24.76202633649473
 30
0.0
 40
2.999999999997785
 50
133.9328017620419
 51
226.067198237958
  0
LINE
  5
7B
  8
DEFAULT
 10
2322.312262058408
 20
489.3357053968897
 30
0.0
 11
2322.312262058408
 21
9.335705396889637
 31
0.0
  0
LINE
  5
7C
  8
DEFAULT
 10
2322.312262058408
 20
9.335705396889637
 30
0.0
 11
2452.219146664891
 21
9.381813297913311
 31
0.0
  0
LINE
  5
7D
  8
DEFAULT
 10
2452.219146664891
 20
9.381813297913311
 30
0.0
 11
2452.219146664891
 21
22.60156427067129
 31
0.0
  0
LINE
  5
7E
  8
DEFAULT
 10
2352.312262058408
 20
254.4550732382433
 30
0.0
 11
2352.312262058408
 21
489.3357053968897
 31
0.0
  0
LINE
  5
7F
  8
DEFAULT
 10
2352.312262058408
 20
489.3357053968897
 30
0.0
 11
2322.312262058408
 21
489.3357053968897
 31
0.0
  0
ARC
  5
80
  8
DEFAULT
 10
2354.322849521943
 20
252.228520285476
 30
0.0
 40
2.999999999999602
 50
132.0821801730038
 51
315.8409814804348
  0
LINE
  5
81
  8
DEFAULT
 10
2365.606877640607
 20
250.1385638480266
 30
0.0
 11
2356.47507676124
 21
250.1385638480266
 31
0.0
  0
ARC
  5
82
  8
DEFAULT
 10
2367.759104879904
 20
252.2285202854753
 30
0.0
 40
2.999999999999091
 50
224.1590185195432
 51
0.0000000000119419
  0
ARC
  5
83
  8
DEFAULT
 10
2367.759104879899
 20
252.2285202854739
 30
0.0
 40
3.000000000004082
 50
0.000000000037997
 51
44.16234446800891
  0
LINE
  5
84
  8
DEFAULT
 10
2734.755085518964
 20
254.3794930339226
 30
0.0
 11
2734.755085518964
 21
489.3357053968897
 31
0.0
  0
LINE
  5
85
  8
DEFAULT
 10
2734.755085518964
 20
489.3357053968897
 30
0.0
 11
2369.911210796211
 21
489.3389770728662
 31
0.0
  0
LINE
  5
86
  8
DEFAULT
 10
2369.911210796211
 20
489.3389770728662
 30
0.0
 11
2369.911210796211
 21
254.3186016535079
 31
0.0
  0
ARC
  5
87
  8
DEFAULT
 10
2736.846333049848
 20
252.2285202854781
 30
0.0
 40
2.999999999995907
 50
134.1933995396905
 51
180.0000000000477
  0
ARC
  5
88
  8
DEFAULT
 10
2736.846333049851
 20
252.2285202854747
 30
0.0
 40
2.999999999999096
 50
179.9999999999832
 51
315.8409814804572
  0
LINE
  5
89
  8
DEFAULT
 10
2748.130361168515
 20
250.1385638480266
 30
0.0
 11
2738.998560289147
 21
250.1385638480266
 31
0.0
  0
ARC
  5
8A
  8
DEFAULT
 10
2750.282588407812
 20
252.228520285476
 30
0.0
 40
3.000000000000086
 50
224.1590185195496
 51
46.33172852508407
  0
LINE
  5
8B
  8
DEFAULT
 10
2652.443380253503
 20
22.83645265091108
 30
0.0
 11
2652.443380253503
 21
9.381813297913311
 31
0.0
  0
LINE
  5
8C
  8
DEFAULT
 10
2652.443380253503
 20
9.381813297913311
 30
0.0
 11
2782.312262058408
 21
9.335705396889637
 31
0.0
  0
LINE
  5
8D
  8
DEFAULT
 10
2782.312262058408
 20
9.335705396889637
 30
0.0
 11
2782.312262058408
 21
489.3357053968897
 31
0.0
  0
LINE
  5
8E
  8
DEFAULT
 10
2782.312262058408
 20
489.3357053968897
 30
0.0
 11
2752.354034256767
 21
489.3389770728662
 31
0.0
  0
LINE
  5
8F
  8
DEFAULT
 10
2752.354034256767
 20
489.3389770728662
 30
0.0
 11
2752.354034256767
 21
254.3985691547064
 31
0.0
  0
ARC
  5
90
  8
DEFAULT
 10
2650.285400505786
 20
24.92046882370926
 30
0.0
 40
3.000000000000508
 50
315.9989098024579
 51
137.8915163885216
  0
ENDSEC
  0
EOF
