  0
SECTION
  2
HEADER
  9
$ACADVER
  1
AC1014
  9
$HANDSEED
  5
FFFF
  9
$MEASUREMENT
 70
     1
  0
ENDSEC
  0
SECTION
  2
TABLES
  0
TABLE
  2
VPORT
  5
8
330
0
100
AcDbSymbolTable
 70
     4
  0
VPORT
  5
2E
330
8
100
AcDbSymbolTableRecord
100
AcDbViewportTableRecord
  2
*ACTIVE
 70
     0
 10
0.0
 20
0.0
 11
1.0
 21
1.0
 12
210.0
 22
148.5
 13
0.0
 23
0.0
 14
10.0
 24
10.0
 15
10.0
 25
10.0
 16
0.0
 26
0.0
 36
1.0
 17
0.0
 27
0.0
 37
0.0
 40
341.0
 41
1.24
 42
50.0
 43
0.0
 44
0.0
 50
0.0
 51
0.0
 71
     0
 72
   100
 73
     1
 74
     3
 75
     0
 76
     0
 77
     0
 78
     0
  0
ENDTAB
  0
TABLE
  2
LTYPE
  5
5
330
0
100
AcDbSymbolTable
 70
     1
  0
LTYPE
  5
14
330
5
100
AcDbSymbolTableRecord
100
AcDbLinetypeTableRecord
  2
BYBLOCK
 70
     0
  3

 72
    65
 73
     0
 40
0.0
  0
LTYPE
  5
15
330
5
100
AcDbSymbolTableRecord
100
AcDbLinetypeTableRecord
  2
BYLAYER
 70
     0
  3

 72
    65
 73
     0
 40
0.0
  0
LTYPE
  5
16
330
5
100
AcDbSymbolTableRecord
100
AcDbLinetypeTableRecord
  2
CONTINUOUS
 70
     0
  3
Solid line
 72
    65
 73
     0
 40
0.0
  0
ENDTAB
  0
TABLE
  2
LAYER
  5
2
100
AcDbSymbolTable
 70
2
  0
LAYER
  5
50
100
AcDbSymbolTableRecord
100
AcDbLayerTableRecord
  2
0
 70
0
  6
CONTINUOUS
  0
LAYER
  5
51
100
AcDbSymbolTableRecord
100
AcDbLayerTableRecord
  2
Default
 70
0
  6
CONTINUOUS
  0
ENDTAB
  0
TABLE
  2
STYLE
  5
3
330
0
100
AcDbSymbolTable
 70
     1
  0
STYLE
  5
11
330
3
100
AcDbSymbolTableRecord
100
AcDbTextStyleTableRecord
  2
STANDARD
 70
     0
 40
0.0
 41
1.0
 50
0.0
 71
     0
 42
2.5
  3
txt
  4

  0
ENDTAB
  0
TABLE
  2
VIEW
  5
6
330
0
100
AcDbSymbolTable
 70
     0
  0
ENDTAB
  0
TABLE
  2
UCS
  5
7
330
0
100
AcDbSymbolTable
 70
     0
  0
ENDTAB
  0
TABLE
  2
APPID
  5
9
330
0
100
AcDbSymbolTable
 70
     2
  0
APPID
  5
12
330
9
100
AcDbSymbolTableRecord
100
AcDbRegAppTableRecord
  2
ACAD
 70
     0
  0
ENDTAB
  0
TABLE
  2
DIMSTYLE
  5
A
330
0
100
AcDbSymbolTable
 70
     1
  0
DIMSTYLE
105
27
330
A
100
AcDbSymbolTableRecord
100
AcDbDimStyleTableRecord
  2
ISO-25
 70
     0
  3

  4

  5

  6

  7

 40
1.0
 41
2.5
 42
0.625
 43
3.75
 44
1.25
 45
0.0
 46
0.0
 47
0.0
 48
0.0
140
2.5
141
2.5
142
0.0
143
0.03937007874016
144
1.0
145
0.0
146
1.0
147
0.625
 71
     0
 72
     0
 73
     0
 74
     0
 75
     0
 76
     0
 77
     1
 78
     8
170
     0
171
     3
172
     1
173
     0
174
     0
175
     0
176
     0
177
     0
178
     0
270
     2
271
     2
272
     2
273
     2
274
     3
340
11
275
     0
280
     0
281
     0
282
     0
283
     0
284
     8
285
     0
286
     0
287
     3
288
     0
  0
ENDTAB
  0
TABLE
  2
BLOCK_RECORD
  5
1
330
0
100
AcDbSymbolTable
 70
     1
  0
BLOCK_RECORD
  5
1F
330
1
100
AcDbSymbolTableRecord
100
AcDbBlockTableRecord
  2
*MODEL_SPACE
  0
BLOCK_RECORD
  5
1B
330
1
100
AcDbSymbolTableRecord
100
AcDbBlockTableRecord
  2
*PAPER_SPACE
  0
ENDTAB
  0
ENDSEC
  0
SECTION
  2
BLOCKS
  0
BLOCK
  5
20
330
1F
100
AcDbEntity
  8
0
100
AcDbBlockBegin
  2
*MODEL_SPACE
 70
     0
 10
0.0
 20
0.0
 30
0.0
  3
*MODEL_SPACE
  1

  0
ENDBLK
  5
21
330
1F
100
AcDbEntity
  8
0
100
AcDbBlockEnd
  0
BLOCK
  5
1C
330
1B
100
AcDbEntity
 67
     1
  8
0
100
AcDbBlockBegin
  2
*PAPER_SPACE
  1

  0
ENDBLK
  5
1D
330
1B
100
AcDbEntity
 67
     1
  8
0
100
AcDbBlockEnd
  0
ENDSEC
  0
SECTION
  2
ENTITIES
  0
SPLINE
  5
100
100
AcDbEntity
  8
Default
 62
7
100
AcDbSpline
 70
8
 71
3
 72
8
 73
4
 74
0
 40
0
 40
0
 40
0
 40
0
 40
1
 40
1
 40
1
 40
1
 10
2497.845200
 20
2366.240484
 30
0.0
 10
2499.518880
 20
2327.982884
 30
0.0
 10
2500.756160
 20
2289.562404
 30
0.0
 10
2501.638000
 20
2251.187524
 30
0.0
  0
SPLINE
  5
101
100
AcDbEntity
  8
Default
 62
7
100
AcDbSpline
 70
8
 71
3
 72
8
 73
4
 74
0
 40
0
 40
0
 40
0
 40
0
 40
1
 40
1
 40
1
 40
1
 10
2501.638000
 20
2251.187524
 30
0.0
 10
2502.985120
 20
2192.561844
 30
0.0
 10
2503.510640
 20
2133.636564
 30
0.0
 10
2503.410640
 20
2074.958724
 30
0.0
  0
SPLINE
  5
102
100
AcDbEntity
  8
Default
 62
7
100
AcDbSpline
 70
8
 71
3
 72
8
 73
4
 74
0
 40
0
 40
0
 40
0
 40
0
 40
1
 40
1
 40
1
 40
1
 10
2503.410640
 20
2074.958724
 30
0.0
 10
2503.402640
 20
2072.469764
 30
0.0
 10
2503.401840
 20
2069.980484
 30
0.0
 10
2503.394640
 20
2067.491204
 30
0.0
  0
SPLINE
  5
103
100
AcDbEntity
  8
Default
 62
7
100
AcDbSpline
 70
8
 71
3
 72
8
 73
4
 74
0
 40
0
 40
0
 40
0
 40
0
 40
1
 40
1
 40
1
 40
1
 10
2503.394560
 20
2067.491204
 30
0.0
 10
2503.402560
 20
2069.980484
 30
0.0
 10
2503.405760
 20
2072.469764
 30
0.0
 10
2503.410560
 20
2074.958724
 30
0.0
  0
SPLINE
  5
104
100
AcDbEntity
  8
Default
 62
7
100
AcDbSpline
 70
8
 71
3
 72
8
 73
4
 74
0
 40
0
 40
0
 40
0
 40
0
 40
1
 40
1
 40
1
 40
1
 10
2503.410400
 20
2074.958724
 30
0.0
 10
2503.510480
 20
2133.636564
 30
0.0
 10
2502.984960
 20
2192.561844
 30
0.0
 10
2501.637760
 20
2251.187524
 30
0.0
  0
SPLINE
  5
105
100
AcDbEntity
  8
Default
 62
7
100
AcDbSpline
 70
8
 71
3
 72
8
 73
4
 74
0
 40
0
 40
0
 40
0
 40
0
 40
1
 40
1
 40
1
 40
1
 10
2501.637760
 20
2251.187524
 30
0.0
 10
2500.755920
 20
2289.562404
 30
0.0
 10
2499.518640
 20
2327.982884
 30
0.0
 10
2497.844960
 20
2366.240484
 30
0.0
  0
SPLINE
  5
106
100
AcDbEntity
  8
Default
 62
7
100
AcDbSpline
 70
8
 71
3
 72
8
 73
4
 74
0
 40
0
 40
0
 40
0
 40
0
 40
1
 40
1
 40
1
 40
1
 10
2497.845200
 20
2366.240484
 30
0.0
 10
2499.518880
 20
2327.982884
 30
0.0
 10
2500.756160
 20
2289.562404
 30
0.0
 10
2501.638000
 20
2251.187524
 30
0.0
  0
SPLINE
  5
107
100
AcDbEntity
  8
Default
 62
7
100
AcDbSpline
 70
8
 71
3
 72
8
 73
4
 74
0
 40
0
 40
0
 40
0
 40
0
 40
1
 40
1
 40
1
 40
1
 10
2501.638000
 20
2251.187524
 30
0.0
 10
2502.985120
 20
2192.561844
 30
0.0
 10
2503.510640
 20
2133.636564
 30
0.0
 10
2503.410640
 20
2074.958724
 30
0.0
  0
SPLINE
  5
108
100
AcDbEntity
  8
Default
 62
7
100
AcDbSpline
 70
8
 71
3
 72
8
 73
4
 74
0
 40
0
 40
0
 40
0
 40
0
 40
1
 40
1
 40
1
 40
1
 10
2503.410640
 20
2074.958724
 30
0.0
 10
2503.402640
 20
2072.469764
 30
0.0
 10
2503.401840
 20
2069.980484
 30
0.0
 10
2503.394640
 20
2067.491204
 30
0.0
  0
LWPOLYLINE
  5
109
100
AcDbEntity
  8
Default
 62
7
100
AcDbPolyline
 90
2
 70
0
 10
2503.394560
 20
2067.491204
 30
0.0
 10
2503.394560
 20
2067.491204
 30
0.0
  0
LWPOLYLINE
  5
10a
100
AcDbEntity
  8
Default
 62
7
100
AcDbPolyline
 90
2
 70
0
 10
2497.845200
 20
2366.240484
 30
0.0
 10
2497.845200
 20
2366.240484
 30
0.0
  0
SPLINE
  5
10b
100
AcDbEntity
  8
Default
 62
7
100
AcDbSpline
 70
8
 71
3
 72
8
 73
4
 74
0
 40
0
 40
0
 40
0
 40
0
 40
1
 40
1
 40
1
 40
1
 10
2761.546320
 20
2766.030244
 30
0.0
 10
2771.835520
 20
2738.911924
 30
0.0
 10
2781.232640
 20
2711.630964
 30
0.0
 10
2789.802800
 20
2683.767764
 30
0.0
  0
SPLINE
  5
10c
100
AcDbEntity
  8
Default
 62
7
100
AcDbSpline
 70
8
 71
3
 72
8
 73
4
 74
0
 40
0
 40
0
 40
0
 40
0
 40
1
 40
1
 40
1
 40
1
 10
2789.802800
 20
2683.767764
 30
0.0
 10
2798.364400
 20
2655.932244
 30
0.0
 10
2805.982320
 20
2627.903684
 30
0.0
 10
2812.778240
 20
2599.457524
 30
0.0
  0
SPLINE
  5
10d
100
AcDbEntity
  8
Default
 62
7
100
AcDbSpline
 70
8
 71
3
 72
8
 73
4
 74
0
 40
0
 40
0
 40
0
 40
0
 40
1
 40
1
 40
1
 40
1
 10
2812.778240
 20
2599.457524
 30
0.0
 10
2821.580960
 20
2562.611604
 30
0.0
 10
2828.920640
 20
2525.417284
 30
0.0
 10
2835.046240
 20
2487.930804
 30
0.0
  0
SPLINE
  5
10e
100
AcDbEntity
  8
Default
 62
7
100
AcDbSpline
 70
8
 71
3
 72
8
 73
4
 74
0
 40
0
 40
0
 40
0
 40
0
 40
1
 40
1
 40
1
 40
1
 10
2761.546320
 20
2766.030244
 30
0.0
 10
2660.569600
 20
2766.030244
 30
0.0
 10
2559.592800
 20
2766.030244
 30
0.0
 10
2458.616000
 20
2766.030244
 30
0.0
  0
SPLINE
  5
10f
100
AcDbEntity
  8
Default
 62
7
100
AcDbSpline
 70
8
 71
3
 72
8
 73
4
 74
0
 40
0
 40
0
 40
0
 40
0
 40
1
 40
1
 40
1
 40
1
 10
2490.892480
 20
2487.930804
 30
0.0
 10
2487.406320
 20
2536.513524
 30
0.0
 10
2483.016240
 20
2584.775044
 30
0.0
 10
2477.420000
 20
2632.852804
 30
0.0
  0
SPLINE
  5
110
100
AcDbEntity
  8
Default
 62
7
100
AcDbSpline
 70
8
 71
3
 72
8
 73
4
 74
0
 40
0
 40
0
 40
0
 40
0
 40
1
 40
1
 40
1
 40
1
 10
2477.420000
 20
2632.852804
 30
0.0
 10
2474.768880
 20
2655.628564
 30
0.0
 10
2471.853600
 20
2678.311364
 30
0.0
 10
2468.651440
 20
2700.919284
 30
0.0
  0
SPLINE
  5
111
100
AcDbEntity
  8
Default
 62
7
100
AcDbSpline
 70
8
 71
3
 72
8
 73
4
 74
0
 40
0
 40
0
 40
0
 40
0
 40
1
 40
1
 40
1
 40
1
 10
2468.651440
 20
2700.919284
 30
0.0
 10
2465.563680
 20
2722.720084
 30
0.0
 10
2462.217040
 20
2744.417524
 30
0.0
 10
2458.616000
 20
2766.030244
 30
0.0
  0
SPLINE
  5
112
100
AcDbEntity
  8
Default
 62
7
100
AcDbSpline
 70
8
 71
3
 72
8
 73
4
 74
0
 40
0
 40
0
 40
0
 40
0
 40
1
 40
1
 40
1
 40
1
 10
2490.892480
 20
2487.930804
 30
0.0
 10
2450.926560
 20
2464.020964
 30
0.0
 10
2408.080640
 20
2441.919444
 30
0.0
 10
2364.155440
 20
2425.798484
 30
0.0
  0
SPLINE
  5
113
100
AcDbEntity
  8
Default
 62
7
100
AcDbSpline
 70
8
 71
3
 72
8
 73
4
 74
0
 40
0
 40
0
 40
0
 40
0
 40
1
 40
1
 40
1
 40
1
 10
2364.155440
 20
2425.798484
 30
0.0
 10
2341.438880
 20
2417.461284
 30
0.0
 10
2318.188240
 20
2410.635684
 30
0.0
 10
2294.421600
 20
2405.909764
 30
0.0
  0
SPLINE
  5
114
100
AcDbEntity
  8
Default
 62
7
100
AcDbSpline
 70
8
 71
3
 72
8
 73
4
 74
0
 40
0
 40
0
 40
0
 40
0
 40
1
 40
1
 40
1
 40
1
 10
2294.421600
 20
2405.909764
 30
0.0
 10
2270.282800
 20
2401.109764
 30
0.0
 10
2246.064400
 20
2398.567284
 30
0.0
 10
2221.431360
 20
2398.560404
 30
0.0
  0
SPLINE
  5
115
100
AcDbEntity
  8
Default
 62
7
100
AcDbSpline
 70
8
 71
3
 72
8
 73
4
 74
0
 40
0
 40
0
 40
0
 40
0
 40
1
 40
1
 40
1
 40
1
 10
2221.431360
 20
2398.560404
 30
0.0
 10
2273.946480
 20
2398.568404
 30
0.0
 10
2326.009520
 20
2400.794964
 30
0.0
 10
2378.343440
 20
2405.119364
 30
0.0
  0
SPLINE
  5
116
100
AcDbEntity
  8
Default
 62
7
100
AcDbSpline
 70
8
 71
3
 72
8
 73
4
 74
0
 40
0
 40
0
 40
0
 40
0
 40
1
 40
1
 40
1
 40
1
 10
2378.343440
 20
2405.119364
 30
0.0
 10
2430.588160
 20
2409.436404
 30
0.0
 10
2482.474400
 20
2415.792404
 30
0.0
 10
2534.264800
 20
2423.867764
 30
0.0
  0
SPLINE
  5
117
100
AcDbEntity
  8
Default
 62
7
100
AcDbSpline
 70
8
 71
3
 72
8
 73
4
 74
0
 40
0
 40
0
 40
0
 40
0
 40
1
 40
1
 40
1
 40
1
 10
2534.264800
 20
2423.867764
 30
0.0
 10
2635.210560
 20
2439.607684
 30
0.0
 10
2736.248240
 20
2461.974964
 30
0.0
 10
2835.046240
 20
2487.930804
 30
0.0
  0
SPLINE
  5
118
100
AcDbEntity
  8
Default
 62
7
100
AcDbSpline
 70
8
 71
3
 72
8
 73
4
 74
0
 40
0
 40
0
 40
0
 40
0
 40
1
 40
1
 40
1
 40
1
 10
2458.616000
 20
2766.030244
 30
0.0
 10
2300.492880
 20
2766.030244
 30
0.0
 10
2142.369840
 20
2766.030244
 30
0.0
 10
1984.246720
 20
2766.030244
 30
0.0
  0
SPLINE
  5
119
100
AcDbEntity
  8
Default
 62
7
100
AcDbSpline
 70
8
 71
3
 72
8
 73
4
 74
0
 40
0
 40
0
 40
0
 40
0
 40
1
 40
1
 40
1
 40
1
 10
2458.616000
 20
2766.030244
 30
0.0
 10
2300.492880
 20
2766.030244
 30
0.0
 10
2142.369840
 20
2766.030244
 30
0.0
 10
1984.246720
 20
2766.030244
 30
0.0
  0
SPLINE
  5
11a
100
AcDbEntity
  8
Default
 62
7
100
AcDbSpline
 70
8
 71
3
 72
8
 73
4
 74
0
 40
0
 40
0
 40
0
 40
0
 40
1
 40
1
 40
1
 40
1
 10
1951.970240
 20
2487.930804
 30
0.0
 10
1995.356400
 20
2461.973684
 30
0.0
 10
2039.722960
 20
2439.581444
 30
0.0
 10
2084.052320
 20
2423.833284
 30
0.0
  0
SPLINE
  5
11b
100
AcDbEntity
  8
Default
 62
7
100
AcDbSpline
 70
8
 71
3
 72
8
 73
4
 74
0
 40
0
 40
0
 40
0
 40
0
 40
1
 40
1
 40
1
 40
1
 10
2084.052320
 20
2423.833284
 30
0.0
 10
2106.796960
 20
2415.753124
 30
0.0
 10
2129.579360
 20
2409.398564
 30
0.0
 10
2152.524080
 20
2405.087764
 30
0.0
  0
SPLINE
  5
11c
100
AcDbEntity
  8
Default
 62
7
100
AcDbSpline
 70
8
 71
3
 72
8
 73
4
 74
0
 40
0
 40
0
 40
0
 40
0
 40
1
 40
1
 40
1
 40
1
 10
2152.524080
 20
2405.087764
 30
0.0
 10
2175.507360
 20
2400.769684
 30
0.0
 10
2198.368800
 20
2398.554084
 30
0.0
 10
2221.431360
 20
2398.560404
 30
0.0
  0
SPLINE
  5
11d
100
AcDbEntity
  8
Default
 62
7
100
AcDbSpline
 70
8
 71
3
 72
8
 73
4
 74
0
 40
0
 40
0
 40
0
 40
0
 40
1
 40
1
 40
1
 40
1
 10
2221.431360
 20
2398.560404
 30
0.0
 10
2244.492720
 20
2398.568404
 30
0.0
 10
2267.355520
 20
2400.794964
 30
0.0
 10
2290.337280
 20
2405.119364
 30
0.0
  0
SPLINE
  5
11e
100
AcDbEntity
  8
Default
 62
7
100
AcDbSpline
 70
8
 71
3
 72
8
 73
4
 74
0
 40
0
 40
0
 40
0
 40
0
 40
1
 40
1
 40
1
 40
1
 10
2290.337280
 20
2405.119364
 30
0.0
 10
2313.279920
 20
2409.436404
 30
0.0
 10
2336.065120
 20
2415.792404
 30
0.0
 10
2358.808240
 20
2423.867764
 30
0.0
  0
SPLINE
  5
11f
100
AcDbEntity
  8
Default
 62
7
100
AcDbSpline
 70
8
 71
3
 72
8
 73
4
 74
0
 40
0
 40
0
 40
0
 40
0
 40
1
 40
1
 40
1
 40
1
 10
2358.808240
 20
2423.867764
 30
0.0
 10
2403.137280
 20
2439.607684
 30
0.0
 10
2447.506640
 20
2461.974964
 30
0.0
 10
2490.892480
 20
2487.930804
 30
0.0
  0
SPLINE
  5
120
100
AcDbEntity
  8
Default
 62
7
100
AcDbSpline
 70
8
 71
3
 72
8
 73
4
 74
0
 40
0
 40
0
 40
0
 40
0
 40
1
 40
1
 40
1
 40
1
 10
2490.892480
 20
2487.930804
 30
0.0
 10
2447.506640
 20
2461.974964
 30
0.0
 10
2403.137280
 20
2439.607684
 30
0.0
 10
2358.808240
 20
2423.867764
 30
0.0
  0
SPLINE
  5
121
100
AcDbEntity
  8
Default
 62
7
100
AcDbSpline
 70
8
 71
3
 72
8
 73
4
 74
0
 40
0
 40
0
 40
0
 40
0
 40
1
 40
1
 40
1
 40
1
 10
2358.808240
 20
2423.867764
 30
0.0
 10
2336.065120
 20
2415.792404
 30
0.0
 10
2313.279920
 20
2409.436404
 30
0.0
 10
2290.337280
 20
2405.119364
 30
0.0
  0
SPLINE
  5
122
100
AcDbEntity
  8
Default
 62
7
100
AcDbSpline
 70
8
 71
3
 72
8
 73
4
 74
0
 40
0
 40
0
 40
0
 40
0
 40
1
 40
1
 40
1
 40
1
 10
2290.337280
 20
2405.119364
 30
0.0
 10
2267.355520
 20
2400.794964
 30
0.0
 10
2244.492720
 20
2398.566804
 30
0.0
 10
2221.431360
 20
2398.560404
 30
0.0
  0
SPLINE
  5
123
100
AcDbEntity
  8
Default
 62
7
100
AcDbSpline
 70
8
 71
3
 72
8
 73
4
 74
0
 40
0
 40
0
 40
0
 40
0
 40
1
 40
1
 40
1
 40
1
 10
2221.431360
 20
2398.560404
 30
0.0
 10
2198.368800
 20
2398.552404
 30
0.0
 10
2175.507360
 20
2400.769684
 30
0.0
 10
2152.524080
 20
2405.087764
 30
0.0
  0
SPLINE
  5
124
100
AcDbEntity
  8
Default
 62
7
100
AcDbSpline
 70
8
 71
3
 72
8
 73
4
 74
0
 40
0
 40
0
 40
0
 40
0
 40
1
 40
1
 40
1
 40
1
 10
2152.524080
 20
2405.087764
 30
0.0
 10
2129.579360
 20
2409.398564
 30
0.0
 10
2106.796960
 20
2415.753124
 30
0.0
 10
2084.052320
 20
2423.833284
 30
0.0
  0
SPLINE
  5
125
100
AcDbEntity
  8
Default
 62
7
100
AcDbSpline
 70
8
 71
3
 72
8
 73
4
 74
0
 40
0
 40
0
 40
0
 40
0
 40
1
 40
1
 40
1
 40
1
 10
2084.052320
 20
2423.833284
 30
0.0
 10
2039.722960
 20
2439.581444
 30
0.0
 10
1995.356400
 20
2461.973684
 30
0.0
 10
1951.970240
 20
2487.930804
 30
0.0
  0
SPLINE
  5
126
100
AcDbEntity
  8
Default
 62
7
100
AcDbSpline
 70
8
 71
3
 72
8
 73
4
 74
0
 40
0
 40
0
 40
0
 40
0
 40
1
 40
1
 40
1
 40
1
 10
1984.246720
 20
2766.030244
 30
0.0
 10
1979.728400
 20
2738.911924
 30
0.0
 10
1975.601760
 20
2711.630964
 30
0.0
 10
1971.838320
 20
2683.767764
 30
0.0
  0
SPLINE
  5
127
100
AcDbEntity
  8
Default
 62
7
100
AcDbSpline
 70
8
 71
3
 72
8
 73
4
 74
0
 40
0
 40
0
 40
0
 40
0
 40
1
 40
1
 40
1
 40
1
 10
1971.838320
 20
2683.767764
 30
0.0
 10
1968.078560
 20
2655.932244
 30
0.0
 10
1964.733280
 20
2627.903684
 30
0.0
 10
1961.748880
 20
2599.457524
 30
0.0
  0
SPLINE
  5
128
100
AcDbEntity
  8
Default
 62
7
100
AcDbSpline
 70
8
 71
3
 72
8
 73
4
 74
0
 40
0
 40
0
 40
0
 40
0
 40
1
 40
1
 40
1
 40
1
 10
1961.748880
 20
2599.457524
 30
0.0
 10
1957.883280
 20
2562.611524
 30
0.0
 10
1954.660160
 20
2525.417284
 30
0.0
 10
1951.970240
 20
2487.930804
 30
0.0
  0
SPLINE
  5
129
100
AcDbEntity
  8
Default
 62
7
100
AcDbSpline
 70
8
 71
3
 72
8
 73
4
 74
0
 40
0
 40
0
 40
0
 40
0
 40
1
 40
1
 40
1
 40
1
 10
1951.970240
 20
2487.930804
 30
0.0
 10
1954.660160
 20
2525.417284
 30
0.0
 10
1957.883280
 20
2562.611524
 30
0.0
 10
1961.748880
 20
2599.457524
 30
0.0
  0
SPLINE
  5
12a
100
AcDbEntity
  8
Default
 62
7
100
AcDbSpline
 70
8
 71
3
 72
8
 73
4
 74
0
 40
0
 40
0
 40
0
 40
0
 40
1
 40
1
 40
1
 40
1
 10
1961.748880
 20
2599.457524
 30
0.0
 10
1964.733280
 20
2627.903684
 30
0.0
 10
1968.078560
 20
2655.932244
 30
0.0
 10
1971.838320
 20
2683.767764
 30
0.0
  0
SPLINE
  5
12b
100
AcDbEntity
  8
Default
 62
7
100
AcDbSpline
 70
8
 71
3
 72
8
 73
4
 74
0
 40
0
 40
0
 40
0
 40
0
 40
1
 40
1
 40
1
 40
1
 10
1971.838320
 20
2683.767764
 30
0.0
 10
1975.601760
 20
2711.630964
 30
0.0
 10
1979.728400
 20
2738.911924
 30
0.0
 10
1984.246720
 20
2766.030244
 30
0.0
  0
SPLINE
  5
12c
100
AcDbEntity
  8
Default
 62
7
100
AcDbSpline
 70
8
 71
3
 72
8
 73
4
 74
0
 40
0
 40
0
 40
0
 40
0
 40
1
 40
1
 40
1
 40
1
 10
2458.616000
 20
2766.030244
 30
0.0
 10
2463.134320
 20
2738.911924
 30
0.0
 10
2467.260960
 20
2711.630964
 30
0.0
 10
2471.024400
 20
2683.767764
 30
0.0
  0
SPLINE
  5
12d
100
AcDbEntity
  8
Default
 62
7
100
AcDbSpline
 70
8
 71
3
 72
8
 73
4
 74
0
 40
0
 40
0
 40
0
 40
0
 40
1
 40
1
 40
1
 40
1
 10
2471.024400
 20
2683.767764
 30
0.0
 10
2474.784160
 20
2655.932244
 30
0.0
 10
2478.129520
 20
2627.903684
 30
0.0
 10
2481.113840
 20
2599.457524
 30
0.0
  0
SPLINE
  5
12e
100
AcDbEntity
  8
Default
 62
7
100
AcDbSpline
 70
8
 71
3
 72
8
 73
4
 74
0
 40
0
 40
0
 40
0
 40
0
 40
1
 40
1
 40
1
 40
1
 10
2481.113840
 20
2599.457524
 30
0.0
 10
2484.979440
 20
2562.611604
 30
0.0
 10
2488.202560
 20
2525.417284
 30
0.0
 10
2490.892480
 20
2487.930804
 30
0.0
  0
SPLINE
  5
12f
100
AcDbEntity
  8
Default
 62
7
100
AcDbSpline
 70
8
 71
3
 72
8
 73
4
 74
0
 40
0
 40
0
 40
0
 40
0
 40
1
 40
1
 40
1
 40
1
 10
2490.892480
 20
2487.930804
 30
0.0
 10
2488.202560
 20
2525.417284
 30
0.0
 10
2484.979440
 20
2562.611604
 30
0.0
 10
2481.113840
 20
2599.457524
 30
0.0
  0
SPLINE
  5
130
100
AcDbEntity
  8
Default
 62
7
100
AcDbSpline
 70
8
 71
3
 72
8
 73
4
 74
0
 40
0
 40
0
 40
0
 40
0
 40
1
 40
1
 40
1
 40
1
 10
2481.113840
 20
2599.457524
 30
0.0
 10
2478.129520
 20
2627.903684
 30
0.0
 10
2474.784160
 20
2655.932244
 30
0.0
 10
2471.024400
 20
2683.767764
 30
0.0
  0
SPLINE
  5
131
100
AcDbEntity
  8
Default
 62
7
100
AcDbSpline
 70
8
 71
3
 72
8
 73
4
 74
0
 40
0
 40
0
 40
0
 40
0
 40
1
 40
1
 40
1
 40
1
 10
2471.024400
 20
2683.767764
 30
0.0
 10
2467.260960
 20
2711.630964
 30
0.0
 10
2463.134320
 20
2738.911924
 30
0.0
 10
2458.616000
 20
2766.030244
 30
0.0
  0
LWPOLYLINE
  5
132
100
AcDbEntity
  8
Default
 62
7
100
AcDbPolyline
 90
2
 70
0
 10
2501.638000
 20
2251.187524
 30
0.0
 10
2501.638000
 20
2251.187524
 30
0.0
  0
LWPOLYLINE
  5
133
100
AcDbEntity
  8
Default
 62
7
100
AcDbPolyline
 90
2
 70
0
 10
2503.410640
 20
2074.958724
 30
0.0
 10
2503.410640
 20
2074.958724
 30
0.0
  0
LWPOLYLINE
  5
134
100
AcDbEntity
  8
Default
 62
7
100
AcDbPolyline
 90
3
 70
0
 10
2458.616000
 20
2766.030244
 30
0.0
 10
2458.616000
 20
2766.030244
 30
0.0
 10
2458.616000
 20
2766.030244
 30
0.0
  0
LWPOLYLINE
  5
135
100
AcDbEntity
  8
Default
 62
7
100
AcDbPolyline
 90
3
 70
0
 10
1984.246720
 20
2766.030244
 30
0.0
 10
1984.246720
 20
2766.030244
 30
0.0
 10
1984.246720
 20
2766.030244
 30
0.0
  0
SPLINE
  5
136
100
AcDbEntity
  8
Default
 62
7
100
AcDbSpline
 70
8
 71
3
 72
8
 73
4
 74
0
 40
0
 40
0
 40
0
 40
0
 40
1
 40
1
 40
1
 40
1
 10
2458.616000
 20
2766.030244
 30
0.0
 10
2300.492880
 20
2766.030244
 30
0.0
 10
2142.369840
 20
2766.030244
 30
0.0
 10
1984.246720
 20
2766.030244
 30
0.0
  0
LWPOLYLINE
  5
137
100
AcDbEntity
  8
Default
 62
7
100
AcDbPolyline
 90
3
 70
0
 10
2490.892480
 20
2487.930804
 30
0.0
 10
2490.892480
 20
2487.930804
 30
0.0
 10
2490.892480
 20
2487.930804
 30
0.0
  0
SPLINE
  5
138
100
AcDbEntity
  8
Default
 62
7
100
AcDbSpline
 70
8
 71
3
 72
8
 73
4
 74
0
 40
0
 40
0
 40
0
 40
0
 40
1
 40
1
 40
1
 40
1
 10
1951.970240
 20
2487.930804
 30
0.0
 10
1995.356400
 20
2461.973684
 30
0.0
 10
2039.722960
 20
2439.581444
 30
0.0
 10
2084.052320
 20
2423.833284
 30
0.0
  0
SPLINE
  5
139
100
AcDbEntity
  8
Default
 62
7
100
AcDbSpline
 70
8
 71
3
 72
8
 73
4
 74
0
 40
0
 40
0
 40
0
 40
0
 40
1
 40
1
 40
1
 40
1
 10
2084.052320
 20
2423.833284
 30
0.0
 10
2106.796960
 20
2415.753124
 30
0.0
 10
2129.579360
 20
2409.398564
 30
0.0
 10
2152.524080
 20
2405.087764
 30
0.0
  0
SPLINE
  5
13a
100
AcDbEntity
  8
Default
 62
7
100
AcDbSpline
 70
8
 71
3
 72
8
 73
4
 74
0
 40
0
 40
0
 40
0
 40
0
 40
1
 40
1
 40
1
 40
1
 10
2152.524080
 20
2405.087764
 30
0.0
 10
2175.507360
 20
2400.769684
 30
0.0
 10
2198.368800
 20
2398.554084
 30
0.0
 10
2221.431360
 20
2398.560404
 30
0.0
  0
SPLINE
  5
13b
100
AcDbEntity
  8
Default
 62
7
100
AcDbSpline
 70
8
 71
3
 72
8
 73
4
 74
0
 40
0
 40
0
 40
0
 40
0
 40
1
 40
1
 40
1
 40
1
 10
2221.431360
 20
2398.560404
 30
0.0
 10
2244.492720
 20
2398.568404
 30
0.0
 10
2267.355520
 20
2400.794964
 30
0.0
 10
2290.337280
 20
2405.119364
 30
0.0
  0
SPLINE
  5
13c
100
AcDbEntity
  8
Default
 62
7
100
AcDbSpline
 70
8
 71
3
 72
8
 73
4
 74
0
 40
0
 40
0
 40
0
 40
0
 40
1
 40
1
 40
1
 40
1
 10
2290.337280
 20
2405.119364
 30
0.0
 10
2313.279920
 20
2409.436404
 30
0.0
 10
2336.065120
 20
2415.792404
 30
0.0
 10
2358.808240
 20
2423.867764
 30
0.0
  0
SPLINE
  5
13d
100
AcDbEntity
  8
Default
 62
7
100
AcDbSpline
 70
8
 71
3
 72
8
 73
4
 74
0
 40
0
 40
0
 40
0
 40
0
 40
1
 40
1
 40
1
 40
1
 10
2358.808240
 20
2423.867764
 30
0.0
 10
2403.137280
 20
2439.607684
 30
0.0
 10
2447.506640
 20
2461.974964
 30
0.0
 10
2490.892480
 20
2487.930804
 30
0.0
  0
LWPOLYLINE
  5
13e
100
AcDbEntity
  8
Default
 62
7
100
AcDbPolyline
 90
2
 70
0
 10
2221.431360
 20
2766.030244
 30
0.0
 10
2221.431360
 20
2766.030244
 30
0.0
  0
LWPOLYLINE
  5
13f
100
AcDbEntity
  8
Default
 62
7
100
AcDbPolyline
 90
3
 70
0
 10
1951.970240
 20
2487.930804
 30
0.0
 10
1951.970240
 20
2487.930804
 30
0.0
 10
1951.970240
 20
2487.930804
 30
0.0
  0
LWPOLYLINE
  5
140
100
AcDbEntity
  8
Default
 62
7
100
AcDbPolyline
 90
2
 70
0
 10
2084.052320
 20
2423.833284
 30
0.0
 10
2084.052320
 20
2423.833284
 30
0.0
  0
LWPOLYLINE
  5
141
100
AcDbEntity
  8
Default
 62
7
100
AcDbPolyline
 90
2
 70
0
 10
2152.524080
 20
2405.087764
 30
0.0
 10
2152.524080
 20
2405.087764
 30
0.0
  0
LWPOLYLINE
  5
142
100
AcDbEntity
  8
Default
 62
7
100
AcDbPolyline
 90
2
 70
0
 10
2221.431360
 20
2398.560404
 30
0.0
 10
2221.431360
 20
2398.560404
 30
0.0
  0
SPLINE
  5
143
100
AcDbEntity
  8
Default
 62
7
100
AcDbSpline
 70
8
 71
3
 72
8
 73
4
 74
0
 40
0
 40
0
 40
0
 40
0
 40
1
 40
1
 40
1
 40
1
 10
1984.246720
 20
2766.030244
 30
0.0
 10
1979.728400
 20
2738.911924
 30
0.0
 10
1975.601760
 20
2711.630964
 30
0.0
 10
1971.838320
 20
2683.767764
 30
0.0
  0
SPLINE
  5
144
100
AcDbEntity
  8
Default
 62
7
100
AcDbSpline
 70
8
 71
3
 72
8
 73
4
 74
0
 40
0
 40
0
 40
0
 40
0
 40
1
 40
1
 40
1
 40
1
 10
1971.838320
 20
2683.767764
 30
0.0
 10
1968.078560
 20
2655.932244
 30
0.0
 10
1964.733280
 20
2627.903684
 30
0.0
 10
1961.748880
 20
2599.457524
 30
0.0
  0
SPLINE
  5
145
100
AcDbEntity
  8
Default
 62
7
100
AcDbSpline
 70
8
 71
3
 72
8
 73
4
 74
0
 40
0
 40
0
 40
0
 40
0
 40
1
 40
1
 40
1
 40
1
 10
1961.748880
 20
2599.457524
 30
0.0
 10
1957.883280
 20
2562.611524
 30
0.0
 10
1954.660160
 20
2525.417284
 30
0.0
 10
1951.970240
 20
2487.930804
 30
0.0
  0
LWPOLYLINE
  5
146
100
AcDbEntity
  8
Default
 62
7
100
AcDbPolyline
 90
2
 70
0
 10
2290.337280
 20
2405.119364
 30
0.0
 10
2290.337280
 20
2405.119364
 30
0.0
  0
LWPOLYLINE
  5
147
100
AcDbEntity
  8
Default
 62
7
100
AcDbPolyline
 90
2
 70
0
 10
2358.808240
 20
2423.867764
 30
0.0
 10
2358.808240
 20
2423.867764
 30
0.0
  0
SPLINE
  5
148
100
AcDbEntity
  8
Default
 62
7
100
AcDbSpline
 70
8
 71
3
 72
8
 73
4
 74
0
 40
0
 40
0
 40
0
 40
0
 40
1
 40
1
 40
1
 40
1
 10
2458.616000
 20
2766.030244
 30
0.0
 10
2463.134320
 20
2738.911924
 30
0.0
 10
2467.260960
 20
2711.630964
 30
0.0
 10
2471.024400
 20
2683.767764
 30
0.0
  0
SPLINE
  5
149
100
AcDbEntity
  8
Default
 62
7
100
AcDbSpline
 70
8
 71
3
 72
8
 73
4
 74
0
 40
0
 40
0
 40
0
 40
0
 40
1
 40
1
 40
1
 40
1
 10
2471.024400
 20
2683.767764
 30
0.0
 10
2474.784160
 20
2655.932244
 30
0.0
 10
2478.129520
 20
2627.903684
 30
0.0
 10
2481.113840
 20
2599.457524
 30
0.0
  0
SPLINE
  5
14a
100
AcDbEntity
  8
Default
 62
7
100
AcDbSpline
 70
8
 71
3
 72
8
 73
4
 74
0
 40
0
 40
0
 40
0
 40
0
 40
1
 40
1
 40
1
 40
1
 10
2481.113840
 20
2599.457524
 30
0.0
 10
2484.979440
 20
2562.611604
 30
0.0
 10
2488.202560
 20
2525.417284
 30
0.0
 10
2490.892480
 20
2487.930804
 30
0.0
  0
LWPOLYLINE
  5
14b
100
AcDbEntity
  8
Default
 62
7
100
AcDbPolyline
 90
2
 70
0
 10
1971.838320
 20
2683.767764
 30
0.0
 10
1971.838320
 20
2683.767764
 30
0.0
  0
LWPOLYLINE
  5
14c
100
AcDbEntity
  8
Default
 62
7
100
AcDbPolyline
 90
2
 70
0
 10
1961.748880
 20
2599.457524
 30
0.0
 10
1961.748880
 20
2599.457524
 30
0.0
  0
SPLINE
  5
14d
100
AcDbEntity
  8
Default
 62
7
100
AcDbSpline
 70
8
 71
3
 72
8
 73
4
 74
0
 40
0
 40
0
 40
0
 40
0
 40
1
 40
1
 40
1
 40
1
 10
1681.316400
 20
2766.030244
 30
0.0
 10
1671.027280
 20
2738.911924
 30
0.0
 10
1661.630080
 20
2711.630964
 30
0.0
 10
1653.060000
 20
2683.767764
 30
0.0
  0
SPLINE
  5
14e
100
AcDbEntity
  8
Default
 62
7
100
AcDbSpline
 70
8
 71
3
 72
8
 73
4
 74
0
 40
0
 40
0
 40
0
 40
0
 40
1
 40
1
 40
1
 40
1
 10
1653.060000
 20
2683.767764
 30
0.0
 10
1644.498400
 20
2655.932244
 30
0.0
 10
1636.880400
 20
2627.903684
 30
0.0
 10
1630.084480
 20
2599.457524
 30
0.0
  0
SPLINE
  5
14f
100
AcDbEntity
  8
Default
 62
7
100
AcDbSpline
 70
8
 71
3
 72
8
 73
4
 74
0
 40
0
 40
0
 40
0
 40
0
 40
1
 40
1
 40
1
 40
1
 10
1630.084480
 20
2599.457524
 30
0.0
 10
1621.281840
 20
2562.611524
 30
0.0
 10
1613.942080
 20
2525.417284
 30
0.0
 10
1607.816560
 20
2487.930804
 30
0.0
  0
SPLINE
  5
150
100
AcDbEntity
  8
Default
 62
7
100
AcDbSpline
 70
8
 71
3
 72
8
 73
4
 74
0
 40
0
 40
0
 40
0
 40
0
 40
1
 40
1
 40
1
 40
1
 10
1607.816560
 20
2487.930804
 30
0.0
 10
1706.615280
 20
2461.973684
 30
0.0
 10
1807.646400
 20
2439.581444
 30
0.0
 10
1908.592800
 20
2423.833284
 30
0.0
  0
SPLINE
  5
151
100
AcDbEntity
  8
Default
 62
7
100
AcDbSpline
 70
8
 71
3
 72
8
 73
4
 74
0
 40
0
 40
0
 40
0
 40
0
 40
1
 40
1
 40
1
 40
1
 10
1908.592800
 20
2423.833284
 30
0.0
 10
1960.386800
 20
2415.753124
 30
0.0
 10
2012.266720
 20
2409.398564
 30
0.0
 10
2064.516320
 20
2405.087764
 30
0.0
  0
SPLINE
  5
152
100
AcDbEntity
  8
Default
 62
7
100
AcDbSpline
 70
8
 71
3
 72
8
 73
4
 74
0
 40
0
 40
0
 40
0
 40
0
 40
1
 40
1
 40
1
 40
1
 10
2064.516320
 20
2405.087764
 30
0.0
 10
2116.853600
 20
2400.769684
 30
0.0
 10
2168.913440
 20
2398.554084
 30
0.0
 10
2221.431360
 20
2398.560404
 30
0.0
  0
SPLINE
  5
153
100
AcDbEntity
  8
Default
 62
7
100
AcDbSpline
 70
8
 71
3
 72
8
 73
4
 74
0
 40
0
 40
0
 40
0
 40
0
 40
1
 40
1
 40
1
 40
1
 10
2221.431360
 20
2398.560404
 30
0.0
 10
2196.730720
 20
2398.552404
 30
0.0
 10
2172.640160
 20
2401.070724
 30
0.0
 10
2148.433600
 20
2405.878244
 30
0.0
  0
SPLINE
  5
154
100
AcDbEntity
  8
Default
 62
7
100
AcDbSpline
 70
8
 71
3
 72
8
 73
4
 74
0
 40
0
 40
0
 40
0
 40
0
 40
1
 40
1
 40
1
 40
1
 10
2148.433600
 20
2405.878244
 30
0.0
 10
2124.665520
 20
2410.598644
 30
0.0
 10
2101.418960
 20
2417.423764
 30
0.0
 10
2078.704000
 20
2425.765364
 30
0.0
  0
SPLINE
  5
155
100
AcDbEntity
  8
Default
 62
7
100
AcDbSpline
 70
8
 71
3
 72
8
 73
4
 74
0
 40
0
 40
0
 40
0
 40
0
 40
1
 40
1
 40
1
 40
1
 10
2078.704000
 20
2425.765364
 30
0.0
 10
2034.781760
 20
2441.894884
 30
0.0
 10
1991.934240
 20
2464.021044
 30
0.0
 10
1951.970240
 20
2487.930804
 30
0.0
  0
SPLINE
  5
156
100
AcDbEntity
  8
Default
 62
7
100
AcDbSpline
 70
8
 71
3
 72
8
 73
4
 74
0
 40
0
 40
0
 40
0
 40
0
 40
1
 40
1
 40
1
 40
1
 10
1951.970240
 20
2487.930804
 30
0.0
 10
1955.456400
 20
2536.513524
 30
0.0
 10
1959.846480
 20
2584.775044
 30
0.0
 10
1965.442720
 20
2632.852804
 30
0.0
  0
SPLINE
  5
157
100
AcDbEntity
  8
Default
 62
7
100
AcDbSpline
 70
8
 71
3
 72
8
 73
4
 74
0
 40
0
 40
0
 40
0
 40
0
 40
1
 40
1
 40
1
 40
1
 10
1965.442720
 20
2632.852804
 30
0.0
 10
1968.093840
 20
2655.628564
 30
0.0
 10
1971.009120
 20
2678.311364
 30
0.0
 10
1974.211280
 20
2700.919284
 30
0.0
  0
SPLINE
  5
158
100
AcDbEntity
  8
Default
 62
7
100
AcDbSpline
 70
8
 71
3
 72
8
 73
4
 74
0
 40
0
 40
0
 40
0
 40
0
 40
1
 40
1
 40
1
 40
1
 10
1974.211280
 20
2700.919284
 30
0.0
 10
1977.299040
 20
2722.720084
 30
0.0
 10
1980.645760
 20
2744.417524
 30
0.0
 10
1984.246720
 20
2766.030244
 30
0.0
  0
SPLINE
  5
159
100
AcDbEntity
  8
Default
 62
7
100
AcDbSpline
 70
8
 71
3
 72
8
 73
4
 74
0
 40
0
 40
0
 40
0
 40
0
 40
1
 40
1
 40
1
 40
1
 10
1984.246720
 20
2766.030244
 30
0.0
 10
1883.269920
 20
2766.030244
 30
0.0
 10
1782.293120
 20
2766.030244
 30
0.0
 10
1681.316400
 20
2766.030244
 30
0.0
  0
SPLINE
  5
15a
100
AcDbEntity
  8
Default
 62
7
100
AcDbSpline
 70
8
 71
3
 72
8
 73
4
 74
0
 40
0
 40
0
 40
0
 40
0
 40
1
 40
1
 40
1
 40
1
 10
1579.346960
 20
2067.490404
 30
0.0
 10
1623.517120
 20
2057.142164
 30
0.0
 10
1667.934320
 20
2047.461204
 30
0.0
 10
1712.376080
 20
2038.650084
 30
0.0
  0
SPLINE
  5
15b
100
AcDbEntity
  8
Default
 62
7
100
AcDbSpline
 70
8
 71
3
 72
8
 73
4
 74
0
 40
0
 40
0
 40
0
 40
0
 40
1
 40
1
 40
1
 40
1
 10
1712.376080
 20
2038.650084
 30
0.0
 10
1768.215440
 20
2027.579284
 30
0.0
 10
1824.404480
 20
2017.818884
 30
0.0
 10
1880.762400
 20
2009.768164
 30
0.0
  0
SPLINE
  5
15c
100
AcDbEntity
  8
Default
 62
7
100
AcDbSpline
 70
8
 71
3
 72
8
 73
4
 74
0
 40
0
 40
0
 40
0
 40
0
 40
1
 40
1
 40
1
 40
1
 10
1880.762400
 20
2009.768164
 30
0.0
 10
1994.513280
 20
1993.518964
 30
0.0
 10
2106.475040
 20
1984.557604
 30
0.0
 10
2221.431360
 20
1984.570404
 30
0.0
  0
SPLINE
  5
15d
100
AcDbEntity
  8
Default
 62
7
100
AcDbSpline
 70
8
 71
3
 72
8
 73
4
 74
0
 40
0
 40
0
 40
0
 40
0
 40
1
 40
1
 40
1
 40
1
 10
1600.012160
 20
2435.290084
 30
0.0
 10
1699.446880
 20
2409.801444
 30
0.0
 10
1801.004400
 20
2387.837924
 30
0.0
 10
1902.445680
 20
2372.328804
 30
0.0
  0
SPLINE
  5
15e
100
AcDbEntity
  8
Default
 62
7
100
AcDbSpline
 70
8
 71
3
 72
8
 73
4
 74
0
 40
0
 40
0
 40
0
 40
0
 40
1
 40
1
 40
1
 40
1
 10
1902.445680
 20
2372.328804
 30
0.0
 10
1916.628320
 20
2370.160404
 30
0.0
 10
1930.816560
 20
2368.116564
 30
0.0
 10
1945.015920
 20
2366.203284
 30
0.0
  0
SPLINE
  5
15f
100
AcDbEntity
  8
Default
 62
7
100
AcDbSpline
 70
8
 71
3
 72
8
 73
4
 74
0
 40
0
 40
0
 40
0
 40
0
 40
1
 40
1
 40
1
 40
1
 10
1600.012160
 20
2435.290084
 30
0.0
 10
1599.626160
 20
2432.403364
 30
0.0
 10
1599.246640
 20
2429.515044
 30
0.0
 10
1598.873360
 20
2426.625204
 30
0.0
  0
SPLINE
  5
160
100
AcDbEntity
  8
Default
 62
7
100
AcDbSpline
 70
8
 71
3
 72
8
 73
4
 74
0
 40
0
 40
0
 40
0
 40
0
 40
1
 40
1
 40
1
 40
1
 10
1598.873360
 20
2426.625204
 30
0.0
 10
1591.370640
 20
2368.535124
 30
0.0
 10
1586.414560
 20
2309.808084
 30
0.0
 10
1583.347040
 20
2251.187524
 30
0.0
  0
SPLINE
  5
161
100
AcDbEntity
  8
Default
 62
7
100
AcDbSpline
 70
8
 71
3
 72
8
 73
4
 74
0
 40
0
 40
0
 40
0
 40
0
 40
1
 40
1
 40
1
 40
1
 10
1583.347040
 20
2251.187524
 30
0.0
 10
1580.279200
 20
2192.561844
 30
0.0
 10
1579.082640
 20
2133.636564
 30
0.0
 10
1579.310320
 20
2074.958724
 30
0.0
  0
SPLINE
  5
162
100
AcDbEntity
  8
Default
 62
7
100
AcDbSpline
 70
8
 71
3
 72
8
 73
4
 74
0
 40
0
 40
0
 40
0
 40
0
 40
1
 40
1
 40
1
 40
1
 10
1579.310320
 20
2074.958724
 30
0.0
 10
1579.319120
 20
2072.469444
 30
0.0
 10
1579.332720
 20
2069.980004
 30
0.0
 10
1579.347120
 20
2067.490404
 30
0.0
  0
SPLINE
  5
163
100
AcDbEntity
  8
Default
 62
7
100
AcDbSpline
 70
8
 71
3
 72
8
 73
4
 74
0
 40
0
 40
0
 40
0
 40
0
 40
1
 40
1
 40
1
 40
1
 10
1939.468160
 20
2067.490404
 30
0.0
 10
1939.335760
 20
2118.300164
 30
0.0
 10
1939.665280
 20
2169.082564
 30
0.0
 10
1940.583600
 20
2219.913604
 30
0.0
  0
SPLINE
  5
164
100
AcDbEntity
  8
Default
 62
7
100
AcDbSpline
 70
8
 71
3
 72
8
 73
4
 74
0
 40
0
 40
0
 40
0
 40
0
 40
1
 40
1
 40
1
 40
1
 10
1940.583600
 20
2219.913604
 30
0.0
 10
1941.465760
 20
2268.739844
 30
0.0
 10
1942.884480
 20
2317.474084
 30
0.0
 10
1945.015920
 20
2366.203284
 30
0.0
  0
SPLINE
  5
165
100
AcDbEntity
  8
Default
 62
7
100
AcDbSpline
 70
8
 71
3
 72
8
 73
4
 74
0
 40
0
 40
0
 40
0
 40
0
 40
1
 40
1
 40
1
 40
1
 10
2221.431360
 20
1984.570404
 30
0.0
 10
2196.401040
 20
1984.562404
 30
0.0
 10
2171.826560
 20
1986.747284
 30
0.0
 10
2147.164160
 20
1990.945924
 30
0.0
  0
SPLINE
  5
166
100
AcDbEntity
  8
Default
 62
7
100
AcDbSpline
 70
8
 71
3
 72
8
 73
4
 74
0
 40
0
 40
0
 40
0
 40
0
 40
1
 40
1
 40
1
 40
1
 10
2147.164160
 20
1990.945924
 30
0.0
 10
2140.931520
 20
1992.006964
 30
0.0
 10
2134.726400
 20
1993.192164
 30
0.0
 10
2128.540320
 20
1994.496324
 30
0.0
  0
SPLINE
  5
167
100
AcDbEntity
  8
Default
 62
7
100
AcDbSpline
 70
8
 71
3
 72
8
 73
4
 74
0
 40
0
 40
0
 40
0
 40
0
 40
1
 40
1
 40
1
 40
1
 10
2128.540320
 20
1994.496324
 30
0.0
 10
2122.573040
 20
1995.754244
 30
0.0
 10
2116.633760
 20
1997.120644
 30
0.0
 10
2110.715360
 20
1998.590564
 30
0.0
  0
SPLINE
  5
168
100
AcDbEntity
  8
Default
 62
7
100
AcDbSpline
 70
8
 71
3
 72
8
 73
4
 74
0
 40
0
 40
0
 40
0
 40
0
 40
1
 40
1
 40
1
 40
1
 10
2110.715360
 20
1998.590564
 30
0.0
 10
2098.673200
 20
2001.581284
 30
0.0
 10
2086.770480
 20
2004.987044
 30
0.0
 10
2074.952400
 20
2008.761924
 30
0.0
  0
SPLINE
  5
169
100
AcDbEntity
  8
Default
 62
7
100
AcDbSpline
 70
8
 71
3
 72
8
 73
4
 74
0
 40
0
 40
0
 40
0
 40
0
 40
1
 40
1
 40
1
 40
1
 10
2074.952400
 20
2008.761924
 30
0.0
 10
2028.277120
 20
2023.671044
 30
0.0
 10
1982.553520
 20
2044.504244
 30
0.0
 10
1939.468160
 20
2067.490404
 30
0.0
  0
SPLINE
  5
16a
100
AcDbEntity
  8
Default
 62
7
100
AcDbSpline
 70
8
 71
3
 72
8
 73
4
 74
0
 40
0
 40
0
 40
0
 40
0
 40
1
 40
1
 40
1
 40
1
 10
2842.850560
 20
2435.290164
 30
0.0
 10
2843.236560
 20
2432.403444
 30
0.0
 10
2843.616080
 20
2429.515044
 30
0.0
 10
2843.989360
 20
2426.625204
 30
0.0
  0
SPLINE
  5
16b
100
AcDbEntity
  8
Default
 62
7
100
AcDbSpline
 70
8
 71
3
 72
8
 73
4
 74
0
 40
0
 40
0
 40
0
 40
0
 40
1
 40
1
 40
1
 40
1
 10
2843.989360
 20
2426.625204
 30
0.0
 10
2851.492080
 20
2368.535124
 30
0.0
 10
2856.448160
 20
2309.808084
 30
0.0
 10
2859.515680
 20
2251.187524
 30
0.0
  0
SPLINE
  5
16c
100
AcDbEntity
  8
Default
 62
7
100
AcDbSpline
 70
8
 71
3
 72
8
 73
4
 74
0
 40
0
 40
0
 40
0
 40
0
 40
1
 40
1
 40
1
 40
1
 10
2859.515680
 20
2251.187524
 30
0.0
 10
2862.583520
 20
2192.561844
 30
0.0
 10
2863.780080
 20
2133.636564
 30
0.0
 10
2863.552400
 20
2074.958724
 30
0.0
  0
SPLINE
  5
16d
100
AcDbEntity
  8
Default
 62
7
100
AcDbSpline
 70
8
 71
3
 72
8
 73
4
 74
0
 40
0
 40
0
 40
0
 40
0
 40
1
 40
1
 40
1
 40
1
 10
2863.552400
 20
2074.958724
 30
0.0
 10
2863.543600
 20
2072.469764
 30
0.0
 10
2863.530000
 20
2069.980484
 30
0.0
 10
2863.515600
 20
2067.491204
 30
0.0
  0
SPLINE
  5
16e
100
AcDbEntity
  8
Default
 62
7
100
AcDbSpline
 70
8
 71
3
 72
8
 73
4
 74
0
 40
0
 40
0
 40
0
 40
0
 40
1
 40
1
 40
1
 40
1
 10
2503.394560
 20
2067.491204
 30
0.0
 10
2503.527040
 20
2118.307364
 30
0.0
 10
2503.197520
 20
2169.096164
 30
0.0
 10
2502.278800
 20
2219.933604
 30
0.0
  0
SPLINE
  5
16f
100
AcDbEntity
  8
Default
 62
7
100
AcDbSpline
 70
8
 71
3
 72
8
 73
4
 74
0
 40
0
 40
0
 40
0
 40
0
 40
1
 40
1
 40
1
 40
1
 10
2502.278800
 20
2219.933604
 30
0.0
 10
2501.396320
 20
2268.765604
 30
0.0
 10
2499.977280
 20
2317.505684
 30
0.0
 10
2497.845200
 20
2366.240644
 30
0.0
  0
SPLINE
  5
170
100
AcDbEntity
  8
Default
 62
7
100
AcDbSpline
 70
8
 71
3
 72
8
 73
4
 74
0
 40
0
 40
0
 40
0
 40
0
 40
1
 40
1
 40
1
 40
1
 10
2503.394560
 20
2067.491204
 30
0.0
 10
2460.303040
 20
2044.506324
 30
0.0
 10
2414.576240
 20
2023.695684
 30
0.0
 10
2367.895680
 20
2008.793124
 30
0.0
  0
SPLINE
  5
171
100
AcDbEntity
  8
Default
 62
7
100
AcDbSpline
 70
8
 71
3
 72
8
 73
4
 74
0
 40
0
 40
0
 40
0
 40
0
 40
1
 40
1
 40
1
 40
1
 10
2367.895680
 20
2008.793124
 30
0.0
 10
2356.085680
 20
2005.022884
 30
0.0
 10
2344.191440
 20
2001.620324
 30
0.0
 10
2332.158480
 20
1998.630884
 30
0.0
  0
SPLINE
  5
172
100
AcDbEntity
  8
Default
 62
7
100
AcDbSpline
 70
8
 71
3
 72
8
 73
4
 74
0
 40
0
 40
0
 40
0
 40
0
 40
1
 40
1
 40
1
 40
1
 10
2332.158480
 20
1998.630884
 30
0.0
 10
2326.236960
 20
1997.159764
 30
0.0
 10
2320.294720
 20
1995.792004
 30
0.0
 10
2314.324480
 20
1994.532404
 30
0.0
  0
SPLINE
  5
173
100
AcDbEntity
  8
Default
 62
7
100
AcDbSpline
 70
8
 71
3
 72
8
 73
4
 74
0
 40
0
 40
0
 40
0
 40
0
 40
1
 40
1
 40
1
 40
1
 10
2314.324480
 20
1994.532404
 30
0.0
 10
2308.135840
 20
1993.226724
 30
0.0
 10
2301.928320
 20
1992.039684
 30
0.0
 10
2295.693280
 20
1990.976644
 30
0.0
  0
SPLINE
  5
174
100
AcDbEntity
  8
Default
 62
7
100
AcDbSpline
 70
8
 71
3
 72
8
 73
4
 74
0
 40
0
 40
0
 40
0
 40
0
 40
1
 40
1
 40
1
 40
1
 10
2295.693280
 20
1990.976644
 30
0.0
 10
2271.033440
 20
1986.772084
 30
0.0
 10
2246.460400
 20
1984.576804
 30
0.0
 10
2221.431360
 20
1984.570404
 30
0.0
  0
SPLINE
  5
175
100
AcDbEntity
  8
Default
 62
7
100
AcDbSpline
 70
8
 71
3
 72
8
 73
4
 74
0
 40
0
 40
0
 40
0
 40
0
 40
1
 40
1
 40
1
 40
1
 10
2221.431360
 20
1984.570404
 30
0.0
 10
2336.358080
 20
1984.584004
 30
0.0
 10
2448.373120
 20
1993.566084
 30
0.0
 10
2562.095600
 20
2009.802884
 30
0.0
  0
SPLINE
  5
176
100
AcDbEntity
  8
Default
 62
7
100
AcDbSpline
 70
8
 71
3
 72
8
 73
4
 74
0
 40
0
 40
0
 40
0
 40
0
 40
1
 40
1
 40
1
 40
1
 10
2562.095600
 20
2009.802884
 30
0.0
 10
2618.452160
 20
2017.849284
 30
0.0
 10
2674.645360
 20
2027.601604
 30
0.0
 10
2730.484480
 20
2038.664404
 30
0.0
  0
SPLINE
  5
177
100
AcDbEntity
  8
Default
 62
7
100
AcDbSpline
 70
8
 71
3
 72
8
 73
4
 74
0
 40
0
 40
0
 40
0
 40
0
 40
1
 40
1
 40
1
 40
1
 10
2730.484480
 20
2038.664404
 30
0.0
 10
2774.928320
 20
2047.469684
 30
0.0
 10
2819.345200
 20
2057.144964
 30
0.0
 10
2863.515760
 20
2067.491204
 30
0.0
  0
SPLINE
  5
178
100
AcDbEntity
  8
Default
 62
7
100
AcDbSpline
 70
8
 71
3
 72
8
 73
4
 74
0
 40
0
 40
0
 40
0
 40
0
 40
1
 40
1
 40
1
 40
1
 10
2497.845200
 20
2366.240644
 30
0.0
 10
2512.043840
 20
2368.153444
 30
0.0
 10
2526.231120
 20
2370.196404
 30
0.0
 10
2540.412080
 20
2372.363364
 30
0.0
  0
SPLINE
  5
179
100
AcDbEntity
  8
Default
 62
7
100
AcDbSpline
 70
8
 71
3
 72
8
 73
4
 74
0
 40
0
 40
0
 40
0
 40
0
 40
1
 40
1
 40
1
 40
1
 10
2540.412080
 20
2372.363364
 30
0.0
 10
2641.852560
 20
2387.864404
 30
0.0
 10
2743.416480
 20
2409.803524
 30
0.0
 10
2842.850560
 20
2435.290164
 30
0.0
  0
SPLINE
  5
17a
100
AcDbEntity
  8
Default
 62
7
100
AcDbSpline
 70
8
 71
3
 72
8
 73
4
 74
0
 40
0
 40
0
 40
0
 40
0
 40
1
 40
1
 40
1
 40
1
 10
2221.431360
 20
2347.074884
 30
0.0
 10
2274.755760
 20
2347.082884
 30
0.0
 10
2327.568480
 20
2349.297364
 30
0.0
 10
2380.338800
 20
2353.540964
 30
0.0
  0
SPLINE
  5
17b
100
AcDbEntity
  8
Default
 62
7
100
AcDbSpline
 70
8
 71
3
 72
8
 73
4
 74
0
 40
0
 40
0
 40
0
 40
0
 40
1
 40
1
 40
1
 40
1
 10
2380.338800
 20
2353.540964
 30
0.0
 10
2419.467120
 20
2356.687604
 30
0.0
 10
2458.572160
 20
2360.948724
 30
0.0
 10
2497.845200
 20
2366.240484
 30
0.0
  0
SPLINE
  5
17c
100
AcDbEntity
  8
Default
 62
7
100
AcDbSpline
 70
8
 71
3
 72
8
 73
4
 74
0
 40
0
 40
0
 40
0
 40
0
 40
1
 40
1
 40
1
 40
1
 10
2497.845200
 20
2366.240484
 30
0.0
 10
2458.572160
 20
2360.948724
 30
0.0
 10
2419.467120
 20
2356.687604
 30
0.0
 10
2380.338800
 20
2353.540964
 30
0.0
  0
SPLINE
  5
17d
100
AcDbEntity
  8
Default
 62
7
100
AcDbSpline
 70
8
 71
3
 72
8
 73
4
 74
0
 40
0
 40
0
 40
0
 40
0
 40
1
 40
1
 40
1
 40
1
 10
2380.338800
 20
2353.540964
 30
0.0
 10
2327.568480
 20
2349.297364
 30
0.0
 10
2274.755760
 20
2347.081204
 30
0.0
 10
2221.431360
 20
2347.074884
 30
0.0
  0
LWPOLYLINE
  5
17e
100
AcDbEntity
  8
Default
 62
7
100
AcDbPolyline
 90
2
 70
0
 10
2471.024400
 20
2683.767764
 30
0.0
 10
2471.024400
 20
2683.767764
 30
0.0
  0
SPLINE
  5
17f
100
AcDbEntity
  8
Default
 62
7
100
AcDbSpline
 70
8
 71
3
 72
8
 73
4
 74
0
 40
0
 40
0
 40
0
 40
0
 40
1
 40
1
 40
1
 40
1
 10
1945.015920
 20
2366.203124
 30
0.0
 10
1984.294160
 20
2360.909524
 30
0.0
 10
2023.397040
 20
2356.650804
 30
0.0
 10
2062.523280
 20
2353.509284
 30
0.0
  0
SPLINE
  5
180
100
AcDbEntity
  8
Default
 62
7
100
AcDbSpline
 70
8
 71
3
 72
8
 73
4
 74
0
 40
0
 40
0
 40
0
 40
0
 40
1
 40
1
 40
1
 40
1
 10
2062.523280
 20
2353.509284
 30
0.0
 10
2115.284960
 20
2349.272964
 30
0.0
 10
2168.089120
 20
2347.068724
 30
0.0
 10
2221.431360
 20
2347.074884
 30
0.0
  0
SPLINE
  5
181
100
AcDbEntity
  8
Default
 62
7
100
AcDbSpline
 70
8
 71
3
 72
8
 73
4
 74
0
 40
0
 40
0
 40
0
 40
0
 40
1
 40
1
 40
1
 40
1
 10
2221.431360
 20
2347.074884
 30
0.0
 10
2168.089120
 20
2347.066884
 30
0.0
 10
2115.284960
 20
2349.272964
 30
0.0
 10
2062.523280
 20
2353.509284
 30
0.0
  0
SPLINE
  5
182
100
AcDbEntity
  8
Default
 62
7
100
AcDbSpline
 70
8
 71
3
 72
8
 73
4
 74
0
 40
0
 40
0
 40
0
 40
0
 40
1
 40
1
 40
1
 40
1
 10
2062.523280
 20
2353.509284
 30
0.0
 10
2023.397040
 20
2356.650804
 30
0.0
 10
1984.294160
 20
2360.909524
 30
0.0
 10
1945.015920
 20
2366.203124
 30
0.0
  0
SPLINE
  5
183
100
AcDbEntity
  8
Default
 62
7
100
AcDbSpline
 70
8
 71
3
 72
8
 73
4
 74
0
 40
0
 40
0
 40
0
 40
0
 40
1
 40
1
 40
1
 40
1
 10
1939.468160
 20
2067.490404
 30
0.0
 10
1958.864960
 20
2057.142164
 30
0.0
 10
1978.370160
 20
2047.461204
 30
0.0
 10
1997.886240
 20
2038.650084
 30
0.0
  0
SPLINE
  5
184
100
AcDbEntity
  8
Default
 62
7
100
AcDbSpline
 70
8
 71
3
 72
8
 73
4
 74
0
 40
0
 40
0
 40
0
 40
0
 40
1
 40
1
 40
1
 40
1
 10
1997.886240
 20
2038.650084
 30
0.0
 10
2022.407360
 20
2027.579284
 30
0.0
 10
2047.082080
 20
2017.818884
 30
0.0
 10
2071.830960
 20
2009.768164
 30
0.0
  0
SPLINE
  5
185
100
AcDbEntity
  8
Default
 62
7
100
AcDbSpline
 70
8
 71
3
 72
8
 73
4
 74
0
 40
0
 40
0
 40
0
 40
0
 40
1
 40
1
 40
1
 40
1
 10
2071.830960
 20
2009.768164
 30
0.0
 10
2121.783200
 20
1993.518964
 30
0.0
 10
2170.949760
 20
1984.557604
 30
0.0
 10
2221.431360
 20
1984.570404
 30
0.0
  0
SPLINE
  5
186
100
AcDbEntity
  8
Default
 62
7
100
AcDbSpline
 70
8
 71
3
 72
8
 73
4
 74
0
 40
0
 40
0
 40
0
 40
0
 40
1
 40
1
 40
1
 40
1
 10
2221.431360
 20
1984.570404
 30
0.0
 10
2271.900000
 20
1984.584004
 30
0.0
 10
2321.089920
 20
1993.566084
 30
0.0
 10
2371.029760
 20
2009.802884
 30
0.0
  0
SPLINE
  5
187
100
AcDbEntity
  8
Default
 62
7
100
AcDbSpline
 70
8
 71
3
 72
8
 73
4
 74
0
 40
0
 40
0
 40
0
 40
0
 40
1
 40
1
 40
1
 40
1
 10
2371.029760
 20
2009.802884
 30
0.0
 10
2395.778000
 20
2017.849284
 30
0.0
 10
2420.454560
 20
2027.601604
 30
0.0
 10
2444.975520
 20
2038.664404
 30
0.0
  0
SPLINE
  5
188
100
AcDbEntity
  8
Default
 62
7
100
AcDbSpline
 70
8
 71
3
 72
8
 73
4
 74
0
 40
0
 40
0
 40
0
 40
0
 40
1
 40
1
 40
1
 40
1
 10
2444.975520
 20
2038.664404
 30
0.0
 10
2464.492480
 20
2047.469684
 30
0.0
 10
2483.997600
 20
2057.144964
 30
0.0
 10
2503.394560
 20
2067.491204
 30
0.0
  0
SPLINE
  5
189
100
AcDbEntity
  8
Default
 62
7
100
AcDbSpline
 70
8
 71
3
 72
8
 73
4
 74
0
 40
0
 40
0
 40
0
 40
0
 40
1
 40
1
 40
1
 40
1
 10
2503.394560
 20
2067.491204
 30
0.0
 10
2483.997600
 20
2057.144964
 30
0.0
 10
2464.492480
 20
2047.469684
 30
0.0
 10
2444.975520
 20
2038.664404
 30
0.0
  0
SPLINE
  5
18a
100
AcDbEntity
  8
Default
 62
7
100
AcDbSpline
 70
8
 71
3
 72
8
 73
4
 74
0
 40
0
 40
0
 40
0
 40
0
 40
1
 40
1
 40
1
 40
1
 10
2444.975520
 20
2038.664404
 30
0.0
 10
2420.454560
 20
2027.601604
 30
0.0
 10
2395.778000
 20
2017.849284
 30
0.0
 10
2371.029760
 20
2009.802884
 30
0.0
  0
SPLINE
  5
18b
100
AcDbEntity
  8
Default
 62
7
100
AcDbSpline
 70
8
 71
3
 72
8
 73
4
 74
0
 40
0
 40
0
 40
0
 40
0
 40
1
 40
1
 40
1
 40
1
 10
2371.029760
 20
2009.802884
 30
0.0
 10
2321.089920
 20
1993.566084
 30
0.0
 10
2271.900000
 20
1984.583204
 30
0.0
 10
2221.431360
 20
1984.570404
 30
0.0
  0
SPLINE
  5
18c
100
AcDbEntity
  8
Default
 62
7
100
AcDbSpline
 70
8
 71
3
 72
8
 73
4
 74
0
 40
0
 40
0
 40
0
 40
0
 40
1
 40
1
 40
1
 40
1
 10
2221.431360
 20
1984.570404
 30
0.0
 10
2170.949760
 20
1984.556804
 30
0.0
 10
2121.783200
 20
1993.518964
 30
0.0
 10
2071.830960
 20
2009.768164
 30
0.0
  0
SPLINE
  5
18d
100
AcDbEntity
  8
Default
 62
7
100
AcDbSpline
 70
8
 71
3
 72
8
 73
4
 74
0
 40
0
 40
0
 40
0
 40
0
 40
1
 40
1
 40
1
 40
1
 10
2071.830960
 20
2009.768164
 30
0.0
 10
2047.082080
 20
2017.818884
 30
0.0
 10
2022.407360
 20
2027.579284
 30
0.0
 10
1997.886240
 20
2038.650084
 30
0.0
  0
SPLINE
  5
18e
100
AcDbEntity
  8
Default
 62
7
100
AcDbSpline
 70
8
 71
3
 72
8
 73
4
 74
0
 40
0
 40
0
 40
0
 40
0
 40
1
 40
1
 40
1
 40
1
 10
1997.886240
 20
2038.650084
 30
0.0
 10
1978.370160
 20
2047.461204
 30
0.0
 10
1958.864960
 20
2057.142164
 30
0.0
 10
1939.468160
 20
2067.490404
 30
0.0
  0
SPLINE
  5
18f
100
AcDbEntity
  8
Default
 62
7
100
AcDbSpline
 70
8
 71
3
 72
8
 73
4
 74
0
 40
0
 40
0
 40
0
 40
0
 40
1
 40
1
 40
1
 40
1
 10
1945.015920
 20
2366.203124
 30
0.0
 10
1943.343040
 20
2327.957844
 30
0.0
 10
1942.106320
 20
2289.549844
 30
0.0
 10
1941.224720
 20
2251.187524
 30
0.0
  0
SPLINE
  5
190
100
AcDbEntity
  8
Default
 62
7
100
AcDbSpline
 70
8
 71
3
 72
8
 73
4
 74
0
 40
0
 40
0
 40
0
 40
0
 40
1
 40
1
 40
1
 40
1
 10
1941.224720
 20
2251.187524
 30
0.0
 10
1939.877600
 20
2192.561844
 30
0.0
 10
1939.352080
 20
2133.636564
 30
0.0
 10
1939.452080
 20
2074.958724
 30
0.0
  0
SPLINE
  5
191
100
AcDbEntity
  8
Default
 62
7
100
AcDbSpline
 70
8
 71
3
 72
8
 73
4
 74
0
 40
0
 40
0
 40
0
 40
0
 40
1
 40
1
 40
1
 40
1
 10
1939.452080
 20
2074.958724
 30
0.0
 10
1939.460080
 20
2072.469444
 30
0.0
 10
1939.460880
 20
2069.980004
 30
0.0
 10
1939.468080
 20
2067.490404
 30
0.0
  0
SPLINE
  5
192
100
AcDbEntity
  8
Default
 62
7
100
AcDbSpline
 70
8
 71
3
 72
8
 73
4
 74
0
 40
0
 40
0
 40
0
 40
0
 40
1
 40
1
 40
1
 40
1
 10
1939.468160
 20
2067.490404
 30
0.0
 10
1939.460160
 20
2069.980004
 30
0.0
 10
1939.456960
 20
2072.469444
 30
0.0
 10
1939.452160
 20
2074.958724
 30
0.0
  0
SPLINE
  5
193
100
AcDbEntity
  8
Default
 62
7
100
AcDbSpline
 70
8
 71
3
 72
8
 73
4
 74
0
 40
0
 40
0
 40
0
 40
0
 40
1
 40
1
 40
1
 40
1
 10
1939.452320
 20
2074.958724
 30
0.0
 10
1939.352320
 20
2133.636564
 30
0.0
 10
1939.877840
 20
2192.561844
 30
0.0
 10
1941.224960
 20
2251.187524
 30
0.0
  0
SPLINE
  5
194
100
AcDbEntity
  8
Default
 62
7
100
AcDbSpline
 70
8
 71
3
 72
8
 73
4
 74
0
 40
0
 40
0
 40
0
 40
0
 40
1
 40
1
 40
1
 40
1
 10
1941.224960
 20
2251.187524
 30
0.0
 10
1942.106560
 20
2289.549844
 30
0.0
 10
1943.343280
 20
2327.957844
 30
0.0
 10
1945.016160
 20
2366.203124
 30
0.0
  0
SPLINE
  5
195
100
AcDbEntity
  8
Default
 62
7
100
AcDbSpline
 70
8
 71
3
 72
8
 73
4
 74
0
 40
0
 40
0
 40
0
 40
0
 40
1
 40
1
 40
1
 40
1
 10
2497.845200
 20
2366.240484
 30
0.0
 10
2499.518880
 20
2327.982884
 30
0.0
 10
2500.756160
 20
2289.562404
 30
0.0
 10
2501.638000
 20
2251.187524
 30
0.0
  0
SPLINE
  5
196
100
AcDbEntity
  8
Default
 62
7
100
AcDbSpline
 70
8
 71
3
 72
8
 73
4
 74
0
 40
0
 40
0
 40
0
 40
0
 40
1
 40
1
 40
1
 40
1
 10
2501.638000
 20
2251.187524
 30
0.0
 10
2502.985120
 20
2192.561844
 30
0.0
 10
2503.510640
 20
2133.636564
 30
0.0
 10
2503.410640
 20
2074.958724
 30
0.0
  0
SPLINE
  5
197
100
AcDbEntity
  8
Default
 62
7
100
AcDbSpline
 70
8
 71
3
 72
8
 73
4
 74
0
 40
0
 40
0
 40
0
 40
0
 40
1
 40
1
 40
1
 40
1
 10
2503.410640
 20
2074.958724
 30
0.0
 10
2503.402640
 20
2072.469764
 30
0.0
 10
2503.401840
 20
2069.980484
 30
0.0
 10
2503.394640
 20
2067.491204
 30
0.0
  0
LWPOLYLINE
  5
198
100
AcDbEntity
  8
Default
 62
7
100
AcDbPolyline
 90
2
 70
0
 10
2481.113840
 20
2599.457524
 30
0.0
 10
2481.113840
 20
2599.457524
 30
0.0
  0
LWPOLYLINE
  5
199
100
AcDbEntity
  8
Default
 62
7
100
AcDbPolyline
 90
2
 70
0
 10
2221.431360
 20
2347.074884
 30
0.0
 10
2221.431360
 20
2347.074884
 30
0.0
  0
LWPOLYLINE
  5
19a
100
AcDbEntity
  8
Default
 62
7
100
AcDbPolyline
 90
3
 70
0
 10
2497.845200
 20
2366.240484
 30
0.0
 10
2497.845200
 20
2366.240644
 30
0.0
 10
2497.845200
 20
2366.240484
 30
0.0
  0
LWPOLYLINE
  5
19b
100
AcDbEntity
  8
Default
 62
7
100
AcDbPolyline
 90
3
 70
0
 10
1945.015920
 20
2366.203124
 30
0.0
 10
1945.015920
 20
2366.203284
 30
0.0
 10
1945.015920
 20
2366.203124
 30
0.0
  0
SPLINE
  5
19c
100
AcDbEntity
  8
Default
 62
7
100
AcDbSpline
 70
8
 71
3
 72
8
 73
4
 74
0
 40
0
 40
0
 40
0
 40
0
 40
1
 40
1
 40
1
 40
1
 10
2221.431360
 20
2347.074884
 30
0.0
 10
2274.755760
 20
2347.082884
 30
0.0
 10
2327.568480
 20
2349.297364
 30
0.0
 10
2380.338800
 20
2353.540964
 30
0.0
  0
SPLINE
  5
19d
100
AcDbEntity
  8
Default
 62
7
100
AcDbSpline
 70
8
 71
3
 72
8
 73
4
 74
0
 40
0
 40
0
 40
0
 40
0
 40
1
 40
1
 40
1
 40
1
 10
2380.338800
 20
2353.540964
 30
0.0
 10
2419.467120
 20
2356.687604
 30
0.0
 10
2458.572160
 20
2360.948724
 30
0.0
 10
2497.845200
 20
2366.240484
 30
0.0
  0
LWPOLYLINE
  5
19e
100
AcDbEntity
  8
Default
 62
7
100
AcDbPolyline
 90
3
 70
0
 10
2503.394560
 20
2067.491204
 30
0.0
 10
2503.394560
 20
2067.491204
 30
0.0
 10
2503.394560
 20
2067.491204
 30
0.0
  0
SPLINE
  5
19f
100
AcDbEntity
  8
Default
 62
7
100
AcDbSpline
 70
8
 71
3
 72
8
 73
4
 74
0
 40
0
 40
0
 40
0
 40
0
 40
1
 40
1
 40
1
 40
1
 10
1945.015920
 20
2366.203124
 30
0.0
 10
1984.294160
 20
2360.909524
 30
0.0
 10
2023.397040
 20
2356.650804
 30
0.0
 10
2062.523280
 20
2353.509284
 30
0.0
  0
SPLINE
  5
1a0
100
AcDbEntity
  8
Default
 62
7
100
AcDbSpline
 70
8
 71
3
 72
8
 73
4
 74
0
 40
0
 40
0
 40
0
 40
0
 40
1
 40
1
 40
1
 40
1
 10
2062.523280
 20
2353.509284
 30
0.0
 10
2115.284960
 20
2349.272964
 30
0.0
 10
2168.089120
 20
2347.068724
 30
0.0
 10
2221.431360
 20
2347.074884
 30
0.0
  0
LWPOLYLINE
  5
1a1
100
AcDbEntity
  8
Default
 62
7
100
AcDbPolyline
 90
3
 70
0
 10
1939.468160
 20
2067.490404
 30
0.0
 10
1939.468160
 20
2067.490404
 30
0.0
 10
1939.468160
 20
2067.490404
 30
0.0
  0
LWPOLYLINE
  5
1a2
100
AcDbEntity
  8
Default
 62
7
100
AcDbPolyline
 90
2
 70
0
 10
2380.338800
 20
2353.540964
 30
0.0
 10
2380.338800
 20
2353.540964
 30
0.0
  0
SPLINE
  5
1a3
100
AcDbEntity
  8
Default
 62
7
100
AcDbSpline
 70
8
 71
3
 72
8
 73
4
 74
0
 40
0
 40
0
 40
0
 40
0
 40
1
 40
1
 40
1
 40
1
 10
1939.468160
 20
2067.490404
 30
0.0
 10
1958.864960
 20
2057.142164
 30
0.0
 10
1978.370160
 20
2047.461204
 30
0.0
 10
1997.886240
 20
2038.650084
 30
0.0
  0
SPLINE
  5
1a4
100
AcDbEntity
  8
Default
 62
7
100
AcDbSpline
 70
8
 71
3
 72
8
 73
4
 74
0
 40
0
 40
0
 40
0
 40
0
 40
1
 40
1
 40
1
 40
1
 10
1997.886240
 20
2038.650084
 30
0.0
 10
2022.407360
 20
2027.579284
 30
0.0
 10
2047.082080
 20
2017.818884
 30
0.0
 10
2071.830960
 20
2009.768164
 30
0.0
  0
SPLINE
  5
1a5
100
AcDbEntity
  8
Default
 62
7
100
AcDbSpline
 70
8
 71
3
 72
8
 73
4
 74
0
 40
0
 40
0
 40
0
 40
0
 40
1
 40
1
 40
1
 40
1
 10
2071.830960
 20
2009.768164
 30
0.0
 10
2121.783200
 20
1993.518964
 30
0.0
 10
2170.949760
 20
1984.557604
 30
0.0
 10
2221.431360
 20
1984.570404
 30
0.0
  0
SPLINE
  5
1a6
100
AcDbEntity
  8
Default
 62
7
100
AcDbSpline
 70
8
 71
3
 72
8
 73
4
 74
0
 40
0
 40
0
 40
0
 40
0
 40
1
 40
1
 40
1
 40
1
 10
2221.431360
 20
1984.570404
 30
0.0
 10
2271.900000
 20
1984.584004
 30
0.0
 10
2321.089920
 20
1993.566084
 30
0.0
 10
2371.029760
 20
2009.802884
 30
0.0
  0
SPLINE
  5
1a7
100
AcDbEntity
  8
Default
 62
7
100
AcDbSpline
 70
8
 71
3
 72
8
 73
4
 74
0
 40
0
 40
0
 40
0
 40
0
 40
1
 40
1
 40
1
 40
1
 10
2371.029760
 20
2009.802884
 30
0.0
 10
2395.778000
 20
2017.849284
 30
0.0
 10
2420.454560
 20
2027.601604
 30
0.0
 10
2444.975520
 20
2038.664404
 30
0.0
  0
SPLINE
  5
1a8
100
AcDbEntity
  8
Default
 62
7
100
AcDbSpline
 70
8
 71
3
 72
8
 73
4
 74
0
 40
0
 40
0
 40
0
 40
0
 40
1
 40
1
 40
1
 40
1
 10
2444.975520
 20
2038.664404
 30
0.0
 10
2464.492480
 20
2047.469684
 30
0.0
 10
2483.997600
 20
2057.144964
 30
0.0
 10
2503.394560
 20
2067.491204
 30
0.0
  0
LWPOLYLINE
  5
1a9
100
AcDbEntity
  8
Default
 62
7
100
AcDbPolyline
 90
2
 70
0
 10
2062.523280
 20
2353.509284
 30
0.0
 10
2062.523280
 20
2353.509284
 30
0.0
  0
LWPOLYLINE
  5
1aa
100
AcDbEntity
  8
Default
 62
7
100
AcDbPolyline
 90
2
 70
0
 10
2221.423280
 20
2347.074884
 30
0.0
 10
2221.423280
 20
2347.074884
 30
0.0
  0
LWPOLYLINE
  5
1ab
100
AcDbEntity
  8
Default
 62
7
100
AcDbPolyline
 90
2
 70
0
 10
1997.886240
 20
2038.650084
 30
0.0
 10
1997.886240
 20
2038.650084
 30
0.0
  0
LWPOLYLINE
  5
1ac
100
AcDbEntity
  8
Default
 62
7
100
AcDbPolyline
 90
2
 70
0
 10
2071.830960
 20
2009.768164
 30
0.0
 10
2071.830960
 20
2009.768164
 30
0.0
  0
LWPOLYLINE
  5
1ad
100
AcDbEntity
  8
Default
 62
7
100
AcDbPolyline
 90
2
 70
0
 10
2221.431360
 20
1984.570404
 30
0.0
 10
2221.431360
 20
1984.570404
 30
0.0
  0
SPLINE
  5
1ae
100
AcDbEntity
  8
Default
 62
7
100
AcDbSpline
 70
8
 71
3
 72
8
 73
4
 74
0
 40
0
 40
0
 40
0
 40
0
 40
1
 40
1
 40
1
 40
1
 10
1945.015920
 20
2366.203124
 30
0.0
 10
1943.343040
 20
2327.957844
 30
0.0
 10
1942.106320
 20
2289.549844
 30
0.0
 10
1941.224720
 20
2251.187524
 30
0.0
  0
SPLINE
  5
1af
100
AcDbEntity
  8
Default
 62
7
100
AcDbSpline
 70
8
 71
3
 72
8
 73
4
 74
0
 40
0
 40
0
 40
0
 40
0
 40
1
 40
1
 40
1
 40
1
 10
1941.224720
 20
2251.187524
 30
0.0
 10
1939.877600
 20
2192.561844
 30
0.0
 10
1939.352080
 20
2133.636564
 30
0.0
 10
1939.452080
 20
2074.958724
 30
0.0
  0
SPLINE
  5
1b0
100
AcDbEntity
  8
Default
 62
7
100
AcDbSpline
 70
8
 71
3
 72
8
 73
4
 74
0
 40
0
 40
0
 40
0
 40
0
 40
1
 40
1
 40
1
 40
1
 10
1939.452080
 20
2074.958724
 30
0.0
 10
1939.460080
 20
2072.469444
 30
0.0
 10
1939.460880
 20
2069.980004
 30
0.0
 10
1939.468080
 20
2067.490404
 30
0.0
  0
LWPOLYLINE
  5
1b1
100
AcDbEntity
  8
Default
 62
7
100
AcDbPolyline
 90
2
 70
0
 10
2371.029760
 20
2009.802884
 30
0.0
 10
2371.029760
 20
2009.802884
 30
0.0
  0
LWPOLYLINE
  5
1b2
100
AcDbEntity
  8
Default
 62
7
100
AcDbPolyline
 90
2
 70
0
 10
2444.975520
 20
2038.664404
 30
0.0
 10
2444.975520
 20
2038.664404
 30
0.0
  0
SPLINE
  5
1b3
100
AcDbEntity
  8
Default
 62
7
100
AcDbSpline
 70
8
 71
3
 72
8
 73
4
 74
0
 40
0
 40
0
 40
0
 40
0
 40
1
 40
1
 40
1
 40
1
 10
1580.010800
 20
2015.849364
 30
0.0
 10
1623.961520
 20
2005.559764
 30
0.0
 10
1668.155760
 20
1995.931764
 30
0.0
 10
1712.374320
 20
1987.164884
 30
0.0
  0
SPLINE
  5
1b4
100
AcDbEntity
  8
Default
 62
7
100
AcDbSpline
 70
8
 71
3
 72
8
 73
4
 74
0
 40
0
 40
0
 40
0
 40
0
 40
1
 40
1
 40
1
 40
1
 10
1712.374320
 20
1987.164884
 30
0.0
 10
1768.213280
 20
1976.094164
 30
0.0
 10
1824.402080
 20
1966.333764
 30
0.0
 10
1880.759920
 20
1958.283044
 30
0.0
  0
SPLINE
  5
1b5
100
AcDbEntity
  8
Default
 62
7
100
AcDbSpline
 70
8
 71
3
 72
8
 73
4
 74
0
 40
0
 40
0
 40
0
 40
0
 40
1
 40
1
 40
1
 40
1
 10
1880.759920
 20
1958.283044
 30
0.0
 10
1900.739120
 20
1955.428964
 30
0.0
 10
1920.663120
 20
1952.799764
 30
0.0
 10
1940.557760
 20
1950.404564
 30
0.0
  0
SPLINE
  5
1b6
100
AcDbEntity
  8
Default
 62
7
100
AcDbSpline
 70
8
 71
3
 72
8
 73
4
 74
0
 40
0
 40
0
 40
0
 40
0
 40
1
 40
1
 40
1
 40
1
 10
1605.706240
 20
1611.801116
 30
0.0
 10
1705.172720
 20
1585.609172
 30
0.0
 10
1806.927280
 20
1563.009204
 30
0.0
 10
1908.585360
 20
1547.149676
 30
0.0
  0
SPLINE
  5
1b7
100
AcDbEntity
  8
Default
 62
7
100
AcDbSpline
 70
8
 71
3
 72
8
 73
4
 74
0
 40
0
 40
0
 40
0
 40
0
 40
1
 40
1
 40
1
 40
1
 10
1908.585360
 20
1547.149676
 30
0.0
 10
2012.928240
 20
1530.871324
 30
0.0
 10
2115.759200
 20
1521.862844
 30
0.0
 10
2221.431360
 20
1521.875700
 30
0.0
  0
SPLINE
  5
1b8
100
AcDbEntity
  8
Default
 62
7
100
AcDbSpline
 70
8
 71
3
 72
8
 73
4
 74
0
 40
0
 40
0
 40
0
 40
0
 40
1
 40
1
 40
1
 40
1
 10
1580.010800
 20
2015.849364
 30
0.0
 10
1580.769680
 20
1977.171444
 30
0.0
 10
1582.103280
 20
1938.504564
 30
0.0
 10
1583.921680
 20
1899.952004
 30
0.0
  0
SPLINE
  5
1b9
100
AcDbEntity
  8
Default
 62
7
100
AcDbSpline
 70
8
 71
3
 72
8
 73
4
 74
0
 40
0
 40
0
 40
0
 40
0
 40
1
 40
1
 40
1
 40
1
 10
1583.921680
 20
1899.952004
 30
0.0
 10
1586.666560
 20
1841.757764
 30
0.0
 10
1590.532720
 20
1783.533284
 30
0.0
 10
1595.279840
 20
1725.571924
 30
0.0
  0
SPLINE
  5
1ba
100
AcDbEntity
  8
Default
 62
7
100
AcDbSpline
 70
8
 71
3
 72
8
 73
4
 74
0
 40
0
 40
0
 40
0
 40
0
 40
1
 40
1
 40
1
 40
1
 10
1595.279840
 20
1725.571924
 30
0.0
 10
1598.387040
 20
1687.632804
 30
0.0
 10
1601.882320
 20
1649.685764
 30
0.0
 10
1605.706240
 20
1611.801116
 30
0.0
  0
SPLINE
  5
1bb
100
AcDbEntity
  8
Default
 62
7
100
AcDbSpline
 70
8
 71
3
 72
8
 73
4
 74
0
 40
0
 40
0
 40
0
 40
0
 40
1
 40
1
 40
1
 40
1
 10
1951.043520
 20
1611.801116
 30
0.0
 10
1946.057840
 20
1724.281044
 30
0.0
 10
1942.328320
 20
1837.441284
 30
0.0
 10
1940.557760
 20
1950.404564
 30
0.0
  0
SPLINE
  5
1bc
100
AcDbEntity
  8
Default
 62
7
100
AcDbSpline
 70
8
 71
3
 72
8
 73
4
 74
0
 40
0
 40
0
 40
0
 40
0
 40
1
 40
1
 40
1
 40
1
 10
2221.431360
 20
1521.875700
 30
0.0
 10
2209.412720
 20
1521.873300
 30
0.0
 10
2197.469120
 20
1522.472452
 30
0.0
 10
2185.510480
 20
1523.658924
 30
0.0
  0
SPLINE
  5
1bd
100
AcDbEntity
  8
Default
 62
7
100
AcDbSpline
 70
8
 71
3
 72
8
 73
4
 74
0
 40
0
 40
0
 40
0
 40
0
 40
1
 40
1
 40
1
 40
1
 10
2185.510480
 20
1523.658924
 30
0.0
 10
2179.452320
 20
1524.259980
 30
0.0
 10
2173.418160
 20
1525.009164
 30
0.0
 10
2167.396560
 20
1525.902332
 30
0.0
  0
SPLINE
  5
1be
100
AcDbEntity
  8
Default
 62
7
100
AcDbSpline
 70
8
 71
3
 72
8
 73
4
 74
0
 40
0
 40
0
 40
0
 40
0
 40
1
 40
1
 40
1
 40
1
 10
2167.396560
 20
1525.902332
 30
0.0
 10
2161.543040
 20
1526.770548
 30
0.0
 10
2155.717360
 20
1527.772404
 30
0.0
 10
2149.909440
 20
1528.902972
 30
0.0
  0
SPLINE
  5
1bf
100
AcDbEntity
  8
Default
 62
7
100
AcDbSpline
 70
8
 71
3
 72
8
 73
4
 74
0
 40
0
 40
0
 40
0
 40
0
 40
1
 40
1
 40
1
 40
1
 10
2149.909440
 20
1528.902972
 30
0.0
 10
2126.274640
 20
1533.503692
 30
0.0
 10
2103.176800
 20
1540.191756
 30
0.0
 10
2080.579920
 20
1548.395676
 30
0.0
  0
SPLINE
  5
1c0
100
AcDbEntity
  8
Default
 62
7
100
AcDbSpline
 70
8
 71
3
 72
8
 73
4
 74
0
 40
0
 40
0
 40
0
 40
0
 40
1
 40
1
 40
1
 40
1
 10
2080.579920
 20
1548.395676
 30
0.0
 10
2035.675520
 20
1564.698492
 30
0.0
 10
1991.815760
 20
1587.352436
 30
0.0
 10
1951.043520
 20
1611.801116
 30
0.0
  0
SPLINE
  5
1c1
100
AcDbEntity
  8
Default
 62
7
100
AcDbSpline
 70
8
 71
3
 72
8
 73
4
 74
0
 40
0
 40
0
 40
0
 40
0
 40
1
 40
1
 40
1
 40
1
 10
2169.392480
 20
1525.611628
 30
0.0
 10
2147.238240
 20
1525.611628
 30
0.0
 10
2125.084000
 20
1525.611628
 30
0.0
 10
2102.929760
 20
1525.611628
 30
0.0
  0
SPLINE
  5
1c2
100
AcDbEntity
  8
Default
 62
7
100
AcDbSpline
 70
8
 71
3
 72
8
 73
4
 74
0
 40
0
 40
0
 40
0
 40
0
 40
1
 40
1
 40
1
 40
1
 10
2862.851920
 20
2015.850164
 30
0.0
 10
2862.093040
 20
1977.172004
 30
0.0
 10
2860.759440
 20
1938.504804
 30
0.0
 10
2858.941040
 20
1899.952004
 30
0.0
  0
SPLINE
  5
1c3
100
AcDbEntity
  8
Default
 62
7
100
AcDbSpline
 70
8
 71
3
 72
8
 73
4
 74
0
 40
0
 40
0
 40
0
 40
0
 40
1
 40
1
 40
1
 40
1
 10
2858.941040
 20
1899.952004
 30
0.0
 10
2856.196160
 20
1841.757764
 30
0.0
 10
2852.330000
 20
1783.533284
 30
0.0
 10
2847.582880
 20
1725.571924
 30
0.0
  0
SPLINE
  5
1c4
100
AcDbEntity
  8
Default
 62
7
100
AcDbSpline
 70
8
 71
3
 72
8
 73
4
 74
0
 40
0
 40
0
 40
0
 40
0
 40
1
 40
1
 40
1
 40
1
 10
2847.582880
 20
1725.571924
 30
0.0
 10
2844.475680
 20
1687.632804
 30
0.0
 10
2840.980400
 20
1649.685764
 30
0.0
 10
2837.156480
 20
1611.801116
 30
0.0
  0
SPLINE
  5
1c5
100
AcDbEntity
  8
Default
 62
7
100
AcDbSpline
 70
8
 71
3
 72
8
 73
4
 74
0
 40
0
 40
0
 40
0
 40
0
 40
1
 40
1
 40
1
 40
1
 10
2491.819200
 20
1611.801116
 30
0.0
 10
2496.805440
 20
1724.293604
 30
0.0
 10
2500.535280
 20
1837.466484
 30
0.0
 10
2502.305520
 20
1950.442404
 30
0.0
  0
SPLINE
  5
1c6
100
AcDbEntity
  8
Default
 62
7
100
AcDbSpline
 70
8
 71
3
 72
8
 73
4
 74
0
 40
0
 40
0
 40
0
 40
0
 40
1
 40
1
 40
1
 40
1
 10
2491.819200
 20
1611.801116
 30
0.0
 10
2451.051440
 20
1587.355788
 30
0.0
 10
2407.203600
 20
1564.732236
 30
0.0
 10
2362.304240
 20
1548.438148
 30
0.0
  0
SPLINE
  5
1c7
100
AcDbEntity
  8
Default
 62
7
100
AcDbSpline
 70
8
 71
3
 72
8
 73
4
 74
0
 40
0
 40
0
 40
0
 40
0
 40
1
 40
1
 40
1
 40
1
 10
2362.304240
 20
1548.438148
 30
0.0
 10
2339.703840
 20
1540.236380
 30
0.0
 10
2316.600320
 20
1533.545828
 30
0.0
 10
2292.964560
 20
1528.937756
 30
0.0
  0
SPLINE
  5
1c8
100
AcDbEntity
  8
Default
 62
7
100
AcDbSpline
 70
8
 71
3
 72
8
 73
4
 74
0
 40
0
 40
0
 40
0
 40
0
 40
1
 40
1
 40
1
 40
1
 10
2292.964560
 20
1528.937756
 30
0.0
 10
2287.156240
 20
1527.805372
 30
0.0
 10
2281.330160
 20
1526.801364
 30
0.0
 10
2275.476400
 20
1525.930700
 30
0.0
  0
SPLINE
  5
1c9
100
AcDbEntity
  8
Default
 62
7
100
AcDbSpline
 70
8
 71
3
 72
8
 73
4
 74
0
 40
0
 40
0
 40
0
 40
0
 40
1
 40
1
 40
1
 40
1
 10
2275.476400
 20
1525.930700
 30
0.0
 10
2269.453280
 20
1525.034836
 30
0.0
 10
2263.417520
 20
1524.282684
 30
0.0
 10
2257.357760
 20
1523.678492
 30
0.0
  0
SPLINE
  5
1ca
100
AcDbEntity
  8
Default
 62
7
100
AcDbSpline
 70
8
 71
3
 72
8
 73
4
 74
0
 40
0
 40
0
 40
0
 40
0
 40
1
 40
1
 40
1
 40
1
 10
2257.357760
 20
1523.678492
 30
0.0
 10
2245.397600
 20
1522.485988
 30
0.0
 10
2233.452160
 20
1521.879036
 30
0.0
 10
2221.431360
 20
1521.875700
 30
0.0
  0
SPLINE
  5
1cb
100
AcDbEntity
  8
Default
 62
7
100
AcDbSpline
 70
8
 71
3
 72
8
 73
4
 74
0
 40
0
 40
0
 40
0
 40
0
 40
1
 40
1
 40
1
 40
1
 10
2502.305520
 20
1950.442404
 30
0.0
 10
2522.200400
 20
1952.837524
 30
0.0
 10
2542.122880
 20
1955.465684
 30
0.0
 10
2562.098080
 20
1958.317684
 30
0.0
  0
SPLINE
  5
1cc
100
AcDbEntity
  8
Default
 62
7
100
AcDbSpline
 70
8
 71
3
 72
8
 73
4
 74
0
 40
0
 40
0
 40
0
 40
0
 40
1
 40
1
 40
1
 40
1
 10
2562.098080
 20
1958.317684
 30
0.0
 10
2618.454640
 20
1966.364164
 30
0.0
 10
2674.647680
 20
1976.116484
 30
0.0
 10
2730.486240
 20
1987.179204
 30
0.0
  0
SPLINE
  5
1cd
100
AcDbEntity
  8
Default
 62
7
100
AcDbSpline
 70
8
 71
3
 72
8
 73
4
 74
0
 40
0
 40
0
 40
0
 40
0
 40
1
 40
1
 40
1
 40
1
 10
2730.486240
 20
1987.179204
 30
0.0
 10
2774.706880
 20
1995.940244
 30
0.0
 10
2818.900880
 20
2005.562644
 30
0.0
 10
2862.851920
 20
2015.850164
 30
0.0
  0
SPLINE
  5
1ce
100
AcDbEntity
  8
Default
 62
7
100
AcDbSpline
 70
8
 71
3
 72
8
 73
4
 74
0
 40
0
 40
0
 40
0
 40
0
 40
1
 40
1
 40
1
 40
1
 10
2221.431360
 20
1521.875700
 30
0.0
 10
2327.075840
 20
1521.889300
 30
0.0
 10
2429.955760
 20
1530.918428
 30
0.0
 10
2534.272240
 20
1547.184212
 30
0.0
  0
SPLINE
  5
1cf
100
AcDbEntity
  8
Default
 62
7
100
AcDbSpline
 70
8
 71
3
 72
8
 73
4
 74
0
 40
0
 40
0
 40
0
 40
0
 40
1
 40
1
 40
1
 40
1
 10
2534.272240
 20
1547.184212
 30
0.0
 10
2635.930000
 20
1563.035460
 30
0.0
 10
2737.690720
 20
1585.610084
 30
0.0
 10
2837.156480
 20
1611.801116
 30
0.0
  0
SPLINE
  5
1d0
100
AcDbEntity
  8
Default
 62
7
100
AcDbSpline
 70
8
 71
3
 72
8
 73
4
 74
0
 40
0
 40
0
 40
0
 40
0
 40
1
 40
1
 40
1
 40
1
 10
2339.518240
 20
1525.611628
 30
0.0
 10
2317.441520
 20
1525.611628
 30
0.0
 10
2295.364800
 20
1525.611628
 30
0.0
 10
2273.288080
 20
1525.611628
 30
0.0
  0
SPLINE
  5
1d1
100
AcDbEntity
  8
Default
 62
7
100
AcDbSpline
 70
8
 71
3
 72
8
 73
4
 74
0
 40
0
 40
0
 40
0
 40
0
 40
1
 40
1
 40
1
 40
1
 10
1951.043520
 20
1611.801116
 30
0.0
 10
1994.722960
 20
1585.609172
 30
0.0
 10
2039.407200
 20
1563.009204
 30
0.0
 10
2084.049040
 20
1547.149676
 30
0.0
  0
SPLINE
  5
1d2
100
AcDbEntity
  8
Default
 62
7
100
AcDbSpline
 70
8
 71
3
 72
8
 73
4
 74
0
 40
0
 40
0
 40
0
 40
0
 40
1
 40
1
 40
1
 40
1
 10
2084.049040
 20
1547.149676
 30
0.0
 10
2129.869840
 20
1530.871324
 30
0.0
 10
2175.026800
 20
1521.862844
 30
0.0
 10
2221.431360
 20
1521.875700
 30
0.0
  0
SPLINE
  5
1d3
100
AcDbEntity
  8
Default
 62
7
100
AcDbSpline
 70
8
 71
3
 72
8
 73
4
 74
0
 40
0
 40
0
 40
0
 40
0
 40
1
 40
1
 40
1
 40
1
 10
2221.431360
 20
1521.875700
 30
0.0
 10
2267.823760
 20
1521.889300
 30
0.0
 10
2313.002160
 20
1530.918428
 30
0.0
 10
2358.811440
 20
1547.184212
 30
0.0
  0
SPLINE
  5
1d4
100
AcDbEntity
  8
Default
 62
7
100
AcDbSpline
 70
8
 71
3
 72
8
 73
4
 74
0
 40
0
 40
0
 40
0
 40
0
 40
1
 40
1
 40
1
 40
1
 10
2358.811440
 20
1547.184212
 30
0.0
 10
2403.453200
 20
1563.035460
 30
0.0
 10
2448.140080
 20
1585.610084
 30
0.0
 10
2491.819200
 20
1611.801116
 30
0.0
  0
SPLINE
  5
1d5
100
AcDbEntity
  8
Default
 62
7
100
AcDbSpline
 70
8
 71
3
 72
8
 73
4
 74
0
 40
0
 40
0
 40
0
 40
0
 40
1
 40
1
 40
1
 40
1
 10
2491.819200
 20
1611.801116
 30
0.0
 10
2448.140080
 20
1585.610084
 30
0.0
 10
2403.453200
 20
1563.035460
 30
0.0
 10
2358.811440
 20
1547.184212
 30
0.0
  0
SPLINE
  5
1d6
100
AcDbEntity
  8
Default
 62
7
100
AcDbSpline
 70
8
 71
3
 72
8
 73
4
 74
0
 40
0
 40
0
 40
0
 40
0
 40
1
 40
1
 40
1
 40
1
 10
2358.811440
 20
1547.184212
 30
0.0
 10
2313.002160
 20
1530.918428
 30
0.0
 10
2267.823760
 20
1521.888564
 30
0.0
 10
2221.431360
 20
1521.875700
 30
0.0
  0
SPLINE
  5
1d7
100
AcDbEntity
  8
Default
 62
7
100
AcDbSpline
 70
8
 71
3
 72
8
 73
4
 74
0
 40
0
 40
0
 40
0
 40
0
 40
1
 40
1
 40
1
 40
1
 10
2221.431360
 20
1521.875700
 30
0.0
 10
2175.026800
 20
1521.862100
 30
0.0
 10
2129.869840
 20
1530.871324
 30
0.0
 10
2084.049040
 20
1547.149676
 30
0.0
  0
SPLINE
  5
1d8
100
AcDbEntity
  8
Default
 62
7
100
AcDbSpline
 70
8
 71
3
 72
8
 73
4
 74
0
 40
0
 40
0
 40
0
 40
0
 40
1
 40
1
 40
1
 40
1
 10
2084.049040
 20
1547.149676
 30
0.0
 10
2039.407200
 20
1563.009204
 30
0.0
 10
1994.722960
 20
1585.609172
 30
0.0
 10
1951.043520
 20
1611.801116
 30
0.0
  0
SPLINE
  5
1d9
100
AcDbEntity
  8
Default
 62
7
100
AcDbSpline
 70
8
 71
3
 72
8
 73
4
 74
0
 40
0
 40
0
 40
0
 40
0
 40
1
 40
1
 40
1
 40
1
 10
1940.557760
 20
1950.404644
 30
0.0
 10
1940.821600
 20
1933.571044
 30
0.0
 10
1941.129120
 20
1916.750724
 30
0.0
 10
1941.477120
 20
1899.952004
 30
0.0
  0
SPLINE
  5
1da
100
AcDbEntity
  8
Default
 62
7
100
AcDbSpline
 70
8
 71
3
 72
8
 73
4
 74
0
 40
0
 40
0
 40
0
 40
0
 40
1
 40
1
 40
1
 40
1
 10
1941.477120
 20
1899.952004
 30
0.0
 10
1942.682480
 20
1841.757764
 30
0.0
 10
1944.380240
 20
1783.533284
 30
0.0
 10
1946.464880
 20
1725.571924
 30
0.0
  0
SPLINE
  5
1db
100
AcDbEntity
  8
Default
 62
7
100
AcDbSpline
 70
8
 71
3
 72
8
 73
4
 74
0
 40
0
 40
0
 40
0
 40
0
 40
1
 40
1
 40
1
 40
1
 10
1946.464880
 20
1725.571924
 30
0.0
 10
1947.829360
 20
1687.632804
 30
0.0
 10
1949.364240
 20
1649.685764
 30
0.0
 10
1951.043520
 20
1611.801116
 30
0.0
  0
SPLINE
  5
1dc
100
AcDbEntity
  8
Default
 62
7
100
AcDbSpline
 70
8
 71
3
 72
8
 73
4
 74
0
 40
0
 40
0
 40
0
 40
0
 40
1
 40
1
 40
1
 40
1
 10
1951.043520
 20
1611.801116
 30
0.0
 10
1949.364240
 20
1649.685764
 30
0.0
 10
1947.829360
 20
1687.632804
 30
0.0
 10
1946.464880
 20
1725.571924
 30
0.0
  0
SPLINE
  5
1dd
100
AcDbEntity
  8
Default
 62
7
100
AcDbSpline
 70
8
 71
3
 72
8
 73
4
 74
0
 40
0
 40
0
 40
0
 40
0
 40
1
 40
1
 40
1
 40
1
 10
1946.464880
 20
1725.571924
 30
0.0
 10
1944.380240
 20
1783.533284
 30
0.0
 10
1942.682480
 20
1841.757764
 30
0.0
 10
1941.477120
 20
1899.952004
 30
0.0
  0
SPLINE
  5
1de
100
AcDbEntity
  8
Default
 62
7
100
AcDbSpline
 70
8
 71
3
 72
8
 73
4
 74
0
 40
0
 40
0
 40
0
 40
0
 40
1
 40
1
 40
1
 40
1
 10
1941.477120
 20
1899.952004
 30
0.0
 10
1941.129120
 20
1916.750724
 30
0.0
 10
1940.821600
 20
1933.571044
 30
0.0
 10
1940.557760
 20
1950.404644
 30
0.0
  0
SPLINE
  5
1df
100
AcDbEntity
  8
Default
 62
7
100
AcDbSpline
 70
8
 71
3
 72
8
 73
4
 74
0
 40
0
 40
0
 40
0
 40
0
 40
1
 40
1
 40
1
 40
1
 10
1940.557760
 20
1950.404644
 30
0.0
 10
2034.347280
 20
1939.115284
 30
0.0
 10
2127.097040
 20
1933.076084
 30
0.0
 10
2221.390080
 20
1933.084884
 30
0.0
  0
SPLINE
  5
1e0
100
AcDbEntity
  8
Default
 62
7
100
AcDbSpline
 70
8
 71
3
 72
8
 73
4
 74
0
 40
0
 40
0
 40
0
 40
0
 40
1
 40
1
 40
1
 40
1
 10
2221.390080
 20
1933.084884
 30
0.0
 10
2221.403680
 20
1933.084884
 30
0.0
 10
2221.417280
 20
1933.084884
 30
0.0
 10
2221.431680
 20
1933.084884
 30
0.0
  0
LWPOLYLINE
  5
1e1
100
AcDbEntity
  8
Default
 62
7
100
AcDbPolyline
 90
2
 70
0
 10
1941.224720
 20
2251.187524
 30
0.0
 10
1941.224720
 20
2251.187524
 30
0.0
  0
SPLINE
  5
1e2
100
AcDbEntity
  8
Default
 62
7
100
AcDbSpline
 70
8
 71
3
 72
8
 73
4
 74
0
 40
0
 40
0
 40
0
 40
0
 40
1
 40
1
 40
1
 40
1
 10
2221.431360
 20
1933.084884
 30
0.0
 10
2221.417760
 20
1933.084884
 30
0.0
 10
2221.403360
 20
1933.084884
 30
0.0
 10
2221.389760
 20
1933.084884
 30
0.0
  0
SPLINE
  5
1e3
100
AcDbEntity
  8
Default
 62
7
100
AcDbSpline
 70
8
 71
3
 72
8
 73
4
 74
0
 40
0
 40
0
 40
0
 40
0
 40
1
 40
1
 40
1
 40
1
 10
2221.390080
 20
1933.084884
 30
0.0
 10
2127.097040
 20
1933.076084
 30
0.0
 10
2034.347280
 20
1939.115284
 30
0.0
 10
1940.557840
 20
1950.404644
 30
0.0
  0
SPLINE
  5
1e4
100
AcDbEntity
  8
Default
 62
7
100
AcDbSpline
 70
8
 71
3
 72
8
 73
4
 74
0
 40
0
 40
0
 40
0
 40
0
 40
1
 40
1
 40
1
 40
1
 10
2221.431360
 20
1933.084884
 30
0.0
 10
2315.717680
 20
1933.096084
 30
0.0
 10
2408.510960
 20
1939.153364
 30
0.0
 10
2502.305520
 20
1950.442564
 30
0.0
  0
SPLINE
  5
1e5
100
AcDbEntity
  8
Default
 62
7
100
AcDbSpline
 70
8
 71
3
 72
8
 73
4
 74
0
 40
0
 40
0
 40
0
 40
0
 40
1
 40
1
 40
1
 40
1
 10
2502.305520
 20
1950.442564
 30
0.0
 10
2408.510960
 20
1939.153364
 30
0.0
 10
2315.717680
 20
1933.095444
 30
0.0
 10
2221.431360
 20
1933.084884
 30
0.0
  0
SPLINE
  5
1e6
100
AcDbEntity
  8
Default
 62
7
100
AcDbSpline
 70
8
 71
3
 72
8
 73
4
 74
0
 40
0
 40
0
 40
0
 40
0
 40
1
 40
1
 40
1
 40
1
 10
2502.305520
 20
1950.442564
 30
0.0
 10
2502.041600
 20
1933.596324
 30
0.0
 10
2501.733840
 20
1916.763284
 30
0.0
 10
2501.385680
 20
1899.952004
 30
0.0
  0
SPLINE
  5
1e7
100
AcDbEntity
  8
Default
 62
7
100
AcDbSpline
 70
8
 71
3
 72
8
 73
4
 74
0
 40
0
 40
0
 40
0
 40
0
 40
1
 40
1
 40
1
 40
1
 10
2501.385680
 20
1899.952004
 30
0.0
 10
2500.180240
 20
1841.757764
 30
0.0
 10
2498.482480
 20
1783.533284
 30
0.0
 10
2496.397840
 20
1725.571924
 30
0.0
  0
SPLINE
  5
1e8
100
AcDbEntity
  8
Default
 62
7
100
AcDbSpline
 70
8
 71
3
 72
8
 73
4
 74
0
 40
0
 40
0
 40
0
 40
0
 40
1
 40
1
 40
1
 40
1
 10
2496.397840
 20
1725.571924
 30
0.0
 10
2495.033360
 20
1687.632804
 30
0.0
 10
2493.498480
 20
1649.685764
 30
0.0
 10
2491.819200
 20
1611.801116
 30
0.0
  0
SPLINE
  5
1e9
100
AcDbEntity
  8
Default
 62
7
100
AcDbSpline
 70
8
 71
3
 72
8
 73
4
 74
0
 40
0
 40
0
 40
0
 40
0
 40
1
 40
1
 40
1
 40
1
 10
2491.819200
 20
1611.801116
 30
0.0
 10
2493.498480
 20
1649.685764
 30
0.0
 10
2495.033360
 20
1687.632804
 30
0.0
 10
2496.397840
 20
1725.571924
 30
0.0
  0
SPLINE
  5
1ea
100
AcDbEntity
  8
Default
 62
7
100
AcDbSpline
 70
8
 71
3
 72
8
 73
4
 74
0
 40
0
 40
0
 40
0
 40
0
 40
1
 40
1
 40
1
 40
1
 10
2496.397840
 20
1725.571924
 30
0.0
 10
2498.482480
 20
1783.533284
 30
0.0
 10
2500.180240
 20
1841.757764
 30
0.0
 10
2501.385680
 20
1899.952004
 30
0.0
  0
SPLINE
  5
1eb
100
AcDbEntity
  8
Default
 62
7
100
AcDbSpline
 70
8
 71
3
 72
8
 73
4
 74
0
 40
0
 40
0
 40
0
 40
0
 40
1
 40
1
 40
1
 40
1
 10
2501.385680
 20
1899.952004
 30
0.0
 10
2501.733840
 20
1916.763284
 30
0.0
 10
2502.041600
 20
1933.596324
 30
0.0
 10
2502.305520
 20
1950.442564
 30
0.0
  0
LWPOLYLINE
  5
1ec
100
AcDbEntity
  8
Default
 62
7
100
AcDbPolyline
 90
2
 70
0
 10
1939.452080
 20
2074.958724
 30
0.0
 10
1939.452080
 20
2074.958724
 30
0.0
  0
LWPOLYLINE
  5
1ed
100
AcDbEntity
  8
Default
 62
7
100
AcDbPolyline
 90
2
 70
0
 10
2221.431360
 20
1933.084884
 30
0.0
 10
2221.431360
 20
1933.084884
 30
0.0
  0
LWPOLYLINE
  5
1ee
100
AcDbEntity
  8
Default
 62
7
100
AcDbPolyline
 90
3
 70
0
 10
2491.819200
 20
1611.801116
 30
0.0
 10
2491.819200
 20
1611.801116
 30
0.0
 10
2491.819200
 20
1611.801116
 30
0.0
  0
LWPOLYLINE
  5
1ef
100
AcDbEntity
  8
Default
 62
7
100
AcDbPolyline
 90
3
 70
0
 10
1951.043520
 20
1611.801116
 30
0.0
 10
1951.043520
 20
1611.801116
 30
0.0
 10
1951.043520
 20
1611.801116
 30
0.0
  0
SPLINE
  5
1f0
100
AcDbEntity
  8
Default
 62
7
100
AcDbSpline
 70
8
 71
3
 72
8
 73
4
 74
0
 40
0
 40
0
 40
0
 40
0
 40
1
 40
1
 40
1
 40
1
 10
1951.043520
 20
1611.801116
 30
0.0
 10
1994.722960
 20
1585.609172
 30
0.0
 10
2039.407200
 20
1563.009204
 30
0.0
 10
2084.049040
 20
1547.149676
 30
0.0
  0
SPLINE
  5
1f1
100
AcDbEntity
  8
Default
 62
7
100
AcDbSpline
 70
8
 71
3
 72
8
 73
4
 74
0
 40
0
 40
0
 40
0
 40
0
 40
1
 40
1
 40
1
 40
1
 10
2084.049040
 20
1547.149676
 30
0.0
 10
2129.869840
 20
1530.871324
 30
0.0
 10
2175.026800
 20
1521.862844
 30
0.0
 10
2221.431360
 20
1521.875700
 30
0.0
  0
SPLINE
  5
1f2
100
AcDbEntity
  8
Default
 62
7
100
AcDbSpline
 70
8
 71
3
 72
8
 73
4
 74
0
 40
0
 40
0
 40
0
 40
0
 40
1
 40
1
 40
1
 40
1
 10
2221.431360
 20
1521.875700
 30
0.0
 10
2267.823760
 20
1521.889300
 30
0.0
 10
2313.002160
 20
1530.918428
 30
0.0
 10
2358.811440
 20
1547.184212
 30
0.0
  0
SPLINE
  5
1f3
100
AcDbEntity
  8
Default
 62
7
100
AcDbSpline
 70
8
 71
3
 72
8
 73
4
 74
0
 40
0
 40
0
 40
0
 40
0
 40
1
 40
1
 40
1
 40
1
 10
2358.811440
 20
1547.184212
 30
0.0
 10
2403.453200
 20
1563.035460
 30
0.0
 10
2448.140080
 20
1585.610084
 30
0.0
 10
2491.819200
 20
1611.801116
 30
0.0
  0
LWPOLYLINE
  5
1f4
100
AcDbEntity
  8
Default
 62
7
100
AcDbPolyline
 90
3
 70
0
 10
1940.557760
 20
1950.404644
 30
0.0
 10
1940.557760
 20
1950.404564
 30
0.0
 10
1940.557760
 20
1950.404644
 30
0.0
  0
LWPOLYLINE
  5
1f5
100
AcDbEntity
  8
Default
 62
7
100
AcDbPolyline
 90
3
 70
0
 10
2502.305520
 20
1950.442564
 30
0.0
 10
2502.305520
 20
1950.442404
 30
0.0
 10
2502.305520
 20
1950.442564
 30
0.0
  0
LWPOLYLINE
  5
1f6
100
AcDbEntity
  8
Default
 62
7
100
AcDbPolyline
 90
2
 70
0
 10
2084.049040
 20
1547.149676
 30
0.0
 10
2084.049040
 20
1547.149676
 30
0.0
  0
SPLINE
  5
1f7
100
AcDbEntity
  8
Default
 62
7
100
AcDbSpline
 70
8
 71
3
 72
8
 73
4
 74
0
 40
0
 40
0
 40
0
 40
0
 40
1
 40
1
 40
1
 40
1
 10
1940.557760
 20
1950.404644
 30
0.0
 10
1940.821600
 20
1933.571044
 30
0.0
 10
1941.129120
 20
1916.750724
 30
0.0
 10
1941.477120
 20
1899.952004
 30
0.0
  0
SPLINE
  5
1f8
100
AcDbEntity
  8
Default
 62
7
100
AcDbSpline
 70
8
 71
3
 72
8
 73
4
 74
0
 40
0
 40
0
 40
0
 40
0
 40
1
 40
1
 40
1
 40
1
 10
1941.477120
 20
1899.952004
 30
0.0
 10
1942.682480
 20
1841.757764
 30
0.0
 10
1944.380240
 20
1783.533284
 30
0.0
 10
1946.464880
 20
1725.571924
 30
0.0
  0
SPLINE
  5
1f9
100
AcDbEntity
  8
Default
 62
7
100
AcDbSpline
 70
8
 71
3
 72
8
 73
4
 74
0
 40
0
 40
0
 40
0
 40
0
 40
1
 40
1
 40
1
 40
1
 10
1946.464880
 20
1725.571924
 30
0.0
 10
1947.829360
 20
1687.632804
 30
0.0
 10
1949.364240
 20
1649.685764
 30
0.0
 10
1951.043520
 20
1611.801116
 30
0.0
  0
LWPOLYLINE
  5
1fa
100
AcDbEntity
  8
Default
 62
7
100
AcDbPolyline
 90
2
 70
0
 10
2221.431360
 20
1521.875700
 30
0.0
 10
2221.431360
 20
1521.875700
 30
0.0
  0
LWPOLYLINE
  5
1fb
100
AcDbEntity
  8
Default
 62
7
100
AcDbPolyline
 90
2
 70
0
 10
2358.811440
 20
1547.184212
 30
0.0
 10
2358.811440
 20
1547.184212
 30
0.0
  0
SPLINE
  5
1fc
100
AcDbEntity
  8
Default
 62
7
100
AcDbSpline
 70
8
 71
3
 72
8
 73
4
 74
0
 40
0
 40
0
 40
0
 40
0
 40
1
 40
1
 40
1
 40
1
 10
1940.557760
 20
1950.404644
 30
0.0
 10
2034.347280
 20
1939.115284
 30
0.0
 10
2127.097040
 20
1933.076084
 30
0.0
 10
2221.390080
 20
1933.084884
 30
0.0
  0
SPLINE
  5
1fd
100
AcDbEntity
  8
Default
 62
7
100
AcDbSpline
 70
8
 71
3
 72
8
 73
4
 74
0
 40
0
 40
0
 40
0
 40
0
 40
1
 40
1
 40
1
 40
1
 10
2221.390080
 20
1933.084884
 30
0.0
 10
2221.403680
 20
1933.084884
 30
0.0
 10
2221.417280
 20
1933.084884
 30
0.0
 10
2221.431680
 20
1933.084884
 30
0.0
  0
LWPOLYLINE
  5
1fe
100
AcDbEntity
  8
Default
 62
7
100
AcDbPolyline
 90
2
 70
0
 10
1941.477120
 20
1899.952004
 30
0.0
 10
1941.477120
 20
1899.952004
 30
0.0
  0
SPLINE
  5
1ff
100
AcDbEntity
  8
Default
 62
7
100
AcDbSpline
 70
8
 71
3
 72
8
 73
4
 74
0
 40
0
 40
0
 40
0
 40
0
 40
1
 40
1
 40
1
 40
1
 10
2221.431360
 20
1933.084884
 30
0.0
 10
2315.717680
 20
1933.096084
 30
0.0
 10
2408.510960
 20
1939.153364
 30
0.0
 10
2502.305520
 20
1950.442564
 30
0.0
  0
LWPOLYLINE
  5
200
100
AcDbEntity
  8
Default
 62
7
100
AcDbPolyline
 90
2
 70
0
 10
1946.464880
 20
1725.571924
 30
0.0
 10
1946.464880
 20
1725.571924
 30
0.0
  0
SPLINE
  5
201
100
AcDbEntity
  8
Default
 62
7
100
AcDbSpline
 70
8
 71
3
 72
8
 73
4
 74
0
 40
0
 40
0
 40
0
 40
0
 40
1
 40
1
 40
1
 40
1
 10
2502.305520
 20
1950.442564
 30
0.0
 10
2502.041600
 20
1933.596324
 30
0.0
 10
2501.733840
 20
1916.763284
 30
0.0
 10
2501.385680
 20
1899.952004
 30
0.0
  0
SPLINE
  5
202
100
AcDbEntity
  8
Default
 62
7
100
AcDbSpline
 70
8
 71
3
 72
8
 73
4
 74
0
 40
0
 40
0
 40
0
 40
0
 40
1
 40
1
 40
1
 40
1
 10
2501.385680
 20
1899.952004
 30
0.0
 10
2500.180240
 20
1841.757764
 30
0.0
 10
2498.482480
 20
1783.533284
 30
0.0
 10
2496.397840
 20
1725.571924
 30
0.0
  0
SPLINE
  5
203
100
AcDbEntity
  8
Default
 62
7
100
AcDbSpline
 70
8
 71
3
 72
8
 73
4
 74
0
 40
0
 40
0
 40
0
 40
0
 40
1
 40
1
 40
1
 40
1
 10
2496.397840
 20
1725.571924
 30
0.0
 10
2495.033360
 20
1687.632804
 30
0.0
 10
2493.498480
 20
1649.685764
 30
0.0
 10
2491.819200
 20
1611.801116
 30
0.0
  0
LWPOLYLINE
  5
204
100
AcDbEntity
  8
Default
 62
7
100
AcDbPolyline
 90
2
 70
0
 10
2221.390080
 20
1933.084884
 30
0.0
 10
2221.390080
 20
1933.084884
 30
0.0
  0
LWPOLYLINE
  5
205
100
AcDbEntity
  8
Default
 62
7
100
AcDbPolyline
 90
2
 70
0
 10
2362.052800
 20
1937.534164
 30
0.0
 10
2362.052800
 20
1937.534164
 30
0.0
  0
SPLINE
  5
206
100
AcDbEntity
  8
Default
 62
7
100
AcDbSpline
 70
8
 71
3
 72
8
 73
4
 74
0
 40
0
 40
0
 40
0
 40
0
 40
1
 40
1
 40
1
 40
1
 10
2273.287680
 20
1525.611628
 30
0.0
 10
2238.656080
 20
1525.611628
 30
0.0
 10
2204.024480
 20
1525.611628
 30
0.0
 10
2169.392880
 20
1525.611628
 30
0.0
  0
SPLINE
  5
207
100
AcDbEntity
  8
Default
 62
7
100
AcDbSpline
 70
8
 71
3
 72
8
 73
4
 74
0
 40
0
 40
0
 40
0
 40
0
 40
1
 40
1
 40
1
 40
1
 10
1611.263440
 20
1558.856628
 30
0.0
 10
1708.960320
 20
1533.284740
 30
0.0
 10
1808.818240
 20
1511.228684
 30
0.0
 10
1908.584320
 20
1495.664300
 30
0.0
  0
SPLINE
  5
208
100
AcDbEntity
  8
Default
 62
7
100
AcDbSpline
 70
8
 71
3
 72
8
 73
4
 74
0
 40
0
 40
0
 40
0
 40
0
 40
1
 40
1
 40
1
 40
1
 10
1908.584320
 20
1495.664300
 30
0.0
 10
1924.751840
 20
1493.142012
 30
0.0
 10
1940.883120
 20
1490.794268
 30
0.0
 10
1956.994400
 20
1488.627580
 30
0.0
  0
SPLINE
  5
209
100
AcDbEntity
  8
Default
 62
7
100
AcDbSpline
 70
8
 71
3
 72
8
 73
4
 74
0
 40
0
 40
0
 40
0
 40
0
 40
1
 40
1
 40
1
 40
1
 10
1674.520640
 20
1091.092788
 30
0.0
 10
1751.875760
 20
1072.308092
 30
0.0
 10
1830.262720
 20
1056.086452
 30
0.0
 10
1908.593120
 20
1043.866500
 30
0.0
  0
SPLINE
  5
20a
100
AcDbEntity
  8
Default
 62
7
100
AcDbSpline
 70
8
 71
3
 72
8
 73
4
 74
0
 40
0
 40
0
 40
0
 40
0
 40
1
 40
1
 40
1
 40
1
 10
1908.593120
 20
1043.866500
 30
0.0
 10
2012.933040
 20
1027.588948
 30
0.0
 10
2115.767120
 20
1018.580876
 30
0.0
 10
2221.431360
 20
1018.593732
 30
0.0
  0
SPLINE
  5
20b
100
AcDbEntity
  8
Default
 62
7
100
AcDbSpline
 70
8
 71
3
 72
8
 73
4
 74
0
 40
0
 40
0
 40
0
 40
0
 40
1
 40
1
 40
1
 40
1
 10
1611.263440
 20
1558.856628
 30
0.0
 10
1611.515520
 20
1556.542060
 30
0.0
 10
1611.768640
 20
1554.227852
 30
0.0
 10
1612.022960
 20
1551.914036
 30
0.0
  0
SPLINE
  5
20c
100
AcDbEntity
  8
Default
 62
7
100
AcDbSpline
 70
8
 71
3
 72
8
 73
4
 74
0
 40
0
 40
0
 40
0
 40
0
 40
1
 40
1
 40
1
 40
1
 10
1612.022960
 20
1551.914036
 30
0.0
 10
1615.198160
 20
1523.023076
 30
0.0
 10
1618.550800
 20
1494.153868
 30
0.0
 10
1622.058320
 20
1465.306244
 30
0.0
  0
SPLINE
  5
20d
100
AcDbEntity
  8
Default
 62
7
100
AcDbSpline
 70
8
 71
3
 72
8
 73
4
 74
0
 40
0
 40
0
 40
0
 40
0
 40
1
 40
1
 40
1
 40
1
 10
1622.058320
 20
1465.306244
 30
0.0
 10
1625.566000
 20
1436.457828
 30
0.0
 10
1629.228960
 20
1407.627420
 30
0.0
 10
1633.024720
 20
1378.813356
 30
0.0
  0
SPLINE
  5
20e
100
AcDbEntity
  8
Default
 62
7
100
AcDbSpline
 70
8
 71
3
 72
8
 73
4
 74
0
 40
0
 40
0
 40
0
 40
0
 40
1
 40
1
 40
1
 40
1
 10
1633.024720
 20
1378.813356
 30
0.0
 10
1640.550160
 20
1321.686108
 30
0.0
 10
1648.600400
 20
1264.609500
 30
0.0
 10
1656.987920
 20
1207.563388
 30
0.0
  0
SPLINE
  5
20f
100
AcDbEntity
  8
Default
 62
7
100
AcDbSpline
 70
8
 71
3
 72
8
 73
4
 74
0
 40
0
 40
0
 40
0
 40
0
 40
1
 40
1
 40
1
 40
1
 10
1656.987920
 20
1207.563388
 30
0.0
 10
1662.696800
 20
1168.735436
 30
0.0
 10
1668.563280
 20
1129.914300
 30
0.0
 10
1674.520640
 20
1091.092788
 30
0.0
  0
SPLINE
  5
210
100
AcDbEntity
  8
Default
 62
7
100
AcDbSpline
 70
8
 71
3
 72
8
 73
4
 74
0
 40
0
 40
0
 40
0
 40
0
 40
1
 40
1
 40
1
 40
1
 10
1981.262480
 20
1091.092788
 30
0.0
 10
1976.722560
 20
1158.463268
 30
0.0
 10
1972.308560
 20
1225.782748
 30
0.0
 10
1968.163840
 20
1293.096444
 30
0.0
  0
SPLINE
  5
211
100
AcDbEntity
  8
Default
 62
7
100
AcDbSpline
 70
8
 71
3
 72
8
 73
4
 74
0
 40
0
 40
0
 40
0
 40
0
 40
1
 40
1
 40
1
 40
1
 10
1968.163840
 20
1293.096444
 30
0.0
 10
1966.140240
 20
1325.960844
 30
0.0
 10
1964.180160
 20
1358.821508
 30
0.0
 10
1962.299520
 20
1391.684236
 30
0.0
  0
SPLINE
  5
212
100
AcDbEntity
  8
Default
 62
7
100
AcDbSpline
 70
8
 71
3
 72
8
 73
4
 74
0
 40
0
 40
0
 40
0
 40
0
 40
1
 40
1
 40
1
 40
1
 10
1962.299520
 20
1391.684236
 30
0.0
 10
1960.450400
 20
1423.995772
 30
0.0
 10
1958.677440
 20
1456.308220
 30
0.0
 10
1956.994400
 20
1488.627580
 30
0.0
  0
SPLINE
  5
213
100
AcDbEntity
  8
Default
 62
7
100
AcDbSpline
 70
8
 71
3
 72
8
 73
4
 74
0
 40
0
 40
0
 40
0
 40
0
 40
1
 40
1
 40
1
 40
1
 10
2221.431360
 20
1018.593732
 30
0.0
 10
2178.832560
 20
1018.582372
 30
0.0
 10
2137.938400
 20
1026.180580
 30
0.0
 10
2097.641760
 20
1039.247772
 30
0.0
  0
SPLINE
  5
214
100
AcDbEntity
  8
Default
 62
7
100
AcDbSpline
 70
8
 71
3
 72
8
 73
4
 74
0
 40
0
 40
0
 40
0
 40
0
 40
1
 40
1
 40
1
 40
1
 10
2097.641760
 20
1039.247772
 30
0.0
 10
2057.392720
 20
1052.299524
 30
0.0
 10
2018.134320
 20
1070.703156
 30
0.0
 10
1981.262480
 20
1091.092788
 30
0.0
  0
SPLINE
  5
215
100
AcDbEntity
  8
Default
 62
7
100
AcDbSpline
 70
8
 71
3
 72
8
 73
4
 74
0
 40
0
 40
0
 40
0
 40
0
 40
1
 40
1
 40
1
 40
1
 10
1749.423200
 20
1525.611628
 30
0.0
 10
1704.603040
 20
1525.611628
 30
0.0
 10
1659.782880
 20
1525.611628
 30
0.0
 10
1614.962720
 20
1525.611628
 30
0.0
  0
SPLINE
  5
216
100
AcDbEntity
  8
Default
 62
7
100
AcDbSpline
 70
8
 71
3
 72
8
 73
4
 74
0
 40
0
 40
0
 40
0
 40
0
 40
1
 40
1
 40
1
 40
1
 10
2831.599280
 20
1558.856692
 30
0.0
 10
2831.347200
 20
1556.542124
 30
0.0
 10
2831.094080
 20
1554.227900
 30
0.0
 10
2830.839760
 20
1551.914036
 30
0.0
  0
SPLINE
  5
217
100
AcDbEntity
  8
Default
 62
7
100
AcDbSpline
 70
8
 71
3
 72
8
 73
4
 74
0
 40
0
 40
0
 40
0
 40
0
 40
1
 40
1
 40
1
 40
1
 10
2830.839760
 20
1551.914036
 30
0.0
 10
2827.664560
 20
1523.023076
 30
0.0
 10
2824.311920
 20
1494.153868
 30
0.0
 10
2820.804400
 20
1465.306244
 30
0.0
  0
SPLINE
  5
218
100
AcDbEntity
  8
Default
 62
7
100
AcDbSpline
 70
8
 71
3
 72
8
 73
4
 74
0
 40
0
 40
0
 40
0
 40
0
 40
1
 40
1
 40
1
 40
1
 10
2820.804400
 20
1465.306244
 30
0.0
 10
2817.296800
 20
1436.457828
 30
0.0
 10
2813.633760
 20
1407.627420
 30
0.0
 10
2809.838080
 20
1378.813356
 30
0.0
  0
SPLINE
  5
219
100
AcDbEntity
  8
Default
 62
7
100
AcDbSpline
 70
8
 71
3
 72
8
 73
4
 74
0
 40
0
 40
0
 40
0
 40
0
 40
1
 40
1
 40
1
 40
1
 10
2809.838080
 20
1378.813356
 30
0.0
 10
2802.312560
 20
1321.686108
 30
0.0
 10
2794.262400
 20
1264.609500
 30
0.0
 10
2785.874800
 20
1207.563388
 30
0.0
  0
SPLINE
  5
21a
100
AcDbEntity
  8
Default
 62
7
100
AcDbSpline
 70
8
 71
3
 72
8
 73
4
 74
0
 40
0
 40
0
 40
0
 40
0
 40
1
 40
1
 40
1
 40
1
 10
2785.874800
 20
1207.563388
 30
0.0
 10
2780.166160
 20
1168.736836
 30
0.0
 10
2774.299840
 20
1129.917116
 30
0.0
 10
2768.342720
 20
1091.097004
 30
0.0
  0
SPLINE
  5
21b
100
AcDbEntity
  8
Default
 62
7
100
AcDbSpline
 70
8
 71
3
 72
8
 73
4
 74
0
 40
0
 40
0
 40
0
 40
0
 40
1
 40
1
 40
1
 40
1
 10
2461.600560
 20
1091.097004
 30
0.0
 10
2466.140880
 20
1158.473308
 30
0.0
 10
2470.555200
 20
1225.798596
 30
0.0
 10
2474.700240
 20
1293.118116
 30
0.0
  0
SPLINE
  5
21c
100
AcDbEntity
  8
Default
 62
7
100
AcDbSpline
 70
8
 71
3
 72
8
 73
4
 74
0
 40
0
 40
0
 40
0
 40
0
 40
1
 40
1
 40
1
 40
1
 10
2474.700240
 20
1293.118116
 30
0.0
 10
2476.723920
 20
1325.985316
 30
0.0
 10
2478.684160
 20
1358.848724
 30
0.0
 10
2480.564960
 20
1391.714220
 30
0.0
  0
SPLINE
  5
21d
100
AcDbEntity
  8
Default
 62
7
100
AcDbSpline
 70
8
 71
3
 72
8
 73
4
 74
0
 40
0
 40
0
 40
0
 40
0
 40
1
 40
1
 40
1
 40
1
 10
2480.564960
 20
1391.714220
 30
0.0
 10
2482.414160
 20
1424.028428
 30
0.0
 10
2484.187200
 20
1456.343548
 30
0.0
 10
2485.870320
 20
1488.665588
 30
0.0
  0
SPLINE
  5
21e
100
AcDbEntity
  8
Default
 62
7
100
AcDbSpline
 70
8
 71
3
 72
8
 73
4
 74
0
 40
0
 40
0
 40
0
 40
0
 40
1
 40
1
 40
1
 40
1
 10
2461.600560
 20
1091.097004
 30
0.0
 10
2424.719200
 20
1070.710780
 30
0.0
 10
2385.455040
 20
1052.326084
 30
0.0
 10
2345.199520
 20
1039.278028
 30
0.0
  0
SPLINE
  5
21f
100
AcDbEntity
  8
Default
 62
7
100
AcDbSpline
 70
8
 71
3
 72
8
 73
4
 74
0
 40
0
 40
0
 40
0
 40
0
 40
1
 40
1
 40
1
 40
1
 10
2345.199520
 20
1039.278028
 30
0.0
 10
2304.918080
 20
1026.221580
 30
0.0
 10
2264.013280
 20
1018.605524
 30
0.0
 10
2221.431360
 20
1018.593732
 30
0.0
  0
SPLINE
  5
220
100
AcDbEntity
  8
Default
 62
7
100
AcDbSpline
 70
8
 71
3
 72
8
 73
4
 74
0
 40
0
 40
0
 40
0
 40
0
 40
1
 40
1
 40
1
 40
1
 10
2485.870320
 20
1488.665588
 30
0.0
 10
2501.980640
 20
1490.831868
 30
0.0
 10
2518.109760
 20
1493.178476
 30
0.0
 10
2534.273280
 20
1495.698836
 30
0.0
  0
SPLINE
  5
221
100
AcDbEntity
  8
Default
 62
7
100
AcDbSpline
 70
8
 71
3
 72
8
 73
4
 74
0
 40
0
 40
0
 40
0
 40
0
 40
1
 40
1
 40
1
 40
1
 10
2534.273280
 20
1495.698836
 30
0.0
 10
2634.038960
 20
1511.255100
 30
0.0
 10
2733.902880
 20
1533.286580
 30
0.0
 10
2831.599280
 20
1558.856692
 30
0.0
  0
SPLINE
  5
222
100
AcDbEntity
  8
Default
 62
7
100
AcDbSpline
 70
8
 71
3
 72
8
 73
4
 74
0
 40
0
 40
0
 40
0
 40
0
 40
1
 40
1
 40
1
 40
1
 10
2221.431360
 20
1018.593732
 30
0.0
 10
2327.068000
 20
1018.607332
 30
0.0
 10
2429.950960
 20
1027.636044
 30
0.0
 10
2534.264480
 20
1043.901036
 30
0.0
  0
SPLINE
  5
223
100
AcDbEntity
  8
Default
 62
7
100
AcDbSpline
 70
8
 71
3
 72
8
 73
4
 74
0
 40
0
 40
0
 40
0
 40
0
 40
1
 40
1
 40
1
 40
1
 10
2534.264480
 20
1043.901036
 30
0.0
 10
2612.594960
 20
1056.114668
 30
0.0
 10
2690.985920
 20
1072.319900
 30
0.0
 10
2768.342720
 20
1091.097004
 30
0.0
  0
SPLINE
  5
224
100
AcDbEntity
  8
Default
 62
7
100
AcDbSpline
 70
8
 71
3
 72
8
 73
4
 74
0
 40
0
 40
0
 40
0
 40
0
 40
1
 40
1
 40
1
 40
1
 10
2827.900000
 20
1525.611628
 30
0.0
 10
2783.058480
 20
1525.611628
 30
0.0
 10
2738.216880
 20
1525.611628
 30
0.0
 10
2693.375360
 20
1525.611628
 30
0.0
  0
SPLINE
  5
225
100
AcDbEntity
  8
Default
 62
7
100
AcDbSpline
 70
8
 71
3
 72
8
 73
4
 74
0
 40
0
 40
0
 40
0
 40
0
 40
1
 40
1
 40
1
 40
1
 10
1956.994400
 20
1488.627580
 30
0.0
 10
1992.162160
 20
1483.901020
 30
0.0
 10
2027.349040
 20
1480.018532
 30
0.0
 10
2062.554080
 20
1477.080276
 30
0.0
  0
SPLINE
  5
226
100
AcDbEntity
  8
Default
 62
7
100
AcDbSpline
 70
8
 71
3
 72
8
 73
4
 74
0
 40
0
 40
0
 40
0
 40
0
 40
1
 40
1
 40
1
 40
1
 10
2062.554080
 20
1477.080276
 30
0.0
 10
2115.491680
 20
1472.661988
 30
0.0
 10
2168.420960
 20
1470.384820
 30
0.0
 10
2221.431360
 20
1470.390148
 30
0.0
  0
LWPOLYLINE
  5
227
100
AcDbEntity
  8
Default
 62
7
100
AcDbPolyline
 90
2
 70
0
 10
2501.385680
 20
1899.952004
 30
0.0
 10
2501.385680
 20
1899.952004
 30
0.0
  0
SPLINE
  5
228
100
AcDbEntity
  8
Default
 62
7
100
AcDbSpline
 70
8
 71
3
 72
8
 73
4
 74
0
 40
0
 40
0
 40
0
 40
0
 40
1
 40
1
 40
1
 40
1
 10
2221.431360
 20
1470.390148
 30
0.0
 10
2168.420960
 20
1470.385348
 30
0.0
 10
2115.491680
 20
1472.661988
 30
0.0
 10
2062.554080
 20
1477.080276
 30
0.0
  0
SPLINE
  5
229
100
AcDbEntity
  8
Default
 62
7
100
AcDbSpline
 70
8
 71
3
 72
8
 73
4
 74
0
 40
0
 40
0
 40
0
 40
0
 40
1
 40
1
 40
1
 40
1
 10
2062.554080
 20
1477.080276
 30
0.0
 10
2027.349040
 20
1480.018532
 30
0.0
 10
1992.162160
 20
1483.901020
 30
0.0
 10
1956.994400
 20
1488.627580
 30
0.0
  0
SPLINE
  5
22a
100
AcDbEntity
  8
Default
 62
7
100
AcDbSpline
 70
8
 71
3
 72
8
 73
4
 74
0
 40
0
 40
0
 40
0
 40
0
 40
1
 40
1
 40
1
 40
1
 10
2221.431360
 20
1470.390148
 30
0.0
 10
2274.415840
 20
1470.396548
 30
0.0
 10
2327.358080
 20
1472.686412
 30
0.0
 10
2380.308640
 20
1477.112388
 30
0.0
  0
SPLINE
  5
22b
100
AcDbEntity
  8
Default
 62
7
100
AcDbSpline
 70
8
 71
3
 72
8
 73
4
 74
0
 40
0
 40
0
 40
0
 40
0
 40
1
 40
1
 40
1
 40
1
 10
2380.308640
 20
1477.112388
 30
0.0
 10
2415.514240
 20
1480.055108
 30
0.0
 10
2450.701760
 20
1483.939436
 30
0.0
 10
2485.870320
 20
1488.665588
 30
0.0
  0
SPLINE
  5
22c
100
AcDbEntity
  8
Default
 62
7
100
AcDbSpline
 70
8
 71
3
 72
8
 73
4
 74
0
 40
0
 40
0
 40
0
 40
0
 40
1
 40
1
 40
1
 40
1
 10
2485.870320
 20
1488.665588
 30
0.0
 10
2450.701760
 20
1483.939436
 30
0.0
 10
2415.514240
 20
1480.055108
 30
0.0
 10
2380.308640
 20
1477.112388
 30
0.0
  0
SPLINE
  5
22d
100
AcDbEntity
  8
Default
 62
7
100
AcDbSpline
 70
8
 71
3
 72
8
 73
4
 74
0
 40
0
 40
0
 40
0
 40
0
 40
1
 40
1
 40
1
 40
1
 10
2380.308640
 20
1477.112388
 30
0.0
 10
2327.358080
 20
1472.686412
 30
0.0
 10
2274.415840
 20
1470.396612
 30
0.0
 10
2221.431360
 20
1470.390148
 30
0.0
  0
SPLINE
  5
22e
100
AcDbEntity
  8
Default
 62
7
100
AcDbSpline
 70
8
 71
3
 72
8
 73
4
 74
0
 40
0
 40
0
 40
0
 40
0
 40
1
 40
1
 40
1
 40
1
 10
1981.262480
 20
1091.092788
 30
0.0
 10
2015.232000
 20
1072.308092
 30
0.0
 10
2049.654640
 20
1056.086452
 30
0.0
 10
2084.052400
 20
1043.866500
 30
0.0
  0
SPLINE
  5
22f
100
AcDbEntity
  8
Default
 62
7
100
AcDbSpline
 70
8
 71
3
 72
8
 73
4
 74
0
 40
0
 40
0
 40
0
 40
0
 40
1
 40
1
 40
1
 40
1
 10
2084.052400
 20
1043.866500
 30
0.0
 10
2129.872000
 20
1027.588948
 30
0.0
 10
2175.030240
 20
1018.580876
 30
0.0
 10
2221.431360
 20
1018.593732
 30
0.0
  0
SPLINE
  5
230
100
AcDbEntity
  8
Default
 62
7
100
AcDbSpline
 70
8
 71
3
 72
8
 73
4
 74
0
 40
0
 40
0
 40
0
 40
0
 40
1
 40
1
 40
1
 40
1
 10
2221.431360
 20
1018.593732
 30
0.0
 10
2267.820320
 20
1018.607332
 30
0.0
 10
2313.000080
 20
1027.636044
 30
0.0
 10
2358.808080
 20
1043.901036
 30
0.0
  0
SPLINE
  5
231
100
AcDbEntity
  8
Default
 62
7
100
AcDbSpline
 70
8
 71
3
 72
8
 73
4
 74
0
 40
0
 40
0
 40
0
 40
0
 40
1
 40
1
 40
1
 40
1
 10
2358.808080
 20
1043.901036
 30
0.0
 10
2393.205840
 20
1056.114668
 30
0.0
 10
2427.630240
 20
1072.319900
 30
0.0
 10
2461.600560
 20
1091.097004
 30
0.0
  0
SPLINE
  5
232
100
AcDbEntity
  8
Default
 62
7
100
AcDbSpline
 70
8
 71
3
 72
8
 73
4
 74
0
 40
0
 40
0
 40
0
 40
0
 40
1
 40
1
 40
1
 40
1
 10
2461.600560
 20
1091.097004
 30
0.0
 10
2427.630240
 20
1072.319900
 30
0.0
 10
2393.205840
 20
1056.114668
 30
0.0
 10
2358.808080
 20
1043.901036
 30
0.0
  0
SPLINE
  5
233
100
AcDbEntity
  8
Default
 62
7
100
AcDbSpline
 70
8
 71
3
 72
8
 73
4
 74
0
 40
0
 40
0
 40
0
 40
0
 40
1
 40
1
 40
1
 40
1
 10
2358.808080
 20
1043.901036
 30
0.0
 10
2313.000080
 20
1027.636044
 30
0.0
 10
2267.820320
 20
1018.606588
 30
0.0
 10
2221.431360
 20
1018.593732
 30
0.0
  0
SPLINE
  5
234
100
AcDbEntity
  8
Default
 62
7
100
AcDbSpline
 70
8
 71
3
 72
8
 73
4
 74
0
 40
0
 40
0
 40
0
 40
0
 40
1
 40
1
 40
1
 40
1
 10
2221.431360
 20
1018.593732
 30
0.0
 10
2175.030240
 20
1018.580132
 30
0.0
 10
2129.872000
 20
1027.588948
 30
0.0
 10
2084.052400
 20
1043.866500
 30
0.0
  0
SPLINE
  5
235
100
AcDbEntity
  8
Default
 62
7
100
AcDbSpline
 70
8
 71
3
 72
8
 73
4
 74
0
 40
0
 40
0
 40
0
 40
0
 40
1
 40
1
 40
1
 40
1
 10
2084.052400
 20
1043.866500
 30
0.0
 10
2049.654640
 20
1056.086452
 30
0.0
 10
2015.232000
 20
1072.308092
 30
0.0
 10
1981.262480
 20
1091.092788
 30
0.0
  0
SPLINE
  5
236
100
AcDbEntity
  8
Default
 62
7
100
AcDbSpline
 70
8
 71
3
 72
8
 73
4
 74
0
 40
0
 40
0
 40
0
 40
0
 40
1
 40
1
 40
1
 40
1
 10
1956.994400
 20
1488.627580
 30
0.0
 10
1957.399280
 20
1480.852236
 30
0.0
 10
1957.809360
 20
1473.078460
 30
0.0
 10
1958.224320
 20
1465.306244
 30
0.0
  0
SPLINE
  5
237
100
AcDbEntity
  8
Default
 62
7
100
AcDbSpline
 70
8
 71
3
 72
8
 73
4
 74
0
 40
0
 40
0
 40
0
 40
0
 40
1
 40
1
 40
1
 40
1
 10
1958.224320
 20
1465.306244
 30
0.0
 10
1959.764640
 20
1436.457828
 30
0.0
 10
1961.373200
 20
1407.627420
 30
0.0
 10
1963.040080
 20
1378.813356
 30
0.0
  0
SPLINE
  5
238
100
AcDbEntity
  8
Default
 62
7
100
AcDbSpline
 70
8
 71
3
 72
8
 73
4
 74
0
 40
0
 40
0
 40
0
 40
0
 40
1
 40
1
 40
1
 40
1
 10
1963.040080
 20
1378.813356
 30
0.0
 10
1966.344800
 20
1321.686108
 30
0.0
 10
1969.879920
 20
1264.609500
 30
0.0
 10
1973.563200
 20
1207.563388
 30
0.0
  0
SPLINE
  5
239
100
AcDbEntity
  8
Default
 62
7
100
AcDbSpline
 70
8
 71
3
 72
8
 73
4
 74
0
 40
0
 40
0
 40
0
 40
0
 40
1
 40
1
 40
1
 40
1
 10
1973.563200
 20
1207.563388
 30
0.0
 10
1976.070160
 20
1168.735436
 30
0.0
 10
1978.646400
 20
1129.914300
 30
0.0
 10
1981.262480
 20
1091.092788
 30
0.0
  0
SPLINE
  5
23a
100
AcDbEntity
  8
Default
 62
7
100
AcDbSpline
 70
8
 71
3
 72
8
 73
4
 74
0
 40
0
 40
0
 40
0
 40
0
 40
1
 40
1
 40
1
 40
1
 10
1981.262480
 20
1091.092788
 30
0.0
 10
1978.646400
 20
1129.914300
 30
0.0
 10
1976.070160
 20
1168.735436
 30
0.0
 10
1973.563200
 20
1207.563388
 30
0.0
  0
SPLINE
  5
23b
100
AcDbEntity
  8
Default
 62
7
100
AcDbSpline
 70
8
 71
3
 72
8
 73
4
 74
0
 40
0
 40
0
 40
0
 40
0
 40
1
 40
1
 40
1
 40
1
 10
1973.563200
 20
1207.563388
 30
0.0
 10
1969.879920
 20
1264.609500
 30
0.0
 10
1966.344800
 20
1321.686108
 30
0.0
 10
1963.040080
 20
1378.813356
 30
0.0
  0
SPLINE
  5
23c
100
AcDbEntity
  8
Default
 62
7
100
AcDbSpline
 70
8
 71
3
 72
8
 73
4
 74
0
 40
0
 40
0
 40
0
 40
0
 40
1
 40
1
 40
1
 40
1
 10
1963.040080
 20
1378.813356
 30
0.0
 10
1961.373200
 20
1407.627420
 30
0.0
 10
1959.764640
 20
1436.457828
 30
0.0
 10
1958.224320
 20
1465.306244
 30
0.0
  0
SPLINE
  5
23d
100
AcDbEntity
  8
Default
 62
7
100
AcDbSpline
 70
8
 71
3
 72
8
 73
4
 74
0
 40
0
 40
0
 40
0
 40
0
 40
1
 40
1
 40
1
 40
1
 10
1958.224320
 20
1465.306244
 30
0.0
 10
1957.809360
 20
1473.078460
 30
0.0
 10
1957.399280
 20
1480.852236
 30
0.0
 10
1956.994400
 20
1488.627580
 30
0.0
  0
SPLINE
  5
23e
100
AcDbEntity
  8
Default
 62
7
100
AcDbSpline
 70
8
 71
3
 72
8
 73
4
 74
0
 40
0
 40
0
 40
0
 40
0
 40
1
 40
1
 40
1
 40
1
 10
2485.870320
 20
1488.665588
 30
0.0
 10
2485.464800
 20
1480.877564
 30
0.0
 10
2485.054080
 20
1473.091108
 30
0.0
 10
2484.638400
 20
1465.306244
 30
0.0
  0
SPLINE
  5
23f
100
AcDbEntity
  8
Default
 62
7
100
AcDbSpline
 70
8
 71
3
 72
8
 73
4
 74
0
 40
0
 40
0
 40
0
 40
0
 40
1
 40
1
 40
1
 40
1
 10
2484.638400
 20
1465.306244
 30
0.0
 10
2483.098080
 20
1436.457828
 30
0.0
 10
2481.489520
 20
1407.627420
 30
0.0
 10
2479.822640
 20
1378.813356
 30
0.0
  0
SPLINE
  5
240
100
AcDbEntity
  8
Default
 62
7
100
AcDbSpline
 70
8
 71
3
 72
8
 73
4
 74
0
 40
0
 40
0
 40
0
 40
0
 40
1
 40
1
 40
1
 40
1
 10
2479.822640
 20
1378.813356
 30
0.0
 10
2476.517920
 20
1321.686108
 30
0.0
 10
2472.982800
 20
1264.609500
 30
0.0
 10
2469.299520
 20
1207.563388
 30
0.0
  0
SPLINE
  5
241
100
AcDbEntity
  8
Default
 62
7
100
AcDbSpline
 70
8
 71
3
 72
8
 73
4
 74
0
 40
0
 40
0
 40
0
 40
0
 40
1
 40
1
 40
1
 40
1
 10
2469.299520
 20
1207.563388
 30
0.0
 10
2466.792640
 20
1168.736836
 30
0.0
 10
2464.216480
 20
1129.917116
 30
0.0
 10
2461.600560
 20
1091.097004
 30
0.0
  0
SPLINE
  5
242
100
AcDbEntity
  8
Default
 62
7
100
AcDbSpline
 70
8
 71
3
 72
8
 73
4
 74
0
 40
0
 40
0
 40
0
 40
0
 40
1
 40
1
 40
1
 40
1
 10
2461.600560
 20
1091.097004
 30
0.0
 10
2464.216480
 20
1129.917116
 30
0.0
 10
2466.792640
 20
1168.736836
 30
0.0
 10
2469.299520
 20
1207.563388
 30
0.0
  0
SPLINE
  5
243
100
AcDbEntity
  8
Default
 62
7
100
AcDbSpline
 70
8
 71
3
 72
8
 73
4
 74
0
 40
0
 40
0
 40
0
 40
0
 40
1
 40
1
 40
1
 40
1
 10
2469.299520
 20
1207.563388
 30
0.0
 10
2472.982800
 20
1264.609500
 30
0.0
 10
2476.517920
 20
1321.686108
 30
0.0
 10
2479.822640
 20
1378.813356
 30
0.0
  0
SPLINE
  5
244
100
AcDbEntity
  8
Default
 62
7
100
AcDbSpline
 70
8
 71
3
 72
8
 73
4
 74
0
 40
0
 40
0
 40
0
 40
0
 40
1
 40
1
 40
1
 40
1
 10
2479.822640
 20
1378.813356
 30
0.0
 10
2481.489520
 20
1407.627420
 30
0.0
 10
2483.098080
 20
1436.457828
 30
0.0
 10
2484.638400
 20
1465.306244
 30
0.0
  0
SPLINE
  5
245
100
AcDbEntity
  8
Default
 62
7
100
AcDbSpline
 70
8
 71
3
 72
8
 73
4
 74
0
 40
0
 40
0
 40
0
 40
0
 40
1
 40
1
 40
1
 40
1
 10
2484.638400
 20
1465.306244
 30
0.0
 10
2485.054080
 20
1473.091108
 30
0.0
 10
2485.464800
 20
1480.877564
 30
0.0
 10
2485.870320
 20
1488.665588
 30
0.0
  0
LWPOLYLINE
  5
246
100
AcDbEntity
  8
Default
 62
7
100
AcDbPolyline
 90
2
 70
0
 10
2496.397840
 20
1725.571924
 30
0.0
 10
2496.397840
 20
1725.571924
 30
0.0
  0
LWPOLYLINE
  5
247
100
AcDbEntity
  8
Default
 62
7
100
AcDbPolyline
 90
2
 70
0
 10
2221.431360
 20
1470.390148
 30
0.0
 10
2221.431360
 20
1470.390148
 30
0.0
  0
LWPOLYLINE
  5
248
100
AcDbEntity
  8
Default
 62
7
100
AcDbPolyline
 90
3
 70
0
 10
1956.994400
 20
1488.627580
 30
0.0
 10
1956.994400
 20
1488.627580
 30
0.0
 10
1956.994400
 20
1488.627580
 30
0.0
  0
LWPOLYLINE
  5
249
100
AcDbEntity
  8
Default
 62
7
100
AcDbPolyline
 90
3
 70
0
 10
2485.870320
 20
1488.665588
 30
0.0
 10
2485.870320
 20
1488.665588
 30
0.0
 10
2485.870320
 20
1488.665588
 30
0.0
  0
SPLINE
  5
24a
100
AcDbEntity
  8
Default
 62
7
100
AcDbSpline
 70
8
 71
3
 72
8
 73
4
 74
0
 40
0
 40
0
 40
0
 40
0
 40
1
 40
1
 40
1
 40
1
 10
1956.994400
 20
1488.627580
 30
0.0
 10
1992.162160
 20
1483.901020
 30
0.0
 10
2027.349040
 20
1480.018532
 30
0.0
 10
2062.554080
 20
1477.080276
 30
0.0
  0
SPLINE
  5
24b
100
AcDbEntity
  8
Default
 62
7
100
AcDbSpline
 70
8
 71
3
 72
8
 73
4
 74
0
 40
0
 40
0
 40
0
 40
0
 40
1
 40
1
 40
1
 40
1
 10
2062.554080
 20
1477.080276
 30
0.0
 10
2115.491680
 20
1472.661988
 30
0.0
 10
2168.420960
 20
1470.384820
 30
0.0
 10
2221.431360
 20
1470.390148
 30
0.0
  0
LWPOLYLINE
  5
24c
100
AcDbEntity
  8
Default
 62
7
100
AcDbPolyline
 90
3
 70
0
 10
2461.600560
 20
1091.097004
 30
0.0
 10
2461.600560
 20
1091.097004
 30
0.0
 10
2461.600560
 20
1091.097004
 30
0.0
  0
LWPOLYLINE
  5
24d
100
AcDbEntity
  8
Default
 62
7
100
AcDbPolyline
 90
3
 70
0
 10
1981.262480
 20
1091.092788
 30
0.0
 10
1981.262480
 20
1091.092788
 30
0.0
 10
1981.262480
 20
1091.092788
 30
0.0
  0
SPLINE
  5
24e
100
AcDbEntity
  8
Default
 62
7
100
AcDbSpline
 70
8
 71
3
 72
8
 73
4
 74
0
 40
0
 40
0
 40
0
 40
0
 40
1
 40
1
 40
1
 40
1
 10
2221.431360
 20
1470.390148
 30
0.0
 10
2274.415840
 20
1470.396548
 30
0.0
 10
2327.358080
 20
1472.686412
 30
0.0
 10
2380.308640
 20
1477.112388
 30
0.0
  0
SPLINE
  5
24f
100
AcDbEntity
  8
Default
 62
7
100
AcDbSpline
 70
8
 71
3
 72
8
 73
4
 74
0
 40
0
 40
0
 40
0
 40
0
 40
1
 40
1
 40
1
 40
1
 10
2380.308640
 20
1477.112388
 30
0.0
 10
2415.514240
 20
1480.055108
 30
0.0
 10
2450.701760
 20
1483.939436
 30
0.0
 10
2485.870320
 20
1488.665588
 30
0.0
  0
LWPOLYLINE
  5
250
100
AcDbEntity
  8
Default
 62
7
100
AcDbPolyline
 90
2
 70
0
 10
2062.554080
 20
1477.080276
 30
0.0
 10
2062.554080
 20
1477.080276
 30
0.0
  0
SPLINE
  5
251
100
AcDbEntity
  8
Default
 62
7
100
AcDbSpline
 70
8
 71
3
 72
8
 73
4
 74
0
 40
0
 40
0
 40
0
 40
0
 40
1
 40
1
 40
1
 40
1
 10
1981.262480
 20
1091.092788
 30
0.0
 10
2015.232000
 20
1072.308092
 30
0.0
 10
2049.654640
 20
1056.086452
 30
0.0
 10
2084.052400
 20
1043.866500
 30
0.0
  0
SPLINE
  5
252
100
AcDbEntity
  8
Default
 62
7
100
AcDbSpline
 70
8
 71
3
 72
8
 73
4
 74
0
 40
0
 40
0
 40
0
 40
0
 40
1
 40
1
 40
1
 40
1
 10
2084.052400
 20
1043.866500
 30
0.0
 10
2129.872000
 20
1027.588948
 30
0.0
 10
2175.030240
 20
1018.580876
 30
0.0
 10
2221.431360
 20
1018.593732
 30
0.0
  0
SPLINE
  5
253
100
AcDbEntity
  8
Default
 62
7
100
AcDbSpline
 70
8
 71
3
 72
8
 73
4
 74
0
 40
0
 40
0
 40
0
 40
0
 40
1
 40
1
 40
1
 40
1
 10
2221.431360
 20
1018.593732
 30
0.0
 10
2267.820320
 20
1018.607332
 30
0.0
 10
2313.000080
 20
1027.636044
 30
0.0
 10
2358.808080
 20
1043.901036
 30
0.0
  0
SPLINE
  5
254
100
AcDbEntity
  8
Default
 62
7
100
AcDbSpline
 70
8
 71
3
 72
8
 73
4
 74
0
 40
0
 40
0
 40
0
 40
0
 40
1
 40
1
 40
1
 40
1
 10
2358.808080
 20
1043.901036
 30
0.0
 10
2393.205840
 20
1056.114668
 30
0.0
 10
2427.630240
 20
1072.319900
 30
0.0
 10
2461.600560
 20
1091.097004
 30
0.0
  0
LWPOLYLINE
  5
255
100
AcDbEntity
  8
Default
 62
7
100
AcDbPolyline
 90
2
 70
0
 10
2221.392400
 20
1470.390148
 30
0.0
 10
2221.392400
 20
1470.390148
 30
0.0
  0
LWPOLYLINE
  5
256
100
AcDbEntity
  8
Default
 62
7
100
AcDbPolyline
 90
2
 70
0
 10
2380.308640
 20
1477.112388
 30
0.0
 10
2380.308640
 20
1477.112388
 30
0.0
  0
LWPOLYLINE
  5
257
100
AcDbEntity
  8
Default
 62
7
100
AcDbPolyline
 90
2
 70
0
 10
2084.052400
 20
1043.866500
 30
0.0
 10
2084.052400
 20
1043.866500
 30
0.0
  0
SPLINE
  5
258
100
AcDbEntity
  8
Default
 62
7
100
AcDbSpline
 70
8
 71
3
 72
8
 73
4
 74
0
 40
0
 40
0
 40
0
 40
0
 40
1
 40
1
 40
1
 40
1
 10
1956.994400
 20
1488.627580
 30
0.0
 10
1957.399280
 20
1480.852236
 30
0.0
 10
1957.809360
 20
1473.078460
 30
0.0
 10
1958.224320
 20
1465.306244
 30
0.0
  0
SPLINE
  5
259
100
AcDbEntity
  8
Default
 62
7
100
AcDbSpline
 70
8
 71
3
 72
8
 73
4
 74
0
 40
0
 40
0
 40
0
 40
0
 40
1
 40
1
 40
1
 40
1
 10
1958.224320
 20
1465.306244
 30
0.0
 10
1959.764640
 20
1436.457828
 30
0.0
 10
1961.373200
 20
1407.627420
 30
0.0
 10
1963.040080
 20
1378.813356
 30
0.0
  0
SPLINE
  5
25a
100
AcDbEntity
  8
Default
 62
7
100
AcDbSpline
 70
8
 71
3
 72
8
 73
4
 74
0
 40
0
 40
0
 40
0
 40
0
 40
1
 40
1
 40
1
 40
1
 10
1963.040080
 20
1378.813356
 30
0.0
 10
1966.344800
 20
1321.686108
 30
0.0
 10
1969.879920
 20
1264.609500
 30
0.0
 10
1973.563200
 20
1207.563388
 30
0.0
  0
SPLINE
  5
25b
100
AcDbEntity
  8
Default
 62
7
100
AcDbSpline
 70
8
 71
3
 72
8
 73
4
 74
0
 40
0
 40
0
 40
0
 40
0
 40
1
 40
1
 40
1
 40
1
 10
1973.563200
 20
1207.563388
 30
0.0
 10
1976.070160
 20
1168.735436
 30
0.0
 10
1978.646400
 20
1129.914300
 30
0.0
 10
1981.262480
 20
1091.092788
 30
0.0
  0
LWPOLYLINE
  5
25c
100
AcDbEntity
  8
Default
 62
7
100
AcDbPolyline
 90
2
 70
0
 10
2221.431360
 20
1018.593732
 30
0.0
 10
2221.431360
 20
1018.593732
 30
0.0
  0
LWPOLYLINE
  5
25d
100
AcDbEntity
  8
Default
 62
7
100
AcDbPolyline
 90
2
 70
0
 10
2358.808080
 20
1043.901036
 30
0.0
 10
2358.808080
 20
1043.901036
 30
0.0
  0
LWPOLYLINE
  5
25e
100
AcDbEntity
  8
Default
 62
7
100
AcDbPolyline
 90
2
 70
0
 10
1958.224320
 20
1465.306244
 30
0.0
 10
1958.224320
 20
1465.306244
 30
0.0
  0
SPLINE
  5
25f
100
AcDbEntity
  8
Default
 62
7
100
AcDbSpline
 70
8
 71
3
 72
8
 73
4
 74
0
 40
0
 40
0
 40
0
 40
0
 40
1
 40
1
 40
1
 40
1
 10
2485.870320
 20
1488.665588
 30
0.0
 10
2485.464800
 20
1480.877564
 30
0.0
 10
2485.054080
 20
1473.091108
 30
0.0
 10
2484.638400
 20
1465.306244
 30
0.0
  0
SPLINE
  5
260
100
AcDbEntity
  8
Default
 62
7
100
AcDbSpline
 70
8
 71
3
 72
8
 73
4
 74
0
 40
0
 40
0
 40
0
 40
0
 40
1
 40
1
 40
1
 40
1
 10
2484.638400
 20
1465.306244
 30
0.0
 10
2483.098080
 20
1436.457828
 30
0.0
 10
2481.489520
 20
1407.627420
 30
0.0
 10
2479.822640
 20
1378.813356
 30
0.0
  0
SPLINE
  5
261
100
AcDbEntity
  8
Default
 62
7
100
AcDbSpline
 70
8
 71
3
 72
8
 73
4
 74
0
 40
0
 40
0
 40
0
 40
0
 40
1
 40
1
 40
1
 40
1
 10
2479.822640
 20
1378.813356
 30
0.0
 10
2476.517920
 20
1321.686108
 30
0.0
 10
2472.982800
 20
1264.609500
 30
0.0
 10
2469.299520
 20
1207.563388
 30
0.0
  0
SPLINE
  5
262
100
AcDbEntity
  8
Default
 62
7
100
AcDbSpline
 70
8
 71
3
 72
8
 73
4
 74
0
 40
0
 40
0
 40
0
 40
0
 40
1
 40
1
 40
1
 40
1
 10
2469.299520
 20
1207.563388
 30
0.0
 10
2466.792640
 20
1168.736836
 30
0.0
 10
2464.216480
 20
1129.917116
 30
0.0
 10
2461.600560
 20
1091.097004
 30
0.0
  0
LWPOLYLINE
  5
263
100
AcDbEntity
  8
Default
 62
7
100
AcDbPolyline
 90
2
 70
0
 10
1963.040080
 20
1378.813356
 30
0.0
 10
1963.040080
 20
1378.813356
 30
0.0
  0
LWPOLYLINE
  5
264
100
AcDbEntity
  8
Default
 62
7
100
AcDbPolyline
 90
2
 70
0
 10
1973.563200
 20
1207.563388
 30
0.0
 10
1973.563200
 20
1207.563388
 30
0.0
  0
LWPOLYLINE
  5
265
100
AcDbEntity
  8
Default
 62
7
100
AcDbPolyline
 90
2
 70
0
 10
2484.638400
 20
1465.306244
 30
0.0
 10
2484.638400
 20
1465.306244
 30
0.0
  0
SPLINE
  5
266
100
AcDbEntity
  8
Default
 62
7
100
AcDbSpline
 70
8
 71
3
 72
8
 73
4
 74
0
 40
0
 40
0
 40
0
 40
0
 40
1
 40
1
 40
1
 40
1
 10
1988.741440
 20
981.309796
 30
0.0
 10
2013.342400
 20
978.367612
 30
0.0
 10
2037.951120
 20
975.851516
 30
0.0
 10
2062.567360
 20
973.797164
 30
0.0
  0
SPLINE
  5
267
100
AcDbEntity
  8
Default
 62
7
100
AcDbSpline
 70
8
 71
3
 72
8
 73
4
 74
0
 40
0
 40
0
 40
0
 40
0
 40
1
 40
1
 40
1
 40
1
 10
2062.567360
 20
973.797164
 30
0.0
 10
2115.501760
 20
969.379516
 30
0.0
 10
2168.429040
 20
967.102820
 30
0.0
 10
2221.431360
 20
967.108172
 30
0.0
  0
LWPOLYLINE
  5
268
100
AcDbEntity
  8
Default
 62
7
100
AcDbPolyline
 90
2
 70
0
 10
2479.822640
 20
1378.813356
 30
0.0
 10
2479.822640
 20
1378.813356
 30
0.0
  0
SPLINE
  5
269
100
AcDbEntity
  8
Default
 62
7
100
AcDbSpline
 70
8
 71
3
 72
8
 73
4
 74
0
 40
0
 40
0
 40
0
 40
0
 40
1
 40
1
 40
1
 40
1
 10
2221.431360
 20
967.108172
 30
0.0
 10
2168.429040
 20
967.103372
 30
0.0
 10
2115.501760
 20
969.379516
 30
0.0
 10
2062.567360
 20
973.797164
 30
0.0
  0
SPLINE
  5
26a
100
AcDbEntity
  8
Default
 62
7
100
AcDbSpline
 70
8
 71
3
 72
8
 73
4
 74
0
 40
0
 40
0
 40
0
 40
0
 40
1
 40
1
 40
1
 40
1
 10
2062.567360
 20
973.797164
 30
0.0
 10
2037.951120
 20
975.851516
 30
0.0
 10
2013.342400
 20
978.367612
 30
0.0
 10
1988.741440
 20
981.309796
 30
0.0
  0
SPLINE
  5
26b
100
AcDbEntity
  8
Default
 62
7
100
AcDbSpline
 70
8
 71
3
 72
8
 73
4
 74
0
 40
0
 40
0
 40
0
 40
0
 40
1
 40
1
 40
1
 40
1
 10
2221.431360
 20
967.108172
 30
0.0
 10
2274.407760
 20
967.115372
 30
0.0
 10
2327.348000
 20
969.403940
 30
0.0
 10
2380.295280
 20
973.829276
 30
0.0
  0
SPLINE
  5
26c
100
AcDbEntity
  8
Default
 62
7
100
AcDbSpline
 70
8
 71
3
 72
8
 73
4
 74
0
 40
0
 40
0
 40
0
 40
0
 40
1
 40
1
 40
1
 40
1
 10
2380.295280
 20
973.829276
 30
0.0
 10
2404.912480
 20
975.886780
 30
0.0
 10
2429.522000
 20
978.404756
 30
0.0
 10
2454.123920
 20
981.347756
 30
0.0
  0
SPLINE
  5
26d
100
AcDbEntity
  8
Default
 62
7
100
AcDbSpline
 70
8
 71
3
 72
8
 73
4
 74
0
 40
0
 40
0
 40
0
 40
0
 40
1
 40
1
 40
1
 40
1
 10
2454.123920
 20
981.347756
 30
0.0
 10
2429.522000
 20
978.404756
 30
0.0
 10
2404.912480
 20
975.886780
 30
0.0
 10
2380.295280
 20
973.829276
 30
0.0
  0
SPLINE
  5
26e
100
AcDbEntity
  8
Default
 62
7
100
AcDbSpline
 70
8
 71
3
 72
8
 73
4
 74
0
 40
0
 40
0
 40
0
 40
0
 40
1
 40
1
 40
1
 40
1
 10
2380.295280
 20
973.829276
 30
0.0
 10
2327.348000
 20
969.403940
 30
0.0
 10
2274.407760
 20
967.114612
 30
0.0
 10
2221.431360
 20
967.108172
 30
0.0
  0
SPLINE
  5
26f
100
AcDbEntity
  8
Default
 62
7
100
AcDbSpline
 70
8
 71
3
 72
8
 73
4
 74
0
 40
0
 40
0
 40
0
 40
0
 40
1
 40
1
 40
1
 40
1
 10
2019.858320
 20
498.732324
 30
0.0
 10
2041.192640
 20
488.361196
 30
0.0
 10
2062.632160
 20
479.195420
 30
0.0
 10
2084.061040
 20
471.583132
 30
0.0
  0
SPLINE
  5
270
100
AcDbEntity
  8
Default
 62
7
100
AcDbSpline
 70
8
 71
3
 72
8
 73
4
 74
0
 40
0
 40
0
 40
0
 40
0
 40
1
 40
1
 40
1
 40
1
 10
2084.061040
 20
471.583132
 30
0.0
 10
2129.880320
 20
455.306572
 30
0.0
 10
2175.034240
 20
446.300564
 30
0.0
 10
2221.431360
 20
446.313420
 30
0.0
  0
SPLINE
  5
271
100
AcDbEntity
  8
Default
 62
7
100
AcDbSpline
 70
8
 71
3
 72
8
 73
4
 74
0
 40
0
 40
0
 40
0
 40
0
 40
1
 40
1
 40
1
 40
1
 10
2221.431360
 20
446.313420
 30
0.0
 10
2267.816400
 20
446.327020
 30
0.0
 10
2312.991760
 20
455.353676
 30
0.0
 10
2358.799440
 20
471.617692
 30
0.0
  0
SPLINE
  5
272
100
AcDbEntity
  8
Default
 62
7
100
AcDbSpline
 70
8
 71
3
 72
8
 73
4
 74
0
 40
0
 40
0
 40
0
 40
0
 40
1
 40
1
 40
1
 40
1
 10
2358.799440
 20
471.617692
 30
0.0
 10
2380.228960
 20
479.226244
 30
0.0
 10
2401.669680
 20
488.384436
 30
0.0
 10
2423.005280
 20
498.748740
 30
0.0
  0
SPLINE
  5
273
100
AcDbEntity
  8
Default
 62
7
100
AcDbSpline
 70
8
 71
3
 72
8
 73
4
 74
0
 40
0
 40
0
 40
0
 40
0
 40
1
 40
1
 40
1
 40
1
 10
2423.005280
 20
498.748740
 30
0.0
 10
2401.669680
 20
488.384436
 30
0.0
 10
2380.228960
 20
479.226244
 30
0.0
 10
2358.799440
 20
471.617692
 30
0.0
  0
SPLINE
  5
274
100
AcDbEntity
  8
Default
 62
7
100
AcDbSpline
 70
8
 71
3
 72
8
 73
4
 74
0
 40
0
 40
0
 40
0
 40
0
 40
1
 40
1
 40
1
 40
1
 10
2358.799440
 20
471.617692
 30
0.0
 10
2312.991760
 20
455.353676
 30
0.0
 10
2267.816400
 20
446.326276
 30
0.0
 10
2221.431360
 20
446.313420
 30
0.0
  0
SPLINE
  5
275
100
AcDbEntity
  8
Default
 62
7
100
AcDbSpline
 70
8
 71
3
 72
8
 73
4
 74
0
 40
0
 40
0
 40
0
 40
0
 40
1
 40
1
 40
1
 40
1
 10
2221.431360
 20
446.313420
 30
0.0
 10
2175.034240
 20
446.299820
 30
0.0
 10
2129.880320
 20
455.306572
 30
0.0
 10
2084.061040
 20
471.583132
 30
0.0
  0
SPLINE
  5
276
100
AcDbEntity
  8
Default
 62
7
100
AcDbSpline
 70
8
 71
3
 72
8
 73
4
 74
0
 40
0
 40
0
 40
0
 40
0
 40
1
 40
1
 40
1
 40
1
 10
2084.061040
 20
471.583132
 30
0.0
 10
2062.632160
 20
479.195420
 30
0.0
 10
2041.192640
 20
488.361196
 30
0.0
 10
2019.858320
 20
498.732324
 30
0.0
  0
SPLINE
  5
277
100
AcDbEntity
  8
Default
 62
7
100
AcDbSpline
 70
8
 71
3
 72
8
 73
4
 74
0
 40
0
 40
0
 40
0
 40
0
 40
1
 40
1
 40
1
 40
1
 10
1988.741440
 20
981.309796
 30
0.0
 10
1991.395120
 20
942.636180
 30
0.0
 10
1994.056880
 20
903.987305
 30
0.0
 10
1996.703840
 20
865.208377
 30
0.0
  0
SPLINE
  5
278
100
AcDbEntity
  8
Default
 62
7
100
AcDbSpline
 70
8
 71
3
 72
8
 73
4
 74
0
 40
0
 40
0
 40
0
 40
0
 40
1
 40
1
 40
1
 40
1
 10
1996.703840
 20
865.208377
 30
0.0
 10
2000.605040
 20
808.055094
 30
0.0
 10
2004.450480
 20
750.959212
 30
0.0
 10
2008.138880
 20
693.671084
 30
0.0
  0
SPLINE
  5
279
100
AcDbEntity
  8
Default
 62
7
100
AcDbSpline
 70
8
 71
3
 72
8
 73
4
 74
0
 40
0
 40
0
 40
0
 40
0
 40
1
 40
1
 40
1
 40
1
 10
2008.138880
 20
693.671084
 30
0.0
 10
2011.831200
 20
636.320444
 30
0.0
 10
2015.345280
 20
579.097228
 30
0.0
 10
2018.587040
 20
521.566796
 30
0.0
  0
SPLINE
  5
27a
100
AcDbEntity
  8
Default
 62
7
100
AcDbSpline
 70
8
 71
3
 72
8
 73
4
 74
0
 40
0
 40
0
 40
0
 40
0
 40
1
 40
1
 40
1
 40
1
 10
2018.587040
 20
521.566796
 30
0.0
 10
2019.016400
 20
513.948180
 30
0.0
 10
2019.440160
 20
506.337516
 30
0.0
 10
2019.858320
 20
498.732324
 30
0.0
  0
SPLINE
  5
27b
100
AcDbEntity
  8
Default
 62
7
100
AcDbSpline
 70
8
 71
3
 72
8
 73
4
 74
0
 40
0
 40
0
 40
0
 40
0
 40
1
 40
1
 40
1
 40
1
 10
2019.858320
 20
498.732324
 30
0.0
 10
2019.440160
 20
506.337516
 30
0.0
 10
2019.016400
 20
513.948180
 30
0.0
 10
2018.587040
 20
521.566796
 30
0.0
  0
SPLINE
  5
27c
100
AcDbEntity
  8
Default
 62
7
100
AcDbSpline
 70
8
 71
3
 72
8
 73
4
 74
0
 40
0
 40
0
 40
0
 40
0
 40
1
 40
1
 40
1
 40
1
 10
2018.587040
 20
521.566796
 30
0.0
 10
2015.345280
 20
579.097228
 30
0.0
 10
2011.831200
 20
636.320444
 30
0.0
 10
2008.138880
 20
693.671084
 30
0.0
  0
SPLINE
  5
27d
100
AcDbEntity
  8
Default
 62
7
100
AcDbSpline
 70
8
 71
3
 72
8
 73
4
 74
0
 40
0
 40
0
 40
0
 40
0
 40
1
 40
1
 40
1
 40
1
 10
2008.138880
 20
693.671084
 30
0.0
 10
2004.450480
 20
750.959212
 30
0.0
 10
2000.605040
 20
808.055094
 30
0.0
 10
1996.703840
 20
865.208377
 30
0.0
  0
SPLINE
  5
27e
100
AcDbEntity
  8
Default
 62
7
100
AcDbSpline
 70
8
 71
3
 72
8
 73
4
 74
0
 40
0
 40
0
 40
0
 40
0
 40
1
 40
1
 40
1
 40
1
 10
1996.703840
 20
865.208377
 30
0.0
 10
1994.056880
 20
903.987305
 30
0.0
 10
1991.395120
 20
942.636180
 30
0.0
 10
1988.741440
 20
981.309796
 30
0.0
  0
SPLINE
  5
27f
100
AcDbEntity
  8
Default
 62
7
100
AcDbSpline
 70
8
 71
3
 72
8
 73
4
 74
0
 40
0
 40
0
 40
0
 40
0
 40
1
 40
1
 40
1
 40
1
 10
2454.123920
 20
981.347756
 30
0.0
 10
2451.469360
 20
942.661468
 30
0.0
 10
2448.806720
 20
904.000004
 30
0.0
 10
2446.158880
 20
865.208377
 30
0.0
  0
SPLINE
  5
280
100
AcDbEntity
  8
Default
 62
7
100
AcDbSpline
 70
8
 71
3
 72
8
 73
4
 74
0
 40
0
 40
0
 40
0
 40
0
 40
1
 40
1
 40
1
 40
1
 10
2446.158880
 20
865.208377
 30
0.0
 10
2442.257680
 20
808.055094
 30
0.0
 10
2438.412240
 20
750.959212
 30
0.0
 10
2434.723840
 20
693.671084
 30
0.0
  0
SPLINE
  5
281
100
AcDbEntity
  8
Default
 62
7
100
AcDbSpline
 70
8
 71
3
 72
8
 73
4
 74
0
 40
0
 40
0
 40
0
 40
0
 40
1
 40
1
 40
1
 40
1
 10
2434.723840
 20
693.671084
 30
0.0
 10
2431.031520
 20
636.320444
 30
0.0
 10
2427.517520
 20
579.097228
 30
0.0
 10
2424.275680
 20
521.566796
 30
0.0
  0
SPLINE
  5
282
100
AcDbEntity
  8
Default
 62
7
100
AcDbSpline
 70
8
 71
3
 72
8
 73
4
 74
0
 40
0
 40
0
 40
0
 40
0
 40
1
 40
1
 40
1
 40
1
 10
2424.275680
 20
521.566796
 30
0.0
 10
2423.846640
 20
513.953644
 30
0.0
 10
2423.423200
 20
506.348468
 30
0.0
 10
2423.005280
 20
498.748740
 30
0.0
  0
SPLINE
  5
283
100
AcDbEntity
  8
Default
 62
7
100
AcDbSpline
 70
8
 71
3
 72
8
 73
4
 74
0
 40
0
 40
0
 40
0
 40
0
 40
1
 40
1
 40
1
 40
1
 10
2423.005280
 20
498.748740
 30
0.0
 10
2423.423200
 20
506.348468
 30
0.0
 10
2423.846640
 20
513.953644
 30
0.0
 10
2424.275680
 20
521.566796
 30
0.0
  0
SPLINE
  5
284
100
AcDbEntity
  8
Default
 62
7
100
AcDbSpline
 70
8
 71
3
 72
8
 73
4
 74
0
 40
0
 40
0
 40
0
 40
0
 40
1
 40
1
 40
1
 40
1
 10
2424.275680
 20
521.566796
 30
0.0
 10
2427.517520
 20
579.097228
 30
0.0
 10
2431.031520
 20
636.320444
 30
0.0
 10
2434.723840
 20
693.671084
 30
0.0
  0
SPLINE
  5
285
100
AcDbEntity
  8
Default
 62
7
100
AcDbSpline
 70
8
 71
3
 72
8
 73
4
 74
0
 40
0
 40
0
 40
0
 40
0
 40
1
 40
1
 40
1
 40
1
 10
2434.723840
 20
693.671084
 30
0.0
 10
2438.412240
 20
750.959212
 30
0.0
 10
2442.257680
 20
808.055094
 30
0.0
 10
2446.158880
 20
865.208377
 30
0.0
  0
SPLINE
  5
286
100
AcDbEntity
  8
Default
 62
7
100
AcDbSpline
 70
8
 71
3
 72
8
 73
4
 74
0
 40
0
 40
0
 40
0
 40
0
 40
1
 40
1
 40
1
 40
1
 10
2446.158880
 20
865.208377
 30
0.0
 10
2448.806720
 20
904.000004
 30
0.0
 10
2451.469360
 20
942.661468
 30
0.0
 10
2454.123920
 20
981.347756
 30
0.0
  0
LWPOLYLINE
  5
287
100
AcDbEntity
  8
Default
 62
7
100
AcDbPolyline
 90
2
 70
0
 10
2469.299520
 20
1207.563388
 30
0.0
 10
2469.299520
 20
1207.563388
 30
0.0
  0
LWPOLYLINE
  5
288
100
AcDbEntity
  8
Default
 62
7
100
AcDbPolyline
 90
2
 70
0
 10
2221.431360
 20
967.108172
 30
0.0
 10
2221.431360
 20
967.108172
 30
0.0
  0
LWPOLYLINE
  5
289
100
AcDbEntity
  8
Default
 62
7
100
AcDbPolyline
 90
3
 70
0
 10
1988.741440
 20
981.309796
 30
0.0
 10
1988.741440
 20
981.309836
 30
0.0
 10
1988.741440
 20
981.309796
 30
0.0
  0
LWPOLYLINE
  5
28a
100
AcDbEntity
  8
Default
 62
7
100
AcDbPolyline
 90
3
 70
0
 10
2454.123920
 20
981.347756
 30
0.0
 10
2454.123920
 20
981.347828
 30
0.0
 10
2454.123920
 20
981.347756
 30
0.0
  0
SPLINE
  5
28b
100
AcDbEntity
  8
Default
 62
7
100
AcDbSpline
 70
8
 71
3
 72
8
 73
4
 74
0
 40
0
 40
0
 40
0
 40
0
 40
1
 40
1
 40
1
 40
1
 10
1988.741440
 20
981.309796
 30
0.0
 10
2013.342400
 20
978.367612
 30
0.0
 10
2037.951120
 20
975.851516
 30
0.0
 10
2062.567360
 20
973.797164
 30
0.0
  0
SPLINE
  5
28c
100
AcDbEntity
  8
Default
 62
7
100
AcDbSpline
 70
8
 71
3
 72
8
 73
4
 74
0
 40
0
 40
0
 40
0
 40
0
 40
1
 40
1
 40
1
 40
1
 10
2062.567360
 20
973.797164
 30
0.0
 10
2115.501760
 20
969.379516
 30
0.0
 10
2168.429040
 20
967.102820
 30
0.0
 10
2221.431360
 20
967.108172
 30
0.0
  0
LWPOLYLINE
  5
28d
100
AcDbEntity
  8
Default
 62
7
100
AcDbPolyline
 90
3
 70
0
 10
2423.005280
 20
498.748740
 30
0.0
 10
2423.005280
 20
498.748740
 30
0.0
 10
2423.005280
 20
498.748740
 30
0.0
  0
LWPOLYLINE
  5
28e
100
AcDbEntity
  8
Default
 62
7
100
AcDbPolyline
 90
3
 70
0
 10
2019.858320
 20
498.732324
 30
0.0
 10
2019.858320
 20
498.732324
 30
0.0
 10
2019.858320
 20
498.732324
 30
0.0
  0
SPLINE
  5
28f
100
AcDbEntity
  8
Default
 62
7
100
AcDbSpline
 70
8
 71
3
 72
8
 73
4
 74
0
 40
0
 40
0
 40
0
 40
0
 40
1
 40
1
 40
1
 40
1
 10
2221.431360
 20
967.108172
 30
0.0
 10
2274.407760
 20
967.115372
 30
0.0
 10
2327.348000
 20
969.403940
 30
0.0
 10
2380.295280
 20
973.829276
 30
0.0
  0
SPLINE
  5
290
100
AcDbEntity
  8
Default
 62
7
100
AcDbSpline
 70
8
 71
3
 72
8
 73
4
 74
0
 40
0
 40
0
 40
0
 40
0
 40
1
 40
1
 40
1
 40
1
 10
2380.295280
 20
973.829276
 30
0.0
 10
2404.912480
 20
975.886780
 30
0.0
 10
2429.522000
 20
978.404756
 30
0.0
 10
2454.123920
 20
981.347756
 30
0.0
  0
LWPOLYLINE
  5
291
100
AcDbEntity
  8
Default
 62
7
100
AcDbPolyline
 90
2
 70
0
 10
2062.567360
 20
973.797164
 30
0.0
 10
2062.567360
 20
973.797164
 30
0.0
  0
SPLINE
  5
292
100
AcDbEntity
  8
Default
 62
7
100
AcDbSpline
 70
8
 71
3
 72
8
 73
4
 74
0
 40
0
 40
0
 40
0
 40
0
 40
1
 40
1
 40
1
 40
1
 10
2019.858320
 20
498.732324
 30
0.0
 10
2041.192640
 20
488.361196
 30
0.0
 10
2062.632160
 20
479.195420
 30
0.0
 10
2084.061040
 20
471.583132
 30
0.0
  0
SPLINE
  5
293
100
AcDbEntity
  8
Default
 62
7
100
AcDbSpline
 70
8
 71
3
 72
8
 73
4
 74
0
 40
0
 40
0
 40
0
 40
0
 40
1
 40
1
 40
1
 40
1
 10
2084.061040
 20
471.583132
 30
0.0
 10
2129.880320
 20
455.306572
 30
0.0
 10
2175.034240
 20
446.300564
 30
0.0
 10
2221.431360
 20
446.313420
 30
0.0
  0
SPLINE
  5
294
100
AcDbEntity
  8
Default
 62
7
100
AcDbSpline
 70
8
 71
3
 72
8
 73
4
 74
0
 40
0
 40
0
 40
0
 40
0
 40
1
 40
1
 40
1
 40
1
 10
2221.431360
 20
446.313420
 30
0.0
 10
2267.816400
 20
446.327020
 30
0.0
 10
2312.991760
 20
455.353676
 30
0.0
 10
2358.799440
 20
471.617692
 30
0.0
  0
SPLINE
  5
295
100
AcDbEntity
  8
Default
 62
7
100
AcDbSpline
 70
8
 71
3
 72
8
 73
4
 74
0
 40
0
 40
0
 40
0
 40
0
 40
1
 40
1
 40
1
 40
1
 10
2358.799440
 20
471.617692
 30
0.0
 10
2380.228960
 20
479.226244
 30
0.0
 10
2401.669680
 20
488.384436
 30
0.0
 10
2423.005280
 20
498.748740
 30
0.0
  0
LWPOLYLINE
  5
296
100
AcDbEntity
  8
Default
 62
7
100
AcDbPolyline
 90
2
 70
0
 10
2221.392480
 20
967.108172
 30
0.0
 10
2221.392480
 20
967.108172
 30
0.0
  0
LWPOLYLINE
  5
297
100
AcDbEntity
  8
Default
 62
7
100
AcDbPolyline
 90
2
 70
0
 10
2380.295280
 20
973.829276
 30
0.0
 10
2380.295280
 20
973.829276
 30
0.0
  0
LWPOLYLINE
  5
298
100
AcDbEntity
  8
Default
 62
7
100
AcDbPolyline
 90
2
 70
0
 10
2084.061040
 20
471.583132
 30
0.0
 10
2084.061040
 20
471.583132
 30
0.0
  0
SPLINE
  5
299
100
AcDbEntity
  8
Default
 62
7
100
AcDbSpline
 70
8
 71
3
 72
8
 73
4
 74
0
 40
0
 40
0
 40
0
 40
0
 40
1
 40
1
 40
1
 40
1
 10
1988.741440
 20
981.309796
 30
0.0
 10
1991.395120
 20
942.636180
 30
0.0
 10
1994.056880
 20
903.987305
 30
0.0
 10
1996.703840
 20
865.208377
 30
0.0
  0
SPLINE
  5
29a
100
AcDbEntity
  8
Default
 62
7
100
AcDbSpline
 70
8
 71
3
 72
8
 73
4
 74
0
 40
0
 40
0
 40
0
 40
0
 40
1
 40
1
 40
1
 40
1
 10
1996.703840
 20
865.208377
 30
0.0
 10
2000.605040
 20
808.055094
 30
0.0
 10
2004.450480
 20
750.959212
 30
0.0
 10
2008.138880
 20
693.671084
 30
0.0
  0
SPLINE
  5
29b
100
AcDbEntity
  8
Default
 62
7
100
AcDbSpline
 70
8
 71
3
 72
8
 73
4
 74
0
 40
0
 40
0
 40
0
 40
0
 40
1
 40
1
 40
1
 40
1
 10
2008.138880
 20
693.671084
 30
0.0
 10
2011.831200
 20
636.320444
 30
0.0
 10
2015.345280
 20
579.097228
 30
0.0
 10
2018.587040
 20
521.566796
 30
0.0
  0
SPLINE
  5
29c
100
AcDbEntity
  8
Default
 62
7
100
AcDbSpline
 70
8
 71
3
 72
8
 73
4
 74
0
 40
0
 40
0
 40
0
 40
0
 40
1
 40
1
 40
1
 40
1
 10
2018.587040
 20
521.566796
 30
0.0
 10
2019.016400
 20
513.948180
 30
0.0
 10
2019.440160
 20
506.337516
 30
0.0
 10
2019.858320
 20
498.732324
 30
0.0
  0
LWPOLYLINE
  5
29d
100
AcDbEntity
  8
Default
 62
7
100
AcDbPolyline
 90
2
 70
0
 10
2221.431360
 20
446.313420
 30
0.0
 10
2221.431360
 20
446.313420
 30
0.0
  0
LWPOLYLINE
  5
29e
100
AcDbEntity
  8
Default
 62
7
100
AcDbPolyline
 90
2
 70
0
 10
2358.799440
 20
471.617692
 30
0.0
 10
2358.799440
 20
471.617692
 30
0.0
  0
LWPOLYLINE
  5
29f
100
AcDbEntity
  8
Default
 62
7
100
AcDbPolyline
 90
2
 70
0
 10
1996.703840
 20
865.208377
 30
0.0
 10
1996.703840
 20
865.208377
 30
0.0
  0
SPLINE
  5
2a0
100
AcDbEntity
  8
Default
 62
7
100
AcDbSpline
 70
8
 71
3
 72
8
 73
4
 74
0
 40
0
 40
0
 40
0
 40
0
 40
1
 40
1
 40
1
 40
1
 10
2454.123920
 20
981.347756
 30
0.0
 10
2451.469360
 20
942.661468
 30
0.0
 10
2448.806720
 20
904.000004
 30
0.0
 10
2446.158880
 20
865.208377
 30
0.0
  0
SPLINE
  5
2a1
100
AcDbEntity
  8
Default
 62
7
100
AcDbSpline
 70
8
 71
3
 72
8
 73
4
 74
0
 40
0
 40
0
 40
0
 40
0
 40
1
 40
1
 40
1
 40
1
 10
2446.158880
 20
865.208377
 30
0.0
 10
2442.257680
 20
808.055094
 30
0.0
 10
2438.412240
 20
750.959212
 30
0.0
 10
2434.723840
 20
693.671084
 30
0.0
  0
SPLINE
  5
2a2
100
AcDbEntity
  8
Default
 62
7
100
AcDbSpline
 70
8
 71
3
 72
8
 73
4
 74
0
 40
0
 40
0
 40
0
 40
0
 40
1
 40
1
 40
1
 40
1
 10
2434.723840
 20
693.671084
 30
0.0
 10
2431.031520
 20
636.320444
 30
0.0
 10
2427.517520
 20
579.097228
 30
0.0
 10
2424.275680
 20
521.566796
 30
0.0
  0
SPLINE
  5
2a3
100
AcDbEntity
  8
Default
 62
7
100
AcDbSpline
 70
8
 71
3
 72
8
 73
4
 74
0
 40
0
 40
0
 40
0
 40
0
 40
1
 40
1
 40
1
 40
1
 10
2424.275680
 20
521.566796
 30
0.0
 10
2423.846640
 20
513.953644
 30
0.0
 10
2423.423200
 20
506.348468
 30
0.0
 10
2423.005280
 20
498.748740
 30
0.0
  0
LWPOLYLINE
  5
2a4
100
AcDbEntity
  8
Default
 62
7
100
AcDbPolyline
 90
2
 70
0
 10
2008.138880
 20
693.671084
 30
0.0
 10
2008.138880
 20
693.671084
 30
0.0
  0
LWPOLYLINE
  5
2a5
100
AcDbEntity
  8
Default
 62
7
100
AcDbPolyline
 90
2
 70
0
 10
2018.587040
 20
521.566796
 30
0.0
 10
2018.587040
 20
521.566796
 30
0.0
  0
LWPOLYLINE
  5
2a6
100
AcDbEntity
  8
Default
 62
7
100
AcDbPolyline
 90
2
 70
0
 10
2446.158880
 20
865.208377
 30
0.0
 10
2446.158880
 20
865.208377
 30
0.0
  0
SPLINE
  5
2a7
100
AcDbEntity
  8
Default
 62
7
100
AcDbSpline
 70
8
 71
3
 72
8
 73
4
 74
0
 40
0
 40
0
 40
0
 40
0
 40
1
 40
1
 40
1
 40
1
 10
2760.085200
 20
1037.617988
 30
0.0
 10
2760.024400
 20
1037.224220
 30
0.0
 10
2759.962960
 20
1036.830460
 30
0.0
 10
2759.901760
 20
1036.436692
 30
0.0
  0
SPLINE
  5
2a8
100
AcDbEntity
  8
Default
 62
7
100
AcDbSpline
 70
8
 71
3
 72
8
 73
4
 74
0
 40
0
 40
0
 40
0
 40
0
 40
1
 40
1
 40
1
 40
1
 10
2759.901760
 20
1036.436692
 30
0.0
 10
2751.032400
 20
979.312388
 30
0.0
 10
2742.068960
 20
922.401844
 30
0.0
 10
2733.178960
 20
865.208377
 30
0.0
  0
SPLINE
  5
2a9
100
AcDbEntity
  8
Default
 62
7
100
AcDbSpline
 70
8
 71
3
 72
8
 73
4
 74
0
 40
0
 40
0
 40
0
 40
0
 40
1
 40
1
 40
1
 40
1
 10
2733.178960
 20
865.208377
 30
0.0
 10
2724.295280
 20
808.055094
 30
0.0
 10
2715.538400
 20
750.959212
 30
0.0
 10
2707.139360
 20
693.671084
 30
0.0
  0
SPLINE
  5
2aa
100
AcDbEntity
  8
Default
 62
7
100
AcDbSpline
 70
8
 71
3
 72
8
 73
4
 74
0
 40
0
 40
0
 40
0
 40
0
 40
1
 40
1
 40
1
 40
1
 10
2707.139360
 20
693.671084
 30
0.0
 10
2698.731120
 20
636.320444
 30
0.0
 10
2690.729040
 20
579.097228
 30
0.0
 10
2683.346800
 20
521.566796
 30
0.0
  0
SPLINE
  5
2ab
100
AcDbEntity
  8
Default
 62
7
100
AcDbSpline
 70
8
 71
3
 72
8
 73
4
 74
0
 40
0
 40
0
 40
0
 40
0
 40
1
 40
1
 40
1
 40
1
 10
2683.346800
 20
521.566796
 30
0.0
 10
2682.369840
 20
513.953644
 30
0.0
 10
2681.405520
 20
506.348468
 30
0.0
 10
2680.453920
 20
498.748740
 30
0.0
  0
SPLINE
  5
2ac
100
AcDbEntity
  8
Default
 62
7
100
AcDbSpline
 70
8
 71
3
 72
8
 73
4
 74
0
 40
0
 40
0
 40
0
 40
0
 40
1
 40
1
 40
1
 40
1
 10
2423.005280
 20
498.748740
 30
0.0
 10
2424.106320
 20
518.773220
 30
0.0
 10
2425.244080
 20
538.793532
 30
0.0
 10
2426.414000
 20
558.811140
 30
0.0
  0
SPLINE
  5
2ad
100
AcDbEntity
  8
Default
 62
7
100
AcDbSpline
 70
8
 71
3
 72
8
 73
4
 74
0
 40
0
 40
0
 40
0
 40
0
 40
1
 40
1
 40
1
 40
1
 10
2426.414000
 20
558.811140
 30
0.0
 10
2427.589280
 20
578.921028
 30
0.0
 10
2428.796640
 20
599.026236
 30
0.0
 10
2430.031040
 20
619.128276
 30
0.0
  0
SPLINE
  5
2ae
100
AcDbEntity
  8
Default
 62
7
100
AcDbSpline
 70
8
 71
3
 72
8
 73
4
 74
0
 40
0
 40
0
 40
0
 40
0
 40
1
 40
1
 40
1
 40
1
 10
2430.031040
 20
619.128276
 30
0.0
 10
2431.270160
 20
639.307140
 30
0.0
 10
2432.536320
 20
659.480972
 30
0.0
 10
2433.824720
 20
679.651180
 30
0.0
  0
SPLINE
  5
2af
100
AcDbEntity
  8
Default
 62
7
100
AcDbSpline
 70
8
 71
3
 72
8
 73
4
 74
0
 40
0
 40
0
 40
0
 40
0
 40
1
 40
1
 40
1
 40
1
 10
2433.824720
 20
679.651180
 30
0.0
 10
2435.115200
 20
699.852700
 30
0.0
 10
2436.427840
 20
720.048916
 30
0.0
 10
2437.757280
 20
740.241252
 30
0.0
  0
SPLINE
  5
2b0
100
AcDbEntity
  8
Default
 62
7
100
AcDbSpline
 70
8
 71
3
 72
8
 73
4
 74
0
 40
0
 40
0
 40
0
 40
0
 40
1
 40
1
 40
1
 40
1
 10
2437.757280
 20
740.241252
 30
0.0
 10
2440.413600
 20
780.587037
 30
0.0
 10
2443.136880
 20
820.908375
 30
0.0
 10
2445.886400
 20
861.216129
 30
0.0
  0
SPLINE
  5
2b1
100
AcDbEntity
  8
Default
 62
7
100
AcDbSpline
 70
8
 71
3
 72
8
 73
4
 74
0
 40
0
 40
0
 40
0
 40
0
 40
1
 40
1
 40
1
 40
1
 10
2445.886400
 20
861.216129
 30
0.0
 10
2446.571680
 20
871.261751
 30
0.0
 10
2447.258560
 20
881.306125
 30
0.0
 10
2447.946400
 20
891.349389
 30
0.0
  0
SPLINE
  5
2b2
100
AcDbEntity
  8
Default
 62
7
100
AcDbSpline
 70
8
 71
3
 72
8
 73
4
 74
0
 40
0
 40
0
 40
0
 40
0
 40
1
 40
1
 40
1
 40
1
 10
2447.946400
 20
891.349389
 30
0.0
 10
2448.633280
 20
901.379521
 30
0.0
 10
2449.321280
 20
911.408429
 30
0.0
 10
2450.009680
 20
921.436272
 30
0.0
  0
SPLINE
  5
2b3
100
AcDbEntity
  8
Default
 62
7
100
AcDbSpline
 70
8
 71
3
 72
8
 73
4
 74
0
 40
0
 40
0
 40
0
 40
0
 40
1
 40
1
 40
1
 40
1
 10
2450.009680
 20
921.436272
 30
0.0
 10
2451.380880
 20
941.411412
 30
0.0
 10
2452.753840
 20
961.381508
 30
0.0
 10
2454.123920
 20
981.347828
 30
0.0
  0
SPLINE
  5
2b4
100
AcDbEntity
  8
Default
 62
7
100
AcDbSpline
 70
8
 71
3
 72
8
 73
4
 74
0
 40
0
 40
0
 40
0
 40
0
 40
1
 40
1
 40
1
 40
1
 10
2423.005280
 20
498.748740
 30
0.0
 10
2391.489280
 20
483.439044
 30
0.0
 10
2358.452400
 20
470.127756
 30
0.0
 10
2324.574720
 20
460.812748
 30
0.0
  0
SPLINE
  5
2b5
100
AcDbEntity
  8
Default
 62
7
100
AcDbSpline
 70
8
 71
3
 72
8
 73
4
 74
0
 40
0
 40
0
 40
0
 40
0
 40
1
 40
1
 40
1
 40
1
 10
2324.574720
 20
460.812748
 30
0.0
 10
2290.792160
 20
451.523860
 30
0.0
 10
2256.565520
 20
446.323148
 30
0.0
 10
2221.431280
 20
446.313420
 30
0.0
  0
SPLINE
  5
2b6
100
AcDbEntity
  8
Default
 62
7
100
AcDbSpline
 70
8
 71
3
 72
8
 73
4
 74
0
 40
0
 40
0
 40
0
 40
0
 40
1
 40
1
 40
1
 40
1
 10
2454.123920
 20
981.347828
 30
0.0
 10
2480.789600
 20
984.539820
 30
0.0
 10
2507.478800
 20
988.238980
 30
0.0
 10
2534.262320
 20
992.415140
 30
0.0
  0
SPLINE
  5
2b7
100
AcDbEntity
  8
Default
 62
7
100
AcDbSpline
 70
8
 71
3
 72
8
 73
4
 74
0
 40
0
 40
0
 40
0
 40
0
 40
1
 40
1
 40
1
 40
1
 10
2534.262320
 20
992.415140
 30
0.0
 10
2609.807280
 20
1004.194364
 30
0.0
 10
2685.408880
 20
1019.686428
 30
0.0
 10
2760.085200
 20
1037.617988
 30
0.0
  0
SPLINE
  5
2b8
100
AcDbEntity
  8
Default
 62
7
100
AcDbSpline
 70
8
 71
3
 72
8
 73
4
 74
0
 40
0
 40
0
 40
0
 40
0
 40
1
 40
1
 40
1
 40
1
 10
2221.431280
 20
446.313420
 30
0.0
 10
2327.058960
 20
446.327020
 30
0.0
 10
2429.932000
 20
455.353676
 30
0.0
 10
2534.244960
 20
471.617692
 30
0.0
  0
SPLINE
  5
2b9
100
AcDbEntity
  8
Default
 62
7
100
AcDbSpline
 70
8
 71
3
 72
8
 73
4
 74
0
 40
0
 40
0
 40
0
 40
0
 40
1
 40
1
 40
1
 40
1
 10
2534.244960
 20
471.617692
 30
0.0
 10
2583.044080
 20
479.226244
 30
0.0
 10
2631.868720
 20
488.384436
 30
0.0
 10
2680.454000
 20
498.748740
 30
0.0
  0
SPLINE
  5
2ba
100
AcDbEntity
  8
Default
 62
7
100
AcDbSpline
 70
8
 71
3
 72
8
 73
4
 74
0
 40
0
 40
0
 40
0
 40
0
 40
1
 40
1
 40
1
 40
1
 10
1682.778320
 20
1037.612868
 30
0.0
 10
1757.452800
 20
1019.673436
 30
0.0
 10
1833.050480
 20
1004.165908
 30
0.0
 10
1908.595280
 20
992.380604
 30
0.0
  0
SPLINE
  5
2bb
100
AcDbEntity
  8
Default
 62
7
100
AcDbSpline
 70
8
 71
3
 72
8
 73
4
 74
0
 40
0
 40
0
 40
0
 40
0
 40
1
 40
1
 40
1
 40
1
 10
1908.595280
 20
992.380604
 30
0.0
 10
1935.385520
 20
988.201228
 30
0.0
 10
1962.076400
 20
984.501084
 30
0.0
 10
1988.741440
 20
981.309836
 30
0.0
  0
SPLINE
  5
2bc
100
AcDbEntity
  8
Default
 62
7
100
AcDbSpline
 70
8
 71
3
 72
8
 73
4
 74
0
 40
0
 40
0
 40
0
 40
0
 40
1
 40
1
 40
1
 40
1
 10
1762.410800
 20
498.732324
 30
0.0
 10
1810.993200
 20
488.361196
 30
0.0
 10
1859.814960
 20
479.195420
 30
0.0
 10
1908.612720
 20
471.583132
 30
0.0
  0
SPLINE
  5
2bd
100
AcDbEntity
  8
Default
 62
7
100
AcDbSpline
 70
8
 71
3
 72
8
 73
4
 74
0
 40
0
 40
0
 40
0
 40
0
 40
1
 40
1
 40
1
 40
1
 10
1908.612720
 20
471.583132
 30
0.0
 10
2012.951920
 20
455.306572
 30
0.0
 10
2115.776080
 20
446.300588
 30
0.0
 10
2221.431280
 20
446.313420
 30
0.0
  0
SPLINE
  5
2be
100
AcDbEntity
  8
Default
 62
7
100
AcDbSpline
 70
8
 71
3
 72
8
 73
4
 74
0
 40
0
 40
0
 40
0
 40
0
 40
1
 40
1
 40
1
 40
1
 10
1682.778320
 20
1037.612868
 30
0.0
 10
1682.839120
 20
1037.220796
 30
0.0
 10
1682.900080
 20
1036.828732
 30
0.0
 10
1682.960880
 20
1036.436692
 30
0.0
  0
SPLINE
  5
2bf
100
AcDbEntity
  8
Default
 62
7
100
AcDbSpline
 70
8
 71
3
 72
8
 73
4
 74
0
 40
0
 40
0
 40
0
 40
0
 40
1
 40
1
 40
1
 40
1
 10
1682.960880
 20
1036.436692
 30
0.0
 10
1691.830240
 20
979.312388
 30
0.0
 10
1700.793680
 20
922.401844
 30
0.0
 10
1709.683600
 20
865.208377
 30
0.0
  0
SPLINE
  5
2c0
100
AcDbEntity
  8
Default
 62
7
100
AcDbSpline
 70
8
 71
3
 72
8
 73
4
 74
0
 40
0
 40
0
 40
0
 40
0
 40
1
 40
1
 40
1
 40
1
 10
1709.683600
 20
865.208377
 30
0.0
 10
1718.567280
 20
808.055094
 30
0.0
 10
1727.324160
 20
750.959212
 30
0.0
 10
1735.723280
 20
693.671084
 30
0.0
  0
SPLINE
  5
2c1
100
AcDbEntity
  8
Default
 62
7
100
AcDbSpline
 70
8
 71
3
 72
8
 73
4
 74
0
 40
0
 40
0
 40
0
 40
0
 40
1
 40
1
 40
1
 40
1
 10
1735.723280
 20
693.671084
 30
0.0
 10
1744.131520
 20
636.320444
 30
0.0
 10
1752.133600
 20
579.097228
 30
0.0
 10
1759.515840
 20
521.566796
 30
0.0
  0
SPLINE
  5
2c2
100
AcDbEntity
  8
Default
 62
7
100
AcDbSpline
 70
8
 71
3
 72
8
 73
4
 74
0
 40
0
 40
0
 40
0
 40
0
 40
1
 40
1
 40
1
 40
1
 10
1759.515840
 20
521.566796
 30
0.0
 10
1760.493440
 20
513.948180
 30
0.0
 10
1761.458480
 20
506.337516
 30
0.0
 10
1762.410720
 20
498.732324
 30
0.0
  0
SPLINE
  5
2c3
100
AcDbEntity
  8
Default
 62
7
100
AcDbSpline
 70
8
 71
3
 72
8
 73
4
 74
0
 40
0
 40
0
 40
0
 40
0
 40
1
 40
1
 40
1
 40
1
 10
2019.858320
 20
498.732324
 30
0.0
 10
2018.757360
 20
518.755876
 30
0.0
 10
2017.619680
 20
538.775252
 30
0.0
 10
2016.449840
 20
558.791908
 30
0.0
  0
SPLINE
  5
2c4
100
AcDbEntity
  8
Default
 62
7
100
AcDbSpline
 70
8
 71
3
 72
8
 73
4
 74
0
 40
0
 40
0
 40
0
 40
0
 40
1
 40
1
 40
1
 40
1
 10
2016.449840
 20
558.791908
 30
0.0
 10
2015.274640
 20
578.900868
 30
0.0
 10
2014.067360
 20
599.005148
 30
0.0
 10
2012.833040
 20
619.106252
 30
0.0
  0
SPLINE
  5
2c5
100
AcDbEntity
  8
Default
 62
7
100
AcDbSpline
 70
8
 71
3
 72
8
 73
4
 74
0
 40
0
 40
0
 40
0
 40
0
 40
1
 40
1
 40
1
 40
1
 10
2012.833040
 20
619.106252
 30
0.0
 10
2011.594000
 20
639.284188
 30
0.0
 10
2010.327920
 20
659.457076
 30
0.0
 10
2009.039600
 20
679.626372
 30
0.0
  0
SPLINE
  5
2c6
100
AcDbEntity
  8
Default
 62
7
100
AcDbSpline
 70
8
 71
3
 72
8
 73
4
 74
0
 40
0
 40
0
 40
0
 40
0
 40
1
 40
1
 40
1
 40
1
 10
2009.039600
 20
679.626372
 30
0.0
 10
2007.749200
 20
699.826988
 30
0.0
 10
2006.436640
 20
720.022268
 30
0.0
 10
2005.107280
 20
740.213700
 30
0.0
  0
SPLINE
  5
2c7
100
AcDbEntity
  8
Default
 62
7
100
AcDbSpline
 70
8
 71
3
 72
8
 73
4
 74
0
 40
0
 40
0
 40
0
 40
0
 40
1
 40
1
 40
1
 40
1
 10
2005.107280
 20
740.213700
 30
0.0
 10
2002.451120
 20
780.557716
 30
0.0
 10
1999.728000
 20
820.877262
 30
0.0
 10
1996.978560
 20
861.183248
 30
0.0
  0
SPLINE
  5
2c8
100
AcDbEntity
  8
Default
 62
7
100
AcDbSpline
 70
8
 71
3
 72
8
 73
4
 74
0
 40
0
 40
0
 40
0
 40
0
 40
1
 40
1
 40
1
 40
1
 10
1996.978560
 20
861.183248
 30
0.0
 10
1996.293360
 20
871.228393
 30
0.0
 10
1995.606480
 20
881.272291
 30
0.0
 10
1994.918720
 20
891.315101
 30
0.0
  0
SPLINE
  5
2c9
100
AcDbEntity
  8
Default
 62
7
100
AcDbSpline
 70
8
 71
3
 72
8
 73
4
 74
0
 40
0
 40
0
 40
0
 40
0
 40
1
 40
1
 40
1
 40
1
 10
1994.918720
 20
891.315101
 30
0.0
 10
1994.231760
 20
901.344825
 30
0.0
 10
1993.543840
 20
911.373348
 30
0.0
 10
1992.855520
 20
921.400805
 30
0.0
  0
SPLINE
  5
2ca
100
AcDbEntity
  8
Default
 62
7
100
AcDbSpline
 70
8
 71
3
 72
8
 73
4
 74
0
 40
0
 40
0
 40
0
 40
0
 40
1
 40
1
 40
1
 40
1
 10
1992.855520
 20
921.400805
 30
0.0
 10
1991.484320
 20
941.375100
 30
0.0
 10
1990.111360
 20
961.344364
 30
0.0
 10
1988.741440
 20
981.309836
 30
0.0
  0
SPLINE
  5
2cb
100
AcDbEntity
  8
Default
 62
7
100
AcDbSpline
 70
8
 71
3
 72
8
 73
4
 74
0
 40
0
 40
0
 40
0
 40
0
 40
1
 40
1
 40
1
 40
1
 10
2221.431280
 20
446.313420
 30
0.0
 10
2186.287360
 20
446.304380
 30
0.0
 10
2152.064720
 20
451.487988
 30
0.0
 10
2118.271840
 20
460.779412
 30
0.0
  0
SPLINE
  5
2cc
100
AcDbEntity
  8
Default
 62
7
100
AcDbSpline
 70
8
 71
3
 72
8
 73
4
 74
0
 40
0
 40
0
 40
0
 40
0
 40
1
 40
1
 40
1
 40
1
 10
2118.271840
 20
460.779412
 30
0.0
 10
2084.395120
 20
470.093900
 30
0.0
 10
2051.368160
 20
483.414620
 30
0.0
 10
2019.858320
 20
498.732324
 30
0.0
  0
SPLINE
  5
2cd
100
AcDbEntity
  8
Default
 62
7
100
AcDbSpline
 70
8
 71
3
 72
8
 73
4
 74
0
 40
0
 40
0
 40
0
 40
0
 40
1
 40
1
 40
1
 40
1
 10
1768.825520
 20
445.884548
 30
0.0
 10
1815.290080
 20
436.071940
 30
0.0
 10
1861.962720
 20
427.374812
 30
0.0
 10
1908.613200
 20
420.097508
 30
0.0
  0
SPLINE
  5
2ce
100
AcDbEntity
  8
Default
 62
7
100
AcDbSpline
 70
8
 71
3
 72
8
 73
4
 74
0
 40
0
 40
0
 40
0
 40
0
 40
1
 40
1
 40
1
 40
1
 10
1908.613200
 20
420.097508
 30
0.0
 10
1947.452000
 20
414.038804
 30
0.0
 10
1986.080640
 20
408.987508
 30
0.0
 10
2024.723520
 20
405.033788
 30
0.0
  0
SPLINE
  5
2cf
100
AcDbEntity
  8
Default
 62
7
100
AcDbSpline
 70
8
 71
3
 72
8
 73
4
 74
0
 40
0
 40
0
 40
0
 40
0
 40
1
 40
1
 40
1
 40
1
 10
1768.825520
 20
445.884548
 30
0.0
 10
1772.612720
 20
413.630612
 30
0.0
 10
1776.158960
 20
381.368788
 30
0.0
 10
1779.446240
 20
348.904476
 30
0.0
  0
SPLINE
  5
2d0
100
AcDbEntity
  8
Default
 62
7
100
AcDbSpline
 70
8
 71
3
 72
8
 73
4
 74
0
 40
0
 40
0
 40
0
 40
0
 40
1
 40
1
 40
1
 40
1
 10
1779.446240
 20
348.904476
 30
0.0
 10
1785.340640
 20
290.692236
 30
0.0
 10
1790.177920
 20
234.099868
 30
0.0
 10
1794.220640
 20
175.745492
 30
0.0
  0
SPLINE
  5
2d1
100
AcDbEntity
  8
Default
 62
7
100
AcDbSpline
 70
8
 71
3
 72
8
 73
4
 74
0
 40
0
 40
0
 40
0
 40
0
 40
1
 40
1
 40
1
 40
1
 10
1794.220640
 20
175.745492
 30
0.0
 10
1796.222160
 20
146.854396
 30
0.0
 10
1797.994640
 20
117.947156
 30
0.0
 10
1799.601120
 20
89.035092
 30
0.0
  0
SPLINE
  5
2d2
100
AcDbEntity
  8
Default
 62
7
100
AcDbSpline
 70
8
 71
3
 72
8
 73
4
 74
0
 40
0
 40
0
 40
0
 40
0
 40
1
 40
1
 40
1
 40
1
 10
1799.601120
 20
89.035092
 30
0.0
 10
1801.207760
 20
60.121636
 30
0.0
 10
1802.646880
 20
31.198964
 30
0.0
 10
1804.081360
 20
2.274884
 30
0.0
  0
SPLINE
  5
2d3
100
AcDbEntity
  8
Default
 62
7
100
AcDbSpline
 70
8
 71
3
 72
8
 73
4
 74
0
 40
0
 40
0
 40
0
 40
0
 40
1
 40
1
 40
1
 40
1
 10
2038.157440
 20
2.274884
 30
0.0
 10
2037.527520
 20
31.198964
 30
0.0
 10
2036.895520
 20
60.121636
 30
0.0
 10
2036.190000
 20
89.035092
 30
0.0
  0
SPLINE
  5
2d4
100
AcDbEntity
  8
Default
 62
7
100
AcDbSpline
 70
8
 71
3
 72
8
 73
4
 74
0
 40
0
 40
0
 40
0
 40
0
 40
1
 40
1
 40
1
 40
1
 10
2036.190000
 20
89.035092
 30
0.0
 10
2035.484480
 20
117.947156
 30
0.0
 10
2034.706160
 20
146.854396
 30
0.0
 10
2033.827200
 20
175.745492
 30
0.0
  0
SPLINE
  5
2d5
100
AcDbEntity
  8
Default
 62
7
100
AcDbSpline
 70
8
 71
3
 72
8
 73
4
 74
0
 40
0
 40
0
 40
0
 40
0
 40
1
 40
1
 40
1
 40
1
 10
2033.827200
 20
175.745492
 30
0.0
 10
2032.051920
 20
234.099868
 30
0.0
 10
2029.927680
 20
290.692236
 30
0.0
 10
2027.339200
 20
348.904476
 30
0.0
  0
SPLINE
  5
2d6
100
AcDbEntity
  8
Default
 62
7
100
AcDbSpline
 70
8
 71
3
 72
8
 73
4
 74
0
 40
0
 40
0
 40
0
 40
0
 40
1
 40
1
 40
1
 40
1
 10
2027.339200
 20
348.904476
 30
0.0
 10
2026.507200
 20
367.615740
 30
0.0
 10
2025.634400
 20
386.326108
 30
0.0
 10
2024.723520
 20
405.033788
 30
0.0
  0
SPLINE
  5
2d7
100
AcDbEntity
  8
Default
 62
7
100
AcDbSpline
 70
8
 71
3
 72
8
 73
4
 74
0
 40
0
 40
0
 40
0
 40
0
 40
1
 40
1
 40
1
 40
1
 10
2038.157440
 20
2.274884
 30
0.0
 10
1960.132080
 20
2.274884
 30
0.0
 10
1882.106720
 20
2.274884
 30
0.0
 10
1804.081360
 20
2.274884
 30
0.0
  0
SPLINE
  5
2d8
100
AcDbEntity
  8
Default
 62
7
100
AcDbSpline
 70
8
 71
3
 72
8
 73
4
 74
0
 40
0
 40
0
 40
0
 40
0
 40
1
 40
1
 40
1
 40
1
 10
2638.781360
 20
2.274884
 30
0.0
 10
2560.756000
 20
2.274884
 30
0.0
 10
2482.730640
 20
2.274884
 30
0.0
 10
2404.705280
 20
2.274884
 30
0.0
  0
SPLINE
  5
2d9
100
AcDbEntity
  8
Default
 62
7
100
AcDbSpline
 70
8
 71
3
 72
8
 73
4
 74
0
 40
0
 40
0
 40
0
 40
0
 40
1
 40
1
 40
1
 40
1
 10
2674.039200
 20
445.901940
 30
0.0
 10
2670.251280
 20
413.642204
 30
0.0
 10
2666.704320
 20
381.374612
 30
0.0
 10
2663.416480
 20
348.904476
 30
0.0
  0
SPLINE
  5
2da
100
AcDbEntity
  8
Default
 62
7
100
AcDbSpline
 70
8
 71
3
 72
8
 73
4
 74
0
 40
0
 40
0
 40
0
 40
0
 40
1
 40
1
 40
1
 40
1
 10
2663.416480
 20
348.904476
 30
0.0
 10
2657.522080
 20
290.692236
 30
0.0
 10
2652.684800
 20
234.099868
 30
0.0
 10
2648.642080
 20
175.745492
 30
0.0
  0
SPLINE
  5
2db
100
AcDbEntity
  8
Default
 62
7
100
AcDbSpline
 70
8
 71
3
 72
8
 73
4
 74
0
 40
0
 40
0
 40
0
 40
0
 40
1
 40
1
 40
1
 40
1
 10
2648.642080
 20
175.745492
 30
0.0
 10
2646.640560
 20
146.854396
 30
0.0
 10
2644.868080
 20
117.947156
 30
0.0
 10
2643.261600
 20
89.035092
 30
0.0
  0
SPLINE
  5
2dc
100
AcDbEntity
  8
Default
 62
7
100
AcDbSpline
 70
8
 71
3
 72
8
 73
4
 74
0
 40
0
 40
0
 40
0
 40
0
 40
1
 40
1
 40
1
 40
1
 10
2643.261600
 20
89.035092
 30
0.0
 10
2641.654960
 20
60.121636
 30
0.0
 10
2640.215840
 20
31.198964
 30
0.0
 10
2638.781360
 20
2.274884
 30
0.0
  0
SPLINE
  5
2dd
100
AcDbEntity
  8
Default
 62
7
100
AcDbSpline
 70
8
 71
3
 72
8
 73
4
 74
0
 40
0
 40
0
 40
0
 40
0
 40
1
 40
1
 40
1
 40
1
 10
2404.705280
 20
2.274884
 30
0.0
 10
2405.335200
 20
31.198964
 30
0.0
 10
2405.967200
 20
60.121636
 30
0.0
 10
2406.672720
 20
89.035092
 30
0.0
  0
SPLINE
  5
2de
100
AcDbEntity
  8
Default
 62
7
100
AcDbSpline
 70
8
 71
3
 72
8
 73
4
 74
0
 40
0
 40
0
 40
0
 40
0
 40
1
 40
1
 40
1
 40
1
 10
2406.672720
 20
89.035092
 30
0.0
 10
2407.378240
 20
117.947156
 30
0.0
 10
2408.156560
 20
146.854396
 30
0.0
 10
2409.035520
 20
175.745492
 30
0.0
  0
SPLINE
  5
2df
100
AcDbEntity
  8
Default
 62
7
100
AcDbSpline
 70
8
 71
3
 72
8
 73
4
 74
0
 40
0
 40
0
 40
0
 40
0
 40
1
 40
1
 40
1
 40
1
 10
2409.035520
 20
175.745492
 30
0.0
 10
2410.810800
 20
234.099868
 30
0.0
 10
2412.935040
 20
290.692236
 30
0.0
 10
2415.523520
 20
348.904476
 30
0.0
  0
SPLINE
  5
2e0
100
AcDbEntity
  8
Default
 62
7
100
AcDbSpline
 70
8
 71
3
 72
8
 73
4
 74
0
 40
0
 40
0
 40
0
 40
0
 40
1
 40
1
 40
1
 40
1
 10
2415.523520
 20
348.904476
 30
0.0
 10
2416.356080
 20
367.627764
 30
0.0
 10
2417.229440
 20
386.350164
 30
0.0
 10
2418.140960
 20
405.069868
 30
0.0
  0
SPLINE
  5
2e1
100
AcDbEntity
  8
Default
 62
7
100
AcDbSpline
 70
8
 71
3
 72
8
 73
4
 74
0
 40
0
 40
0
 40
0
 40
0
 40
1
 40
1
 40
1
 40
1
 10
2418.140960
 20
405.069868
 30
0.0
 10
2456.786720
 20
409.026764
 30
0.0
 10
2495.415760
 20
414.078076
 30
0.0
 10
2534.244480
 20
420.132068
 30
0.0
  0
SPLINE
  5
2e2
100
AcDbEntity
  8
Default
 62
7
100
AcDbSpline
 70
8
 71
3
 72
8
 73
4
 74
0
 40
0
 40
0
 40
0
 40
0
 40
1
 40
1
 40
1
 40
1
 10
2534.244480
 20
420.132068
 30
0.0
 10
2580.896400
 20
427.405812
 30
0.0
 10
2627.571840
 20
436.095884
 30
0.0
 10
2674.039200
 20
445.901940
 30
0.0
  0
SPLINE
  5
2e3
100
AcDbEntity
  8
Default
 62
7
100
AcDbSpline
 70
8
 71
3
 72
8
 73
4
 74
0
 40
0
 40
0
 40
0
 40
0
 40
1
 40
1
 40
1
 40
1
 10
2404.705280
 20
2.274884
 30
0.0
 10
2282.522720
 20
2.274884
 30
0.0
 10
2160.340080
 20
2.274884
 30
0.0
 10
2038.157440
 20
2.274884
 30
0.0
  0
SPLINE
  5
2e4
100
AcDbEntity
  8
Default
 62
7
100
AcDbSpline
 70
8
 71
3
 72
8
 73
4
 74
0
 40
0
 40
0
 40
0
 40
0
 40
1
 40
1
 40
1
 40
1
 10
2404.705280
 20
2.274884
 30
0.0
 10
2282.522720
 20
2.274884
 30
0.0
 10
2160.340080
 20
2.274884
 30
0.0
 10
2038.157440
 20
2.274884
 30
0.0
  0
SPLINE
  5
2e5
100
AcDbEntity
  8
Default
 62
7
100
AcDbSpline
 70
8
 71
3
 72
8
 73
4
 74
0
 40
0
 40
0
 40
0
 40
0
 40
1
 40
1
 40
1
 40
1
 10
2221.431360
 20
394.827868
 30
0.0
 10
2274.408720
 20
394.835068
 30
0.0
 10
2327.349040
 20
397.123724
 30
0.0
 10
2380.296640
 20
401.549108
 30
0.0
  0
SPLINE
  5
2e6
100
AcDbEntity
  8
Default
 62
7
100
AcDbSpline
 70
8
 71
3
 72
8
 73
4
 74
0
 40
0
 40
0
 40
0
 40
0
 40
1
 40
1
 40
1
 40
1
 10
2380.296640
 20
401.549108
 30
0.0
 10
2392.913440
 20
402.603612
 30
0.0
 10
2405.528160
 20
403.779084
 30
0.0
 10
2418.140960
 20
405.069844
 30
0.0
  0
SPLINE
  5
2e7
100
AcDbEntity
  8
Default
 62
7
100
AcDbSpline
 70
8
 71
3
 72
8
 73
4
 74
0
 40
0
 40
0
 40
0
 40
0
 40
1
 40
1
 40
1
 40
1
 10
2418.140960
 20
405.069844
 30
0.0
 10
2405.528160
 20
403.779084
 30
0.0
 10
2392.913440
 20
402.603612
 30
0.0
 10
2380.296640
 20
401.549108
 30
0.0
  0
SPLINE
  5
2e8
100
AcDbEntity
  8
Default
 62
7
100
AcDbSpline
 70
8
 71
3
 72
8
 73
4
 74
0
 40
0
 40
0
 40
0
 40
0
 40
1
 40
1
 40
1
 40
1
 10
2380.296640
 20
401.549108
 30
0.0
 10
2327.349040
 20
397.123724
 30
0.0
 10
2274.408720
 20
394.834324
 30
0.0
 10
2221.431360
 20
394.827868
 30
0.0
  0
LWPOLYLINE
  5
2e9
100
AcDbEntity
  8
Default
 62
7
100
AcDbPolyline
 90
2
 70
0
 10
2434.723840
 20
693.671084
 30
0.0
 10
2434.723840
 20
693.671084
 30
0.0
  0
SPLINE
  5
2ea
100
AcDbEntity
  8
Default
 62
7
100
AcDbSpline
 70
8
 71
3
 72
8
 73
4
 74
0
 40
0
 40
0
 40
0
 40
0
 40
1
 40
1
 40
1
 40
1
 10
2024.723520
 20
405.033788
 30
0.0
 10
2037.335760
 20
403.744052
 30
0.0
 10
2049.949840
 20
402.569868
 30
0.0
 10
2062.566000
 20
401.516996
 30
0.0
  0
SPLINE
  5
2eb
100
AcDbEntity
  8
Default
 62
7
100
AcDbSpline
 70
8
 71
3
 72
8
 73
4
 74
0
 40
0
 40
0
 40
0
 40
0
 40
1
 40
1
 40
1
 40
1
 10
2062.566000
 20
401.516996
 30
0.0
 10
2115.500720
 20
397.099300
 30
0.0
 10
2168.428080
 20
394.822532
 30
0.0
 10
2221.431360
 20
394.827868
 30
0.0
  0
SPLINE
  5
2ec
100
AcDbEntity
  8
Default
 62
7
100
AcDbSpline
 70
8
 71
3
 72
8
 73
4
 74
0
 40
0
 40
0
 40
0
 40
0
 40
1
 40
1
 40
1
 40
1
 10
2221.431360
 20
394.827868
 30
0.0
 10
2168.428080
 20
394.823068
 30
0.0
 10
2115.500720
 20
397.099300
 30
0.0
 10
2062.566000
 20
401.516996
 30
0.0
  0
SPLINE
  5
2ed
100
AcDbEntity
  8
Default
 62
7
100
AcDbSpline
 70
8
 71
3
 72
8
 73
4
 74
0
 40
0
 40
0
 40
0
 40
0
 40
1
 40
1
 40
1
 40
1
 10
2062.566000
 20
401.516996
 30
0.0
 10
2049.949840
 20
402.569868
 30
0.0
 10
2037.335760
 20
403.744052
 30
0.0
 10
2024.723520
 20
405.033788
 30
0.0
  0
SPLINE
  5
2ee
100
AcDbEntity
  8
Default
 62
7
100
AcDbSpline
 70
8
 71
3
 72
8
 73
4
 74
0
 40
0
 40
0
 40
0
 40
0
 40
1
 40
1
 40
1
 40
1
 10
2024.723520
 20
405.033788
 30
0.0
 10
2025.632400
 20
386.366604
 30
0.0
 10
2026.504800
 20
367.669348
 30
0.0
 10
2027.339200
 20
348.904476
 30
0.0
  0
SPLINE
  5
2ef
100
AcDbEntity
  8
Default
 62
7
100
AcDbSpline
 70
8
 71
3
 72
8
 73
4
 74
0
 40
0
 40
0
 40
0
 40
0
 40
1
 40
1
 40
1
 40
1
 10
2027.339200
 20
348.904476
 30
0.0
 10
2029.927680
 20
290.692236
 30
0.0
 10
2032.051920
 20
234.099868
 30
0.0
 10
2033.827200
 20
175.745492
 30
0.0
  0
SPLINE
  5
2f0
100
AcDbEntity
  8
Default
 62
7
100
AcDbSpline
 70
8
 71
3
 72
8
 73
4
 74
0
 40
0
 40
0
 40
0
 40
0
 40
1
 40
1
 40
1
 40
1
 10
2033.827200
 20
175.745492
 30
0.0
 10
2034.706160
 20
146.854396
 30
0.0
 10
2035.484480
 20
117.947156
 30
0.0
 10
2036.190000
 20
89.035092
 30
0.0
  0
SPLINE
  5
2f1
100
AcDbEntity
  8
Default
 62
7
100
AcDbSpline
 70
8
 71
3
 72
8
 73
4
 74
0
 40
0
 40
0
 40
0
 40
0
 40
1
 40
1
 40
1
 40
1
 10
2036.190000
 20
89.035092
 30
0.0
 10
2036.895520
 20
60.121636
 30
0.0
 10
2037.527520
 20
31.198964
 30
0.0
 10
2038.157440
 20
2.274884
 30
0.0
  0
SPLINE
  5
2f2
100
AcDbEntity
  8
Default
 62
7
100
AcDbSpline
 70
8
 71
3
 72
8
 73
4
 74
0
 40
0
 40
0
 40
0
 40
0
 40
1
 40
1
 40
1
 40
1
 10
2038.157440
 20
2.274884
 30
0.0
 10
2037.527520
 20
31.198964
 30
0.0
 10
2036.895520
 20
60.121636
 30
0.0
 10
2036.190000
 20
89.035092
 30
0.0
  0
SPLINE
  5
2f3
100
AcDbEntity
  8
Default
 62
7
100
AcDbSpline
 70
8
 71
3
 72
8
 73
4
 74
0
 40
0
 40
0
 40
0
 40
0
 40
1
 40
1
 40
1
 40
1
 10
2036.190000
 20
89.035092
 30
0.0
 10
2035.484480
 20
117.947156
 30
0.0
 10
2034.706160
 20
146.854396
 30
0.0
 10
2033.827200
 20
175.745492
 30
0.0
  0
SPLINE
  5
2f4
100
AcDbEntity
  8
Default
 62
7
100
AcDbSpline
 70
8
 71
3
 72
8
 73
4
 74
0
 40
0
 40
0
 40
0
 40
0
 40
1
 40
1
 40
1
 40
1
 10
2033.827200
 20
175.745492
 30
0.0
 10
2032.051920
 20
234.099868
 30
0.0
 10
2029.927680
 20
290.692236
 30
0.0
 10
2027.339200
 20
348.904476
 30
0.0
  0
SPLINE
  5
2f5
100
AcDbEntity
  8
Default
 62
7
100
AcDbSpline
 70
8
 71
3
 72
8
 73
4
 74
0
 40
0
 40
0
 40
0
 40
0
 40
1
 40
1
 40
1
 40
1
 10
2027.339200
 20
348.904476
 30
0.0
 10
2026.504800
 20
367.669348
 30
0.0
 10
2025.632400
 20
386.366604
 30
0.0
 10
2024.723520
 20
405.033788
 30
0.0
  0
SPLINE
  5
2f6
100
AcDbEntity
  8
Default
 62
7
100
AcDbSpline
 70
8
 71
3
 72
8
 73
4
 74
0
 40
0
 40
0
 40
0
 40
0
 40
1
 40
1
 40
1
 40
1
 10
2418.140960
 20
405.069844
 30
0.0
 10
2417.231440
 20
386.390692
 30
0.0
 10
2416.358480
 20
367.681436
 30
0.0
 10
2415.523520
 20
348.904476
 30
0.0
  0
SPLINE
  5
2f7
100
AcDbEntity
  8
Default
 62
7
100
AcDbSpline
 70
8
 71
3
 72
8
 73
4
 74
0
 40
0
 40
0
 40
0
 40
0
 40
1
 40
1
 40
1
 40
1
 10
2415.523520
 20
348.904476
 30
0.0
 10
2412.935040
 20
290.692236
 30
0.0
 10
2410.810800
 20
234.099868
 30
0.0
 10
2409.035520
 20
175.745492
 30
0.0
  0
SPLINE
  5
2f8
100
AcDbEntity
  8
Default
 62
7
100
AcDbSpline
 70
8
 71
3
 72
8
 73
4
 74
0
 40
0
 40
0
 40
0
 40
0
 40
1
 40
1
 40
1
 40
1
 10
2409.035520
 20
175.745492
 30
0.0
 10
2408.156560
 20
146.854396
 30
0.0
 10
2407.378240
 20
117.947156
 30
0.0
 10
2406.672720
 20
89.035092
 30
0.0
  0
SPLINE
  5
2f9
100
AcDbEntity
  8
Default
 62
7
100
AcDbSpline
 70
8
 71
3
 72
8
 73
4
 74
0
 40
0
 40
0
 40
0
 40
0
 40
1
 40
1
 40
1
 40
1
 10
2406.672720
 20
89.035092
 30
0.0
 10
2405.967200
 20
60.121636
 30
0.0
 10
2405.335200
 20
31.198964
 30
0.0
 10
2404.705280
 20
2.274884
 30
0.0
  0
SPLINE
  5
2fa
100
AcDbEntity
  8
Default
 62
7
100
AcDbSpline
 70
8
 71
3
 72
8
 73
4
 74
0
 40
0
 40
0
 40
0
 40
0
 40
1
 40
1
 40
1
 40
1
 10
2404.705280
 20
2.274884
 30
0.0
 10
2405.335200
 20
31.198964
 30
0.0
 10
2405.967200
 20
60.121636
 30
0.0
 10
2406.672720
 20
89.035092
 30
0.0
  0
SPLINE
  5
2fb
100
AcDbEntity
  8
Default
 62
7
100
AcDbSpline
 70
8
 71
3
 72
8
 73
4
 74
0
 40
0
 40
0
 40
0
 40
0
 40
1
 40
1
 40
1
 40
1
 10
2406.672720
 20
89.035092
 30
0.0
 10
2407.378240
 20
117.947156
 30
0.0
 10
2408.156560
 20
146.854396
 30
0.0
 10
2409.035520
 20
175.745492
 30
0.0
  0
SPLINE
  5
2fc
100
AcDbEntity
  8
Default
 62
7
100
AcDbSpline
 70
8
 71
3
 72
8
 73
4
 74
0
 40
0
 40
0
 40
0
 40
0
 40
1
 40
1
 40
1
 40
1
 10
2409.035520
 20
175.745492
 30
0.0
 10
2410.810800
 20
234.099868
 30
0.0
 10
2412.935040
 20
290.692236
 30
0.0
 10
2415.523520
 20
348.904476
 30
0.0
  0
SPLINE
  5
2fd
100
AcDbEntity
  8
Default
 62
7
100
AcDbSpline
 70
8
 71
3
 72
8
 73
4
 74
0
 40
0
 40
0
 40
0
 40
0
 40
1
 40
1
 40
1
 40
1
 10
2415.523520
 20
348.904476
 30
0.0
 10
2416.358480
 20
367.681436
 30
0.0
 10
2417.231440
 20
386.390692
 30
0.0
 10
2418.140960
 20
405.069844
 30
0.0
  0
LWPOLYLINE
  5
2fe
100
AcDbEntity
  8
Default
 62
7
100
AcDbPolyline
 90
2
 70
0
 10
2424.275680
 20
521.566796
 30
0.0
 10
2424.275680
 20
521.566796
 30
0.0
  0
LWPOLYLINE
  5
2ff
100
AcDbEntity
  8
Default
 62
7
100
AcDbPolyline
 90
3
 70
0
 10
2038.157440
 20
2.274884
 30
0.0
 10
2038.157440
 20
2.274884
 30
0.0
 10
2038.157440
 20
2.274884
 30
0.0
  0
LWPOLYLINE
  5
300
100
AcDbEntity
  8
Default
 62
7
100
AcDbPolyline
 90
3
 70
0
 10
2404.705280
 20
2.274884
 30
0.0
 10
2404.705280
 20
2.274884
 30
0.0
 10
2404.705280
 20
2.274884
 30
0.0
  0
LWPOLYLINE
  5
301
100
AcDbEntity
  8
Default
 62
7
100
AcDbPolyline
 90
2
 70
0
 10
2221.431360
 20
394.827868
 30
0.0
 10
2221.431360
 20
394.827868
 30
0.0
  0
SPLINE
  5
302
100
AcDbEntity
  8
Default
 62
7
100
AcDbSpline
 70
8
 71
3
 72
8
 73
4
 74
0
 40
0
 40
0
 40
0
 40
0
 40
1
 40
1
 40
1
 40
1
 10
2404.705280
 20
2.274884
 30
0.0
 10
2282.522720
 20
2.274884
 30
0.0
 10
2160.340080
 20
2.274884
 30
0.0
 10
2038.157440
 20
2.274884
 30
0.0
  0
LWPOLYLINE
  5
303
100
AcDbEntity
  8
Default
 62
7
100
AcDbPolyline
 90
3
 70
0
 10
2418.140960
 20
405.069844
 30
0.0
 10
2418.140960
 20
405.069868
 30
0.0
 10
2418.140960
 20
405.069844
 30
0.0
  0
SPLINE
  5
304
100
AcDbEntity
  8
Default
 62
7
100
AcDbSpline
 70
8
 71
3
 72
8
 73
4
 74
0
 40
0
 40
0
 40
0
 40
0
 40
1
 40
1
 40
1
 40
1
 10
2221.431360
 20
394.827868
 30
0.0
 10
2274.408720
 20
394.835068
 30
0.0
 10
2327.349040
 20
397.123724
 30
0.0
 10
2380.296640
 20
401.549108
 30
0.0
  0
SPLINE
  5
305
100
AcDbEntity
  8
Default
 62
7
100
AcDbSpline
 70
8
 71
3
 72
8
 73
4
 74
0
 40
0
 40
0
 40
0
 40
0
 40
1
 40
1
 40
1
 40
1
 10
2380.296640
 20
401.549108
 30
0.0
 10
2392.913440
 20
402.603612
 30
0.0
 10
2405.528160
 20
403.779084
 30
0.0
 10
2418.140960
 20
405.069844
 30
0.0
  0
LWPOLYLINE
  5
306
100
AcDbEntity
  8
Default
 62
7
100
AcDbPolyline
 90
2
 70
0
 10
2221.431360
 20
2.274884
 30
0.0
 10
2221.431360
 20
2.274884
 30
0.0
  0
SPLINE
  5
307
100
AcDbEntity
  8
Default
 62
7
100
AcDbSpline
 70
8
 71
3
 72
8
 73
4
 74
0
 40
0
 40
0
 40
0
 40
0
 40
1
 40
1
 40
1
 40
1
 10
2024.723520
 20
405.033788
 30
0.0
 10
2037.335760
 20
403.744052
 30
0.0
 10
2049.949840
 20
402.569868
 30
0.0
 10
2062.566000
 20
401.516996
 30
0.0
  0
SPLINE
  5
308
100
AcDbEntity
  8
Default
 62
7
100
AcDbSpline
 70
8
 71
3
 72
8
 73
4
 74
0
 40
0
 40
0
 40
0
 40
0
 40
1
 40
1
 40
1
 40
1
 10
2062.566000
 20
401.516996
 30
0.0
 10
2115.500720
 20
397.099300
 30
0.0
 10
2168.428080
 20
394.822532
 30
0.0
 10
2221.431360
 20
394.827868
 30
0.0
  0
LWPOLYLINE
  5
309
100
AcDbEntity
  8
Default
 62
7
100
AcDbPolyline
 90
3
 70
0
 10
2024.723520
 20
405.033788
 30
0.0
 10
2024.723520
 20
405.033788
 30
0.0
 10
2024.723520
 20
405.033788
 30
0.0
  0
LWPOLYLINE
  5
30a
100
AcDbEntity
  8
Default
 62
7
100
AcDbPolyline
 90
2
 70
0
 10
2380.296640
 20
401.549108
 30
0.0
 10
2380.296640
 20
401.549108
 30
0.0
  0
SPLINE
  5
30b
100
AcDbEntity
  8
Default
 62
7
100
AcDbSpline
 70
8
 71
3
 72
8
 73
4
 74
0
 40
0
 40
0
 40
0
 40
0
 40
1
 40
1
 40
1
 40
1
 10
2024.723520
 20
405.033788
 30
0.0
 10
2025.632400
 20
386.366604
 30
0.0
 10
2026.504800
 20
367.669348
 30
0.0
 10
2027.339200
 20
348.904476
 30
0.0
  0
SPLINE
  5
30c
100
AcDbEntity
  8
Default
 62
7
100
AcDbSpline
 70
8
 71
3
 72
8
 73
4
 74
0
 40
0
 40
0
 40
0
 40
0
 40
1
 40
1
 40
1
 40
1
 10
2027.339200
 20
348.904476
 30
0.0
 10
2029.927680
 20
290.692236
 30
0.0
 10
2032.051920
 20
234.099868
 30
0.0
 10
2033.827200
 20
175.745492
 30
0.0
  0
SPLINE
  5
30d
100
AcDbEntity
  8
Default
 62
7
100
AcDbSpline
 70
8
 71
3
 72
8
 73
4
 74
0
 40
0
 40
0
 40
0
 40
0
 40
1
 40
1
 40
1
 40
1
 10
2033.827200
 20
175.745492
 30
0.0
 10
2034.706160
 20
146.854396
 30
0.0
 10
2035.484480
 20
117.947156
 30
0.0
 10
2036.190000
 20
89.035092
 30
0.0
  0
SPLINE
  5
30e
100
AcDbEntity
  8
Default
 62
7
100
AcDbSpline
 70
8
 71
3
 72
8
 73
4
 74
0
 40
0
 40
0
 40
0
 40
0
 40
1
 40
1
 40
1
 40
1
 10
2036.190000
 20
89.035092
 30
0.0
 10
2036.895520
 20
60.121636
 30
0.0
 10
2037.527520
 20
31.198964
 30
0.0
 10
2038.157440
 20
2.274884
 30
0.0
  0
LWPOLYLINE
  5
30f
100
AcDbEntity
  8
Default
 62
7
100
AcDbPolyline
 90
2
 70
0
 10
2062.566000
 20
401.516996
 30
0.0
 10
2062.566000
 20
401.516996
 30
0.0
  0
LWPOLYLINE
  5
310
100
AcDbEntity
  8
Default
 62
7
100
AcDbPolyline
 90
2
 70
0
 10
2221.392480
 20
394.827868
 30
0.0
 10
2221.392480
 20
394.827868
 30
0.0
  0
LWPOLYLINE
  5
311
100
AcDbEntity
  8
Default
 62
7
100
AcDbPolyline
 90
2
 70
0
 10
2027.339200
 20
348.904476
 30
0.0
 10
2027.339200
 20
348.904476
 30
0.0
  0
SPLINE
  5
312
100
AcDbEntity
  8
Default
 62
7
100
AcDbSpline
 70
8
 71
3
 72
8
 73
4
 74
0
 40
0
 40
0
 40
0
 40
0
 40
1
 40
1
 40
1
 40
1
 10
2418.140960
 20
405.069844
 30
0.0
 10
2417.231440
 20
386.390692
 30
0.0
 10
2416.358480
 20
367.681436
 30
0.0
 10
2415.523520
 20
348.904476
 30
0.0
  0
SPLINE
  5
313
100
AcDbEntity
  8
Default
 62
7
100
AcDbSpline
 70
8
 71
3
 72
8
 73
4
 74
0
 40
0
 40
0
 40
0
 40
0
 40
1
 40
1
 40
1
 40
1
 10
2415.523520
 20
348.904476
 30
0.0
 10
2412.935040
 20
290.692236
 30
0.0
 10
2410.810800
 20
234.099868
 30
0.0
 10
2409.035520
 20
175.745492
 30
0.0
  0
SPLINE
  5
314
100
AcDbEntity
  8
Default
 62
7
100
AcDbSpline
 70
8
 71
3
 72
8
 73
4
 74
0
 40
0
 40
0
 40
0
 40
0
 40
1
 40
1
 40
1
 40
1
 10
2409.035520
 20
175.745492
 30
0.0
 10
2408.156560
 20
146.854396
 30
0.0
 10
2407.378240
 20
117.947156
 30
0.0
 10
2406.672720
 20
89.035092
 30
0.0
  0
SPLINE
  5
315
100
AcDbEntity
  8
Default
 62
7
100
AcDbSpline
 70
8
 71
3
 72
8
 73
4
 74
0
 40
0
 40
0
 40
0
 40
0
 40
1
 40
1
 40
1
 40
1
 10
2406.672720
 20
89.035092
 30
0.0
 10
2405.967200
 20
60.121636
 30
0.0
 10
2405.335200
 20
31.198964
 30
0.0
 10
2404.705280
 20
2.274884
 30
0.0
  0
LWPOLYLINE
  5
316
100
AcDbEntity
  8
Default
 62
7
100
AcDbPolyline
 90
2
 70
0
 10
2033.827200
 20
175.745492
 30
0.0
 10
2033.827200
 20
175.745492
 30
0.0
  0
LWPOLYLINE
  5
317
100
AcDbEntity
  8
Default
 62
7
100
AcDbPolyline
 90
2
 70
0
 10
2036.190000
 20
89.035092
 30
0.0
 10
2036.190000
 20
89.035092
 30
0.0
  0
LWPOLYLINE
  5
318
100
AcDbEntity
  8
Default
 62
7
100
AcDbPolyline
 90
2
 70
0
 10
2415.523520
 20
348.904476
 30
0.0
 10
2415.523520
 20
348.904476
 30
0.0
  0
SPLINE
  5
319
100
AcDbEntity
  8
Default
 62
7
100
AcDbSpline
 70
8
 71
3
 72
8
 73
4
 74
0
 40
0
 40
0
 40
0
 40
0
 40
1
 40
1
 40
1
 40
1
 10
2842.850560
 20
2435.290164
 30
0.0
 10
2843.236560
 20
2432.403444
 30
0.0
 10
2843.616080
 20
2429.515044
 30
0.0
 10
2843.989360
 20
2426.625204
 30
0.0
  0
SPLINE
  5
31a
100
AcDbEntity
  8
Default
 62
7
100
AcDbSpline
 70
8
 71
3
 72
8
 73
4
 74
0
 40
0
 40
0
 40
0
 40
0
 40
1
 40
1
 40
1
 40
1
 10
2843.989360
 20
2426.625204
 30
0.0
 10
2851.492080
 20
2368.535124
 30
0.0
 10
2856.448160
 20
2309.808084
 30
0.0
 10
2859.515680
 20
2251.187524
 30
0.0
  0
SPLINE
  5
31b
100
AcDbEntity
  8
Default
 62
7
100
AcDbSpline
 70
8
 71
3
 72
8
 73
4
 74
0
 40
0
 40
0
 40
0
 40
0
 40
1
 40
1
 40
1
 40
1
 10
2859.515680
 20
2251.187524
 30
0.0
 10
2862.583520
 20
2192.561844
 30
0.0
 10
2863.780080
 20
2133.636564
 30
0.0
 10
2863.552400
 20
2074.958724
 30
0.0
  0
SPLINE
  5
31c
100
AcDbEntity
  8
Default
 62
7
100
AcDbSpline
 70
8
 71
3
 72
8
 73
4
 74
0
 40
0
 40
0
 40
0
 40
0
 40
1
 40
1
 40
1
 40
1
 10
2863.552400
 20
2074.958724
 30
0.0
 10
2863.543600
 20
2072.469764
 30
0.0
 10
2863.530000
 20
2069.980484
 30
0.0
 10
2863.515600
 20
2067.491204
 30
0.0
  0
LWPOLYLINE
  5
31d
100
AcDbEntity
  8
Default
 62
7
100
AcDbPolyline
 90
2
 70
0
 10
2409.035520
 20
175.745492
 30
0.0
 10
2409.035520
 20
175.745492
 30
0.0
  0
SPLINE
  5
31e
100
AcDbEntity
  8
Default
 62
7
100
AcDbSpline
 70
8
 71
3
 72
8
 73
4
 74
0
 40
0
 40
0
 40
0
 40
0
 40
1
 40
1
 40
1
 40
1
 10
2863.515760
 20
2067.491204
 30
0.0
 10
2863.531760
 20
2069.980484
 30
0.0
 10
2863.542960
 20
2072.469764
 30
0.0
 10
2863.552560
 20
2074.958724
 30
0.0
  0
SPLINE
  5
31f
100
AcDbEntity
  8
Default
 62
7
100
AcDbSpline
 70
8
 71
3
 72
8
 73
4
 74
0
 40
0
 40
0
 40
0
 40
0
 40
1
 40
1
 40
1
 40
1
 10
2863.552480
 20
2074.958724
 30
0.0
 10
2863.780160
 20
2133.636564
 30
0.0
 10
2862.583600
 20
2192.561844
 30
0.0
 10
2859.515760
 20
2251.187524
 30
0.0
  0
SPLINE
  5
320
100
AcDbEntity
  8
Default
 62
7
100
AcDbSpline
 70
8
 71
3
 72
8
 73
4
 74
0
 40
0
 40
0
 40
0
 40
0
 40
1
 40
1
 40
1
 40
1
 10
2859.515760
 20
2251.187524
 30
0.0
 10
2856.448240
 20
2309.808084
 30
0.0
 10
2851.492080
 20
2368.535124
 30
0.0
 10
2843.989440
 20
2426.625204
 30
0.0
  0
SPLINE
  5
321
100
AcDbEntity
  8
Default
 62
7
100
AcDbSpline
 70
8
 71
3
 72
8
 73
4
 74
0
 40
0
 40
0
 40
0
 40
0
 40
1
 40
1
 40
1
 40
1
 10
2843.989440
 20
2426.625204
 30
0.0
 10
2843.616160
 20
2429.515044
 30
0.0
 10
2843.236640
 20
2432.403444
 30
0.0
 10
2842.850640
 20
2435.290164
 30
0.0
  0
LWPOLYLINE
  5
322
100
AcDbEntity
  8
Default
 62
7
100
AcDbPolyline
 90
2
 70
0
 10
2406.672720
 20
89.035092
 30
0.0
 10
2406.672720
 20
89.035092
 30
0.0
  0
SPLINE
  5
323
100
AcDbEntity
  8
Default
 62
7
100
AcDbSpline
 70
8
 71
3
 72
8
 73
4
 74
0
 40
0
 40
0
 40
0
 40
0
 40
1
 40
1
 40
1
 40
1
 10
2842.850560
 20
2435.290164
 30
0.0
 10
2843.236560
 20
2432.403444
 30
0.0
 10
2843.616080
 20
2429.515044
 30
0.0
 10
2843.989360
 20
2426.625204
 30
0.0
  0
SPLINE
  5
324
100
AcDbEntity
  8
Default
 62
7
100
AcDbSpline
 70
8
 71
3
 72
8
 73
4
 74
0
 40
0
 40
0
 40
0
 40
0
 40
1
 40
1
 40
1
 40
1
 10
2843.989360
 20
2426.625204
 30
0.0
 10
2851.492080
 20
2368.535124
 30
0.0
 10
2856.448160
 20
2309.808084
 30
0.0
 10
2859.515680
 20
2251.187524
 30
0.0
  0
SPLINE
  5
325
100
AcDbEntity
  8
Default
 62
7
100
AcDbSpline
 70
8
 71
3
 72
8
 73
4
 74
0
 40
0
 40
0
 40
0
 40
0
 40
1
 40
1
 40
1
 40
1
 10
2859.515680
 20
2251.187524
 30
0.0
 10
2862.583520
 20
2192.561844
 30
0.0
 10
2863.780080
 20
2133.636564
 30
0.0
 10
2863.552400
 20
2074.958724
 30
0.0
  0
SPLINE
  5
326
100
AcDbEntity
  8
Default
 62
7
100
AcDbSpline
 70
8
 71
3
 72
8
 73
4
 74
0
 40
0
 40
0
 40
0
 40
0
 40
1
 40
1
 40
1
 40
1
 10
2863.552400
 20
2074.958724
 30
0.0
 10
2863.543600
 20
2072.469764
 30
0.0
 10
2863.530000
 20
2069.980484
 30
0.0
 10
2863.515600
 20
2067.491204
 30
0.0
  0
LWPOLYLINE
  5
327
100
AcDbEntity
  8
Default
 62
7
100
AcDbPolyline
 90
2
 70
0
 10
2863.515760
 20
2067.491204
 30
0.0
 10
2863.515760
 20
2067.491204
 30
0.0
  0
LWPOLYLINE
  5
328
100
AcDbEntity
  8
Default
 62
7
100
AcDbPolyline
 90
2
 70
0
 10
2842.850560
 20
2435.290164
 30
0.0
 10
2842.850560
 20
2435.290164
 30
0.0
  0
LWPOLYLINE
  5
329
100
AcDbEntity
  8
Default
 62
7
100
AcDbPolyline
 90
2
 70
0
 10
2843.989360
 20
2426.625204
 30
0.0
 10
2843.989360
 20
2426.625204
 30
0.0
  0
SPLINE
  5
32a
100
AcDbEntity
  8
Default
 62
7
100
AcDbSpline
 70
8
 71
3
 72
8
 73
4
 74
0
 40
0
 40
0
 40
0
 40
0
 40
1
 40
1
 40
1
 40
1
 10
2497.845200
 20
2366.240644
 30
0.0
 10
2512.043840
 20
2368.153444
 30
0.0
 10
2526.231120
 20
2370.196404
 30
0.0
 10
2540.412080
 20
2372.363364
 30
0.0
  0
SPLINE
  5
32b
100
AcDbEntity
  8
Default
 62
7
100
AcDbSpline
 70
8
 71
3
 72
8
 73
4
 74
0
 40
0
 40
0
 40
0
 40
0
 40
1
 40
1
 40
1
 40
1
 10
2540.412080
 20
2372.363364
 30
0.0
 10
2641.852560
 20
2387.864404
 30
0.0
 10
2743.416480
 20
2409.803524
 30
0.0
 10
2842.850560
 20
2435.290164
 30
0.0
  0
LWPOLYLINE
  5
32c
100
AcDbEntity
  8
Default
 62
7
100
AcDbPolyline
 90
2
 70
0
 10
2859.515680
 20
2251.187524
 30
0.0
 10
2859.515680
 20
2251.187524
 30
0.0
  0
SPLINE
  5
32d
100
AcDbEntity
  8
Default
 62
7
100
AcDbSpline
 70
8
 71
3
 72
8
 73
4
 74
0
 40
0
 40
0
 40
0
 40
0
 40
1
 40
1
 40
1
 40
1
 10
2842.850560
 20
2435.290164
 30
0.0
 10
2743.416480
 20
2409.803524
 30
0.0
 10
2641.852560
 20
2387.864404
 30
0.0
 10
2540.412080
 20
2372.363364
 30
0.0
  0
SPLINE
  5
32e
100
AcDbEntity
  8
Default
 62
7
100
AcDbSpline
 70
8
 71
3
 72
8
 73
4
 74
0
 40
0
 40
0
 40
0
 40
0
 40
1
 40
1
 40
1
 40
1
 10
2540.412080
 20
2372.363364
 30
0.0
 10
2526.231120
 20
2370.196404
 30
0.0
 10
2512.043840
 20
2368.153444
 30
0.0
 10
2497.845200
 20
2366.240644
 30
0.0
  0
LWPOLYLINE
  5
32f
100
AcDbEntity
  8
Default
 62
7
100
AcDbPolyline
 90
2
 70
0
 10
2863.552400
 20
2074.958724
 30
0.0
 10
2863.552400
 20
2074.958724
 30
0.0
  0
SPLINE
  5
330
100
AcDbEntity
  8
Default
 62
7
100
AcDbSpline
 70
8
 71
3
 72
8
 73
4
 74
0
 40
0
 40
0
 40
0
 40
0
 40
1
 40
1
 40
1
 40
1
 10
2497.845200
 20
2366.240644
 30
0.0
 10
2512.043840
 20
2368.153444
 30
0.0
 10
2526.231120
 20
2370.196404
 30
0.0
 10
2540.412080
 20
2372.363364
 30
0.0
  0
SPLINE
  5
331
100
AcDbEntity
  8
Default
 62
7
100
AcDbSpline
 70
8
 71
3
 72
8
 73
4
 74
0
 40
0
 40
0
 40
0
 40
0
 40
1
 40
1
 40
1
 40
1
 10
2540.412080
 20
2372.363364
 30
0.0
 10
2641.852560
 20
2387.864404
 30
0.0
 10
2743.416480
 20
2409.803524
 30
0.0
 10
2842.850560
 20
2435.290164
 30
0.0
  0
LWPOLYLINE
  5
332
100
AcDbEntity
  8
Default
 62
7
100
AcDbPolyline
 90
2
 70
0
 10
2842.850560
 20
2435.290164
 30
0.0
 10
2842.850560
 20
2435.290164
 30
0.0
  0
SPLINE
  5
333
100
AcDbEntity
  8
Default
 62
7
100
AcDbSpline
 70
8
 71
3
 72
8
 73
4
 74
0
 40
0
 40
0
 40
0
 40
0
 40
1
 40
1
 40
1
 40
1
 10
2497.845200
 20
2366.240484
 30
0.0
 10
2458.572160
 20
2360.948724
 30
0.0
 10
2419.467120
 20
2356.687604
 30
0.0
 10
2380.338800
 20
2353.540964
 30
0.0
  0
SPLINE
  5
334
100
AcDbEntity
  8
Default
 62
7
100
AcDbSpline
 70
8
 71
3
 72
8
 73
4
 74
0
 40
0
 40
0
 40
0
 40
0
 40
1
 40
1
 40
1
 40
1
 10
2380.338800
 20
2353.540964
 30
0.0
 10
2327.568480
 20
2349.297364
 30
0.0
 10
2274.755760
 20
2347.081204
 30
0.0
 10
2221.431360
 20
2347.074884
 30
0.0
  0
LWPOLYLINE
  5
335
100
AcDbEntity
  8
Default
 62
7
100
AcDbPolyline
 90
2
 70
0
 10
2497.845200
 20
2366.240644
 30
0.0
 10
2497.845200
 20
2366.240644
 30
0.0
  0
SPLINE
  5
336
100
AcDbEntity
  8
Default
 62
7
100
AcDbSpline
 70
8
 71
3
 72
8
 73
4
 74
0
 40
0
 40
0
 40
0
 40
0
 40
1
 40
1
 40
1
 40
1
 10
2221.431360
 20
2347.074884
 30
0.0
 10
2274.755760
 20
2347.082884
 30
0.0
 10
2327.568480
 20
2349.297364
 30
0.0
 10
2380.338800
 20
2353.540964
 30
0.0
  0
SPLINE
  5
337
100
AcDbEntity
  8
Default
 62
7
100
AcDbSpline
 70
8
 71
3
 72
8
 73
4
 74
0
 40
0
 40
0
 40
0
 40
0
 40
1
 40
1
 40
1
 40
1
 10
2380.338800
 20
2353.540964
 30
0.0
 10
2419.467120
 20
2356.687604
 30
0.0
 10
2458.572160
 20
2360.948724
 30
0.0
 10
2497.845200
 20
2366.240484
 30
0.0
  0
LWPOLYLINE
  5
338
100
AcDbEntity
  8
Default
 62
7
100
AcDbPolyline
 90
2
 70
0
 10
2540.412080
 20
2372.363364
 30
0.0
 10
2540.412080
 20
2372.363364
 30
0.0
  0
SPLINE
  5
339
100
AcDbEntity
  8
Default
 62
7
100
AcDbSpline
 70
8
 71
3
 72
8
 73
4
 74
0
 40
0
 40
0
 40
0
 40
0
 40
1
 40
1
 40
1
 40
1
 10
2497.845200
 20
2366.240484
 30
0.0
 10
2458.572160
 20
2360.948724
 30
0.0
 10
2419.467120
 20
2356.687604
 30
0.0
 10
2380.338800
 20
2353.540964
 30
0.0
  0
SPLINE
  5
33a
100
AcDbEntity
  8
Default
 62
7
100
AcDbSpline
 70
8
 71
3
 72
8
 73
4
 74
0
 40
0
 40
0
 40
0
 40
0
 40
1
 40
1
 40
1
 40
1
 10
2380.338800
 20
2353.540964
 30
0.0
 10
2327.568480
 20
2349.297364
 30
0.0
 10
2274.755760
 20
2347.081204
 30
0.0
 10
2221.431360
 20
2347.074884
 30
0.0
  0
LWPOLYLINE
  5
33b
100
AcDbEntity
  8
Default
 62
7
100
AcDbPolyline
 90
2
 70
0
 10
2221.431360
 20
2347.074884
 30
0.0
 10
2221.431360
 20
2347.074884
 30
0.0
  0
SPLINE
  5
33c
100
AcDbEntity
  8
Default
 62
7
100
AcDbSpline
 70
8
 71
3
 72
8
 73
4
 74
0
 40
0
 40
0
 40
0
 40
0
 40
1
 40
1
 40
1
 40
1
 10
2221.431360
 20
2347.074884
 30
0.0
 10
2168.089120
 20
2347.066884
 30
0.0
 10
2115.284960
 20
2349.272964
 30
0.0
 10
2062.523280
 20
2353.509284
 30
0.0
  0
SPLINE
  5
33d
100
AcDbEntity
  8
Default
 62
7
100
AcDbSpline
 70
8
 71
3
 72
8
 73
4
 74
0
 40
0
 40
0
 40
0
 40
0
 40
1
 40
1
 40
1
 40
1
 10
2062.523280
 20
2353.509284
 30
0.0
 10
2023.397040
 20
2356.650804
 30
0.0
 10
1984.294160
 20
2360.909524
 30
0.0
 10
1945.015920
 20
2366.203124
 30
0.0
  0
LWPOLYLINE
  5
33e
100
AcDbEntity
  8
Default
 62
7
100
AcDbPolyline
 90
2
 70
0
 10
2497.845200
 20
2366.240484
 30
0.0
 10
2497.845200
 20
2366.240484
 30
0.0
  0
SPLINE
  5
33f
100
AcDbEntity
  8
Default
 62
7
100
AcDbSpline
 70
8
 71
3
 72
8
 73
4
 74
0
 40
0
 40
0
 40
0
 40
0
 40
1
 40
1
 40
1
 40
1
 10
1945.015920
 20
2366.203124
 30
0.0
 10
1984.294160
 20
2360.909524
 30
0.0
 10
2023.397040
 20
2356.650804
 30
0.0
 10
2062.523280
 20
2353.509284
 30
0.0
  0
SPLINE
  5
340
100
AcDbEntity
  8
Default
 62
7
100
AcDbSpline
 70
8
 71
3
 72
8
 73
4
 74
0
 40
0
 40
0
 40
0
 40
0
 40
1
 40
1
 40
1
 40
1
 10
2062.523280
 20
2353.509284
 30
0.0
 10
2115.284960
 20
2349.272964
 30
0.0
 10
2168.089120
 20
2347.068724
 30
0.0
 10
2221.431360
 20
2347.074884
 30
0.0
  0
LWPOLYLINE
  5
341
100
AcDbEntity
  8
Default
 62
7
100
AcDbPolyline
 90
2
 70
0
 10
2380.338800
 20
2353.540964
 30
0.0
 10
2380.338800
 20
2353.540964
 30
0.0
  0
SPLINE
  5
342
100
AcDbEntity
  8
Default
 62
7
100
AcDbSpline
 70
8
 71
3
 72
8
 73
4
 74
0
 40
0
 40
0
 40
0
 40
0
 40
1
 40
1
 40
1
 40
1
 10
2221.431360
 20
2347.074884
 30
0.0
 10
2168.089120
 20
2347.066884
 30
0.0
 10
2115.284960
 20
2349.272964
 30
0.0
 10
2062.523280
 20
2353.509284
 30
0.0
  0
SPLINE
  5
343
100
AcDbEntity
  8
Default
 62
7
100
AcDbSpline
 70
8
 71
3
 72
8
 73
4
 74
0
 40
0
 40
0
 40
0
 40
0
 40
1
 40
1
 40
1
 40
1
 10
2062.523280
 20
2353.509284
 30
0.0
 10
2023.397040
 20
2356.650804
 30
0.0
 10
1984.294160
 20
2360.909524
 30
0.0
 10
1945.015920
 20
2366.203124
 30
0.0
  0
LWPOLYLINE
  5
344
100
AcDbEntity
  8
Default
 62
7
100
AcDbPolyline
 90
2
 70
0
 10
1945.015920
 20
2366.203124
 30
0.0
 10
1945.015920
 20
2366.203124
 30
0.0
  0
LWPOLYLINE
  5
345
100
AcDbEntity
  8
Default
 62
7
100
AcDbPolyline
 90
2
 70
0
 10
2221.431360
 20
2347.074884
 30
0.0
 10
2221.431360
 20
2347.074884
 30
0.0
  0
SPLINE
  5
346
100
AcDbEntity
  8
Default
 62
7
100
AcDbSpline
 70
8
 71
3
 72
8
 73
4
 74
0
 40
0
 40
0
 40
0
 40
0
 40
1
 40
1
 40
1
 40
1
 10
1600.012160
 20
2435.290084
 30
0.0
 10
1699.446880
 20
2409.801444
 30
0.0
 10
1801.004400
 20
2387.837924
 30
0.0
 10
1902.445680
 20
2372.328804
 30
0.0
  0
SPLINE
  5
347
100
AcDbEntity
  8
Default
 62
7
100
AcDbSpline
 70
8
 71
3
 72
8
 73
4
 74
0
 40
0
 40
0
 40
0
 40
0
 40
1
 40
1
 40
1
 40
1
 10
1902.445680
 20
2372.328804
 30
0.0
 10
1916.628320
 20
2370.160404
 30
0.0
 10
1930.816560
 20
2368.116564
 30
0.0
 10
1945.015920
 20
2366.203284
 30
0.0
  0
LWPOLYLINE
  5
348
100
AcDbEntity
  8
Default
 62
7
100
AcDbPolyline
 90
2
 70
0
 10
2221.423280
 20
2347.074884
 30
0.0
 10
2221.423280
 20
2347.074884
 30
0.0
  0
SPLINE
  5
349
100
AcDbEntity
  8
Default
 62
7
100
AcDbSpline
 70
8
 71
3
 72
8
 73
4
 74
0
 40
0
 40
0
 40
0
 40
0
 40
1
 40
1
 40
1
 40
1
 10
1945.015920
 20
2366.203284
 30
0.0
 10
1930.816560
 20
2368.116564
 30
0.0
 10
1916.628320
 20
2370.160404
 30
0.0
 10
1902.445680
 20
2372.328804
 30
0.0
  0
SPLINE
  5
34a
100
AcDbEntity
  8
Default
 62
7
100
AcDbSpline
 70
8
 71
3
 72
8
 73
4
 74
0
 40
0
 40
0
 40
0
 40
0
 40
1
 40
1
 40
1
 40
1
 10
1902.445680
 20
2372.328804
 30
0.0
 10
1801.004400
 20
2387.837924
 30
0.0
 10
1699.446880
 20
2409.801444
 30
0.0
 10
1600.012160
 20
2435.290084
 30
0.0
  0
LWPOLYLINE
  5
34b
100
AcDbEntity
  8
Default
 62
7
100
AcDbPolyline
 90
2
 70
0
 10
2062.523280
 20
2353.509284
 30
0.0
 10
2062.523280
 20
2353.509284
 30
0.0
  0
SPLINE
  5
34c
100
AcDbEntity
  8
Default
 62
7
100
AcDbSpline
 70
8
 71
3
 72
8
 73
4
 74
0
 40
0
 40
0
 40
0
 40
0
 40
1
 40
1
 40
1
 40
1
 10
1600.012160
 20
2435.290084
 30
0.0
 10
1699.446880
 20
2409.801444
 30
0.0
 10
1801.004400
 20
2387.837924
 30
0.0
 10
1902.445680
 20
2372.328804
 30
0.0
  0
SPLINE
  5
34d
100
AcDbEntity
  8
Default
 62
7
100
AcDbSpline
 70
8
 71
3
 72
8
 73
4
 74
0
 40
0
 40
0
 40
0
 40
0
 40
1
 40
1
 40
1
 40
1
 10
1902.445680
 20
2372.328804
 30
0.0
 10
1916.628320
 20
2370.160404
 30
0.0
 10
1930.816560
 20
2368.116564
 30
0.0
 10
1945.015920
 20
2366.203284
 30
0.0
  0
LWPOLYLINE
  5
34e
100
AcDbEntity
  8
Default
 62
7
100
AcDbPolyline
 90
2
 70
0
 10
1945.015920
 20
2366.203284
 30
0.0
 10
1945.015920
 20
2366.203284
 30
0.0
  0
SPLINE
  5
34f
100
AcDbEntity
  8
Default
 62
7
100
AcDbSpline
 70
8
 71
3
 72
8
 73
4
 74
0
 40
0
 40
0
 40
0
 40
0
 40
1
 40
1
 40
1
 40
1
 10
1600.012160
 20
2435.290084
 30
0.0
 10
1599.626160
 20
2432.403364
 30
0.0
 10
1599.246640
 20
2429.515044
 30
0.0
 10
1598.873360
 20
2426.625204
 30
0.0
  0
SPLINE
  5
350
100
AcDbEntity
  8
Default
 62
7
100
AcDbSpline
 70
8
 71
3
 72
8
 73
4
 74
0
 40
0
 40
0
 40
0
 40
0
 40
1
 40
1
 40
1
 40
1
 10
1598.873360
 20
2426.625204
 30
0.0
 10
1591.370640
 20
2368.535124
 30
0.0
 10
1586.414560
 20
2309.808084
 30
0.0
 10
1583.347040
 20
2251.187524
 30
0.0
  0
SPLINE
  5
351
100
AcDbEntity
  8
Default
 62
7
100
AcDbSpline
 70
8
 71
3
 72
8
 73
4
 74
0
 40
0
 40
0
 40
0
 40
0
 40
1
 40
1
 40
1
 40
1
 10
1583.347040
 20
2251.187524
 30
0.0
 10
1580.279200
 20
2192.561844
 30
0.0
 10
1579.082640
 20
2133.636564
 30
0.0
 10
1579.310320
 20
2074.958724
 30
0.0
  0
SPLINE
  5
352
100
AcDbEntity
  8
Default
 62
7
100
AcDbSpline
 70
8
 71
3
 72
8
 73
4
 74
0
 40
0
 40
0
 40
0
 40
0
 40
1
 40
1
 40
1
 40
1
 10
1579.310320
 20
2074.958724
 30
0.0
 10
1579.319120
 20
2072.469444
 30
0.0
 10
1579.332720
 20
2069.980004
 30
0.0
 10
1579.347120
 20
2067.490404
 30
0.0
  0
LWPOLYLINE
  5
353
100
AcDbEntity
  8
Default
 62
7
100
AcDbPolyline
 90
2
 70
0
 10
1600.012160
 20
2435.290084
 30
0.0
 10
1600.012160
 20
2435.290084
 30
0.0
  0
SPLINE
  5
354
100
AcDbEntity
  8
Default
 62
7
100
AcDbSpline
 70
8
 71
3
 72
8
 73
4
 74
0
 40
0
 40
0
 40
0
 40
0
 40
1
 40
1
 40
1
 40
1
 10
1579.346960
 20
2067.490404
 30
0.0
 10
1579.330960
 20
2069.980004
 30
0.0
 10
1579.319760
 20
2072.469444
 30
0.0
 10
1579.310160
 20
2074.958724
 30
0.0
  0
SPLINE
  5
355
100
AcDbEntity
  8
Default
 62
7
100
AcDbSpline
 70
8
 71
3
 72
8
 73
4
 74
0
 40
0
 40
0
 40
0
 40
0
 40
1
 40
1
 40
1
 40
1
 10
1579.310240
 20
2074.958724
 30
0.0
 10
1579.082560
 20
2133.636564
 30
0.0
 10
1580.279200
 20
2192.561844
 30
0.0
 10
1583.346960
 20
2251.187524
 30
0.0
  0
SPLINE
  5
356
100
AcDbEntity
  8
Default
 62
7
100
AcDbSpline
 70
8
 71
3
 72
8
 73
4
 74
0
 40
0
 40
0
 40
0
 40
0
 40
1
 40
1
 40
1
 40
1
 10
1583.346960
 20
2251.187524
 30
0.0
 10
1586.414480
 20
2309.808084
 30
0.0
 10
1591.370640
 20
2368.535124
 30
0.0
 10
1598.873360
 20
2426.625204
 30
0.0
  0
SPLINE
  5
357
100
AcDbEntity
  8
Default
 62
7
100
AcDbSpline
 70
8
 71
3
 72
8
 73
4
 74
0
 40
0
 40
0
 40
0
 40
0
 40
1
 40
1
 40
1
 40
1
 10
1598.873360
 20
2426.625204
 30
0.0
 10
1599.246560
 20
2429.515044
 30
0.0
 10
1599.626080
 20
2432.403364
 30
0.0
 10
1600.012080
 20
2435.290084
 30
0.0
  0
LWPOLYLINE
  5
358
100
AcDbEntity
  8
Default
 62
7
100
AcDbPolyline
 90
2
 70
0
 10
1902.445680
 20
2372.328804
 30
0.0
 10
1902.445680
 20
2372.328804
 30
0.0
  0
SPLINE
  5
359
100
AcDbEntity
  8
Default
 62
7
100
AcDbSpline
 70
8
 71
3
 72
8
 73
4
 74
0
 40
0
 40
0
 40
0
 40
0
 40
1
 40
1
 40
1
 40
1
 10
1600.012160
 20
2435.290084
 30
0.0
 10
1599.626160
 20
2432.403364
 30
0.0
 10
1599.246640
 20
2429.515044
 30
0.0
 10
1598.873360
 20
2426.625204
 30
0.0
  0
SPLINE
  5
35a
100
AcDbEntity
  8
Default
 62
7
100
AcDbSpline
 70
8
 71
3
 72
8
 73
4
 74
0
 40
0
 40
0
 40
0
 40
0
 40
1
 40
1
 40
1
 40
1
 10
1598.873360
 20
2426.625204
 30
0.0
 10
1591.370640
 20
2368.535124
 30
0.0
 10
1586.414560
 20
2309.808084
 30
0.0
 10
1583.347040
 20
2251.187524
 30
0.0
  0
SPLINE
  5
35b
100
AcDbEntity
  8
Default
 62
7
100
AcDbSpline
 70
8
 71
3
 72
8
 73
4
 74
0
 40
0
 40
0
 40
0
 40
0
 40
1
 40
1
 40
1
 40
1
 10
1583.347040
 20
2251.187524
 30
0.0
 10
1580.279200
 20
2192.561844
 30
0.0
 10
1579.082640
 20
2133.636564
 30
0.0
 10
1579.310320
 20
2074.958724
 30
0.0
  0
SPLINE
  5
35c
100
AcDbEntity
  8
Default
 62
7
100
AcDbSpline
 70
8
 71
3
 72
8
 73
4
 74
0
 40
0
 40
0
 40
0
 40
0
 40
1
 40
1
 40
1
 40
1
 10
1579.310320
 20
2074.958724
 30
0.0
 10
1579.319120
 20
2072.469444
 30
0.0
 10
1579.332720
 20
2069.980004
 30
0.0
 10
1579.347120
 20
2067.490404
 30
0.0
  0
LWPOLYLINE
  5
35d
100
AcDbEntity
  8
Default
 62
7
100
AcDbPolyline
 90
2
 70
0
 10
1579.346960
 20
2067.490404
 30
0.0
 10
1579.346960
 20
2067.490404
 30
0.0
  0
LWPOLYLINE
  5
35e
100
AcDbEntity
  8
Default
 62
7
100
AcDbPolyline
 90
2
 70
0
 10
1600.012160
 20
2435.290084
 30
0.0
 10
1600.012160
 20
2435.290084
 30
0.0
  0
LWPOLYLINE
  5
35f
100
AcDbEntity
  8
Default
 62
7
100
AcDbPolyline
 90
2
 70
0
 10
1598.873360
 20
2426.625204
 30
0.0
 10
1598.873360
 20
2426.625204
 30
0.0
  0
SPLINE
  5
360
100
AcDbEntity
  8
Default
 62
7
100
AcDbSpline
 70
8
 71
3
 72
8
 73
4
 74
0
 40
0
 40
0
 40
0
 40
0
 40
1
 40
1
 40
1
 40
1
 10
1579.346960
 20
2067.490404
 30
0.0
 10
1623.517120
 20
2057.142164
 30
0.0
 10
1667.934320
 20
2047.461204
 30
0.0
 10
1712.376080
 20
2038.650084
 30
0.0
  0
SPLINE
  5
361
100
AcDbEntity
  8
Default
 62
7
100
AcDbSpline
 70
8
 71
3
 72
8
 73
4
 74
0
 40
0
 40
0
 40
0
 40
0
 40
1
 40
1
 40
1
 40
1
 10
1712.376080
 20
2038.650084
 30
0.0
 10
1768.215440
 20
2027.579284
 30
0.0
 10
1824.404480
 20
2017.818884
 30
0.0
 10
1880.762400
 20
2009.768164
 30
0.0
  0
SPLINE
  5
362
100
AcDbEntity
  8
Default
 62
7
100
AcDbSpline
 70
8
 71
3
 72
8
 73
4
 74
0
 40
0
 40
0
 40
0
 40
0
 40
1
 40
1
 40
1
 40
1
 10
1880.762400
 20
2009.768164
 30
0.0
 10
1994.513280
 20
1993.518964
 30
0.0
 10
2106.475040
 20
1984.557604
 30
0.0
 10
2221.431360
 20
1984.570404
 30
0.0
  0
LWPOLYLINE
  5
363
100
AcDbEntity
  8
Default
 62
7
100
AcDbPolyline
 90
2
 70
0
 10
1583.347040
 20
2251.187524
 30
0.0
 10
1583.347040
 20
2251.187524
 30
0.0
  0
SPLINE
  5
364
100
AcDbEntity
  8
Default
 62
7
100
AcDbSpline
 70
8
 71
3
 72
8
 73
4
 74
0
 40
0
 40
0
 40
0
 40
0
 40
1
 40
1
 40
1
 40
1
 10
2221.431360
 20
1984.570404
 30
0.0
 10
2106.475040
 20
1984.556804
 30
0.0
 10
1994.513280
 20
1993.518964
 30
0.0
 10
1880.762400
 20
2009.768164
 30
0.0
  0
SPLINE
  5
365
100
AcDbEntity
  8
Default
 62
7
100
AcDbSpline
 70
8
 71
3
 72
8
 73
4
 74
0
 40
0
 40
0
 40
0
 40
0
 40
1
 40
1
 40
1
 40
1
 10
1880.762400
 20
2009.768164
 30
0.0
 10
1824.404480
 20
2017.818884
 30
0.0
 10
1768.215440
 20
2027.579284
 30
0.0
 10
1712.376080
 20
2038.650084
 30
0.0
  0
SPLINE
  5
366
100
AcDbEntity
  8
Default
 62
7
100
AcDbSpline
 70
8
 71
3
 72
8
 73
4
 74
0
 40
0
 40
0
 40
0
 40
0
 40
1
 40
1
 40
1
 40
1
 10
1712.376080
 20
2038.650084
 30
0.0
 10
1667.934320
 20
2047.461204
 30
0.0
 10
1623.517120
 20
2057.142164
 30
0.0
 10
1579.346960
 20
2067.490404
 30
0.0
  0
LWPOLYLINE
  5
367
100
AcDbEntity
  8
Default
 62
7
100
AcDbPolyline
 90
2
 70
0
 10
1579.310320
 20
2074.958724
 30
0.0
 10
1579.310320
 20
2074.958724
 30
0.0
  0
SPLINE
  5
368
100
AcDbEntity
  8
Default
 62
7
100
AcDbSpline
 70
8
 71
3
 72
8
 73
4
 74
0
 40
0
 40
0
 40
0
 40
0
 40
1
 40
1
 40
1
 40
1
 10
1579.346960
 20
2067.490404
 30
0.0
 10
1623.517120
 20
2057.142164
 30
0.0
 10
1667.934320
 20
2047.461204
 30
0.0
 10
1712.376080
 20
2038.650084
 30
0.0
  0
SPLINE
  5
369
100
AcDbEntity
  8
Default
 62
7
100
AcDbSpline
 70
8
 71
3
 72
8
 73
4
 74
0
 40
0
 40
0
 40
0
 40
0
 40
1
 40
1
 40
1
 40
1
 10
1712.376080
 20
2038.650084
 30
0.0
 10
1768.215440
 20
2027.579284
 30
0.0
 10
1824.404480
 20
2017.818884
 30
0.0
 10
1880.762400
 20
2009.768164
 30
0.0
  0
SPLINE
  5
36a
100
AcDbEntity
  8
Default
 62
7
100
AcDbSpline
 70
8
 71
3
 72
8
 73
4
 74
0
 40
0
 40
0
 40
0
 40
0
 40
1
 40
1
 40
1
 40
1
 10
1880.762400
 20
2009.768164
 30
0.0
 10
1994.513280
 20
1993.518964
 30
0.0
 10
2106.475040
 20
1984.557604
 30
0.0
 10
2221.431360
 20
1984.570404
 30
0.0
  0
LWPOLYLINE
  5
36b
100
AcDbEntity
  8
Default
 62
7
100
AcDbPolyline
 90
2
 70
0
 10
2221.431360
 20
1984.570404
 30
0.0
 10
2221.431360
 20
1984.570404
 30
0.0
  0
LWPOLYLINE
  5
36c
100
AcDbEntity
  8
Default
 62
7
100
AcDbPolyline
 90
2
 70
0
 10
1579.346960
 20
2067.490404
 30
0.0
 10
1579.346960
 20
2067.490404
 30
0.0
  0
SPLINE
  5
36d
100
AcDbEntity
  8
Default
 62
7
100
AcDbSpline
 70
8
 71
3
 72
8
 73
4
 74
0
 40
0
 40
0
 40
0
 40
0
 40
1
 40
1
 40
1
 40
1
 10
2221.431360
 20
1984.570404
 30
0.0
 10
2336.358080
 20
1984.584004
 30
0.0
 10
2448.373120
 20
1993.566084
 30
0.0
 10
2562.095600
 20
2009.802884
 30
0.0
  0
SPLINE
  5
36e
100
AcDbEntity
  8
Default
 62
7
100
AcDbSpline
 70
8
 71
3
 72
8
 73
4
 74
0
 40
0
 40
0
 40
0
 40
0
 40
1
 40
1
 40
1
 40
1
 10
2562.095600
 20
2009.802884
 30
0.0
 10
2618.452160
 20
2017.849284
 30
0.0
 10
2674.645360
 20
2027.601604
 30
0.0
 10
2730.484480
 20
2038.664404
 30
0.0
  0
SPLINE
  5
36f
100
AcDbEntity
  8
Default
 62
7
100
AcDbSpline
 70
8
 71
3
 72
8
 73
4
 74
0
 40
0
 40
0
 40
0
 40
0
 40
1
 40
1
 40
1
 40
1
 10
2730.484480
 20
2038.664404
 30
0.0
 10
2774.928320
 20
2047.469684
 30
0.0
 10
2819.345200
 20
2057.144964
 30
0.0
 10
2863.515760
 20
2067.491204
 30
0.0
  0
LWPOLYLINE
  5
370
100
AcDbEntity
  8
Default
 62
7
100
AcDbPolyline
 90
2
 70
0
 10
1712.376080
 20
2038.650084
 30
0.0
 10
1712.376080
 20
2038.650084
 30
0.0
  0
SPLINE
  5
371
100
AcDbEntity
  8
Default
 62
7
100
AcDbSpline
 70
8
 71
3
 72
8
 73
4
 74
0
 40
0
 40
0
 40
0
 40
0
 40
1
 40
1
 40
1
 40
1
 10
2863.515760
 20
2067.491204
 30
0.0
 10
2819.345200
 20
2057.144964
 30
0.0
 10
2774.928320
 20
2047.469684
 30
0.0
 10
2730.484480
 20
2038.664404
 30
0.0
  0
SPLINE
  5
372
100
AcDbEntity
  8
Default
 62
7
100
AcDbSpline
 70
8
 71
3
 72
8
 73
4
 74
0
 40
0
 40
0
 40
0
 40
0
 40
1
 40
1
 40
1
 40
1
 10
2730.484480
 20
2038.664404
 30
0.0
 10
2674.645360
 20
2027.601604
 30
0.0
 10
2618.452160
 20
2017.849284
 30
0.0
 10
2562.095600
 20
2009.802884
 30
0.0
  0
SPLINE
  5
373
100
AcDbEntity
  8
Default
 62
7
100
AcDbSpline
 70
8
 71
3
 72
8
 73
4
 74
0
 40
0
 40
0
 40
0
 40
0
 40
1
 40
1
 40
1
 40
1
 10
2562.095600
 20
2009.802884
 30
0.0
 10
2448.373120
 20
1993.566084
 30
0.0
 10
2336.358080
 20
1984.583204
 30
0.0
 10
2221.431360
 20
1984.570404
 30
0.0
  0
LWPOLYLINE
  5
374
100
AcDbEntity
  8
Default
 62
7
100
AcDbPolyline
 90
2
 70
0
 10
1880.762400
 20
2009.768164
 30
0.0
 10
1880.762400
 20
2009.768164
 30
0.0
  0
SPLINE
  5
375
100
AcDbEntity
  8
Default
 62
7
100
AcDbSpline
 70
8
 71
3
 72
8
 73
4
 74
0
 40
0
 40
0
 40
0
 40
0
 40
1
 40
1
 40
1
 40
1
 10
2221.431360
 20
1984.570404
 30
0.0
 10
2336.358080
 20
1984.584004
 30
0.0
 10
2448.373120
 20
1993.566084
 30
0.0
 10
2562.095600
 20
2009.802884
 30
0.0
  0
SPLINE
  5
376
100
AcDbEntity
  8
Default
 62
7
100
AcDbSpline
 70
8
 71
3
 72
8
 73
4
 74
0
 40
0
 40
0
 40
0
 40
0
 40
1
 40
1
 40
1
 40
1
 10
2562.095600
 20
2009.802884
 30
0.0
 10
2618.452160
 20
2017.849284
 30
0.0
 10
2674.645360
 20
2027.601604
 30
0.0
 10
2730.484480
 20
2038.664404
 30
0.0
  0
SPLINE
  5
377
100
AcDbEntity
  8
Default
 62
7
100
AcDbSpline
 70
8
 71
3
 72
8
 73
4
 74
0
 40
0
 40
0
 40
0
 40
0
 40
1
 40
1
 40
1
 40
1
 10
2730.484480
 20
2038.664404
 30
0.0
 10
2774.928320
 20
2047.469684
 30
0.0
 10
2819.345200
 20
2057.144964
 30
0.0
 10
2863.515760
 20
2067.491204
 30
0.0
  0
LWPOLYLINE
  5
378
100
AcDbEntity
  8
Default
 62
7
100
AcDbPolyline
 90
2
 70
0
 10
2863.515760
 20
2067.491204
 30
0.0
 10
2863.515760
 20
2067.491204
 30
0.0
  0
LWPOLYLINE
  5
379
100
AcDbEntity
  8
Default
 62
7
100
AcDbPolyline
 90
2
 70
0
 10
2221.431360
 20
1984.570404
 30
0.0
 10
2221.431360
 20
1984.570404
 30
0.0
  0
SPLINE
  5
37a
100
AcDbEntity
  8
Default
 62
7
100
AcDbSpline
 70
8
 71
3
 72
8
 73
4
 74
0
 40
0
 40
0
 40
0
 40
0
 40
1
 40
1
 40
1
 40
1
 10
1580.010800
 20
2015.849364
 30
0.0
 10
1623.961520
 20
2005.559764
 30
0.0
 10
1668.155760
 20
1995.931764
 30
0.0
 10
1712.374320
 20
1987.164884
 30
0.0
  0
SPLINE
  5
37b
100
AcDbEntity
  8
Default
 62
7
100
AcDbSpline
 70
8
 71
3
 72
8
 73
4
 74
0
 40
0
 40
0
 40
0
 40
0
 40
1
 40
1
 40
1
 40
1
 10
1712.374320
 20
1987.164884
 30
0.0
 10
1768.213280
 20
1976.094164
 30
0.0
 10
1824.402080
 20
1966.333764
 30
0.0
 10
1880.759920
 20
1958.283044
 30
0.0
  0
SPLINE
  5
37c
100
AcDbEntity
  8
Default
 62
7
100
AcDbSpline
 70
8
 71
3
 72
8
 73
4
 74
0
 40
0
 40
0
 40
0
 40
0
 40
1
 40
1
 40
1
 40
1
 10
1880.759920
 20
1958.283044
 30
0.0
 10
1900.739120
 20
1955.428964
 30
0.0
 10
1920.663120
 20
1952.799764
 30
0.0
 10
1940.557760
 20
1950.404564
 30
0.0
  0
LWPOLYLINE
  5
37d
100
AcDbEntity
  8
Default
 62
7
100
AcDbPolyline
 90
2
 70
0
 10
2562.095600
 20
2009.802884
 30
0.0
 10
2562.095600
 20
2009.802884
 30
0.0
  0
SPLINE
  5
37e
100
AcDbEntity
  8
Default
 62
7
100
AcDbSpline
 70
8
 71
3
 72
8
 73
4
 74
0
 40
0
 40
0
 40
0
 40
0
 40
1
 40
1
 40
1
 40
1
 10
1940.557760
 20
1950.404564
 30
0.0
 10
1920.663120
 20
1952.799764
 30
0.0
 10
1900.739120
 20
1955.428964
 30
0.0
 10
1880.759920
 20
1958.283044
 30
0.0
  0
SPLINE
  5
37f
100
AcDbEntity
  8
Default
 62
7
100
AcDbSpline
 70
8
 71
3
 72
8
 73
4
 74
0
 40
0
 40
0
 40
0
 40
0
 40
1
 40
1
 40
1
 40
1
 10
1880.759920
 20
1958.283044
 30
0.0
 10
1824.402080
 20
1966.333764
 30
0.0
 10
1768.213280
 20
1976.094164
 30
0.0
 10
1712.374320
 20
1987.164884
 30
0.0
  0
SPLINE
  5
380
100
AcDbEntity
  8
Default
 62
7
100
AcDbSpline
 70
8
 71
3
 72
8
 73
4
 74
0
 40
0
 40
0
 40
0
 40
0
 40
1
 40
1
 40
1
 40
1
 10
1712.374320
 20
1987.164884
 30
0.0
 10
1668.155760
 20
1995.931764
 30
0.0
 10
1623.961520
 20
2005.559764
 30
0.0
 10
1580.010800
 20
2015.849364
 30
0.0
  0
LWPOLYLINE
  5
381
100
AcDbEntity
  8
Default
 62
7
100
AcDbPolyline
 90
2
 70
0
 10
2730.484480
 20
2038.664404
 30
0.0
 10
2730.484480
 20
2038.664404
 30
0.0
  0
SPLINE
  5
382
100
AcDbEntity
  8
Default
 62
7
100
AcDbSpline
 70
8
 71
3
 72
8
 73
4
 74
0
 40
0
 40
0
 40
0
 40
0
 40
1
 40
1
 40
1
 40
1
 10
1580.010800
 20
2015.849364
 30
0.0
 10
1623.961520
 20
2005.559764
 30
0.0
 10
1668.155760
 20
1995.931764
 30
0.0
 10
1712.374320
 20
1987.164884
 30
0.0
  0
SPLINE
  5
383
100
AcDbEntity
  8
Default
 62
7
100
AcDbSpline
 70
8
 71
3
 72
8
 73
4
 74
0
 40
0
 40
0
 40
0
 40
0
 40
1
 40
1
 40
1
 40
1
 10
1712.374320
 20
1987.164884
 30
0.0
 10
1768.213280
 20
1976.094164
 30
0.0
 10
1824.402080
 20
1966.333764
 30
0.0
 10
1880.759920
 20
1958.283044
 30
0.0
  0
SPLINE
  5
384
100
AcDbEntity
  8
Default
 62
7
100
AcDbSpline
 70
8
 71
3
 72
8
 73
4
 74
0
 40
0
 40
0
 40
0
 40
0
 40
1
 40
1
 40
1
 40
1
 10
1880.759920
 20
1958.283044
 30
0.0
 10
1900.739120
 20
1955.428964
 30
0.0
 10
1920.663120
 20
1952.799764
 30
0.0
 10
1940.557760
 20
1950.404564
 30
0.0
  0
LWPOLYLINE
  5
385
100
AcDbEntity
  8
Default
 62
7
100
AcDbPolyline
 90
2
 70
0
 10
1940.557760
 20
1950.404564
 30
0.0
 10
1940.557760
 20
1950.404564
 30
0.0
  0
LWPOLYLINE
  5
386
100
AcDbEntity
  8
Default
 62
7
100
AcDbPolyline
 90
2
 70
0
 10
1580.010800
 20
2015.849364
 30
0.0
 10
1580.010800
 20
2015.849364
 30
0.0
  0
SPLINE
  5
387
100
AcDbEntity
  8
Default
 62
7
100
AcDbSpline
 70
8
 71
3
 72
8
 73
4
 74
0
 40
0
 40
0
 40
0
 40
0
 40
1
 40
1
 40
1
 40
1
 10
2221.431360
 20
1933.084884
 30
0.0
 10
2221.417760
 20
1933.084884
 30
0.0
 10
2221.403360
 20
1933.084884
 30
0.0
 10
2221.389760
 20
1933.084884
 30
0.0
  0
SPLINE
  5
388
100
AcDbEntity
  8
Default
 62
7
100
AcDbSpline
 70
8
 71
3
 72
8
 73
4
 74
0
 40
0
 40
0
 40
0
 40
0
 40
1
 40
1
 40
1
 40
1
 10
2221.390080
 20
1933.084884
 30
0.0
 10
2127.097040
 20
1933.076084
 30
0.0
 10
2034.347280
 20
1939.115284
 30
0.0
 10
1940.557840
 20
1950.404644
 30
0.0
  0
LWPOLYLINE
  5
389
100
AcDbEntity
  8
Default
 62
7
100
AcDbPolyline
 90
2
 70
0
 10
1712.374320
 20
1987.164884
 30
0.0
 10
1712.374320
 20
1987.164884
 30
0.0
  0
SPLINE
  5
38a
100
AcDbEntity
  8
Default
 62
7
100
AcDbSpline
 70
8
 71
3
 72
8
 73
4
 74
0
 40
0
 40
0
 40
0
 40
0
 40
1
 40
1
 40
1
 40
1
 10
1940.557760
 20
1950.404644
 30
0.0
 10
2034.347280
 20
1939.115284
 30
0.0
 10
2127.097040
 20
1933.076084
 30
0.0
 10
2221.390080
 20
1933.084884
 30
0.0
  0
SPLINE
  5
38b
100
AcDbEntity
  8
Default
 62
7
100
AcDbSpline
 70
8
 71
3
 72
8
 73
4
 74
0
 40
0
 40
0
 40
0
 40
0
 40
1
 40
1
 40
1
 40
1
 10
2221.390080
 20
1933.084884
 30
0.0
 10
2221.403680
 20
1933.084884
 30
0.0
 10
2221.417280
 20
1933.084884
 30
0.0
 10
2221.431680
 20
1933.084884
 30
0.0
  0
LWPOLYLINE
  5
38c
100
AcDbEntity
  8
Default
 62
7
100
AcDbPolyline
 90
2
 70
0
 10
1880.759920
 20
1958.283044
 30
0.0
 10
1880.759920
 20
1958.283044
 30
0.0
  0
SPLINE
  5
38d
100
AcDbEntity
  8
Default
 62
7
100
AcDbSpline
 70
8
 71
3
 72
8
 73
4
 74
0
 40
0
 40
0
 40
0
 40
0
 40
1
 40
1
 40
1
 40
1
 10
2221.431360
 20
1933.084884
 30
0.0
 10
2221.417760
 20
1933.084884
 30
0.0
 10
2221.403360
 20
1933.084884
 30
0.0
 10
2221.389760
 20
1933.084884
 30
0.0
  0
SPLINE
  5
38e
100
AcDbEntity
  8
Default
 62
7
100
AcDbSpline
 70
8
 71
3
 72
8
 73
4
 74
0
 40
0
 40
0
 40
0
 40
0
 40
1
 40
1
 40
1
 40
1
 10
2221.390080
 20
1933.084884
 30
0.0
 10
2127.097040
 20
1933.076084
 30
0.0
 10
2034.347280
 20
1939.115284
 30
0.0
 10
1940.557840
 20
1950.404644
 30
0.0
  0
LWPOLYLINE
  5
38f
100
AcDbEntity
  8
Default
 62
7
100
AcDbPolyline
 90
2
 70
0
 10
1940.557760
 20
1950.404644
 30
0.0
 10
1940.557760
 20
1950.404644
 30
0.0
  0
SPLINE
  5
390
100
AcDbEntity
  8
Default
 62
7
100
AcDbSpline
 70
8
 71
3
 72
8
 73
4
 74
0
 40
0
 40
0
 40
0
 40
0
 40
1
 40
1
 40
1
 40
1
 10
2502.305520
 20
1950.442564
 30
0.0
 10
2408.510960
 20
1939.153364
 30
0.0
 10
2315.717680
 20
1933.095444
 30
0.0
 10
2221.431360
 20
1933.084884
 30
0.0
  0
LWPOLYLINE
  5
391
100
AcDbEntity
  8
Default
 62
7
100
AcDbPolyline
 90
2
 70
0
 10
2221.431360
 20
1933.084884
 30
0.0
 10
2221.431360
 20
1933.084884
 30
0.0
  0
SPLINE
  5
392
100
AcDbEntity
  8
Default
 62
7
100
AcDbSpline
 70
8
 71
3
 72
8
 73
4
 74
0
 40
0
 40
0
 40
0
 40
0
 40
1
 40
1
 40
1
 40
1
 10
2221.431360
 20
1933.084884
 30
0.0
 10
2315.717680
 20
1933.096084
 30
0.0
 10
2408.510960
 20
1939.153364
 30
0.0
 10
2502.305520
 20
1950.442564
 30
0.0
  0
LWPOLYLINE
  5
393
100
AcDbEntity
  8
Default
 62
7
100
AcDbPolyline
 90
2
 70
0
 10
2221.390080
 20
1933.084884
 30
0.0
 10
2221.390080
 20
1933.084884
 30
0.0
  0
SPLINE
  5
394
100
AcDbEntity
  8
Default
 62
7
100
AcDbSpline
 70
8
 71
3
 72
8
 73
4
 74
0
 40
0
 40
0
 40
0
 40
0
 40
1
 40
1
 40
1
 40
1
 10
2502.305520
 20
1950.442564
 30
0.0
 10
2408.510960
 20
1939.153364
 30
0.0
 10
2315.717680
 20
1933.095444
 30
0.0
 10
2221.431360
 20
1933.084884
 30
0.0
  0
LWPOLYLINE
  5
395
100
AcDbEntity
  8
Default
 62
7
100
AcDbPolyline
 90
2
 70
0
 10
2221.431360
 20
1933.084884
 30
0.0
 10
2221.431360
 20
1933.084884
 30
0.0
  0
SPLINE
  5
396
100
AcDbEntity
  8
Default
 62
7
100
AcDbSpline
 70
8
 71
3
 72
8
 73
4
 74
0
 40
0
 40
0
 40
0
 40
0
 40
1
 40
1
 40
1
 40
1
 10
2502.305520
 20
1950.442404
 30
0.0
 10
2522.200400
 20
1952.837524
 30
0.0
 10
2542.122880
 20
1955.465684
 30
0.0
 10
2562.098080
 20
1958.317684
 30
0.0
  0
SPLINE
  5
397
100
AcDbEntity
  8
Default
 62
7
100
AcDbSpline
 70
8
 71
3
 72
8
 73
4
 74
0
 40
0
 40
0
 40
0
 40
0
 40
1
 40
1
 40
1
 40
1
 10
2562.098080
 20
1958.317684
 30
0.0
 10
2618.454640
 20
1966.364164
 30
0.0
 10
2674.647680
 20
1976.116484
 30
0.0
 10
2730.486240
 20
1987.179204
 30
0.0
  0
SPLINE
  5
398
100
AcDbEntity
  8
Default
 62
7
100
AcDbSpline
 70
8
 71
3
 72
8
 73
4
 74
0
 40
0
 40
0
 40
0
 40
0
 40
1
 40
1
 40
1
 40
1
 10
2730.486240
 20
1987.179204
 30
0.0
 10
2774.706880
 20
1995.940244
 30
0.0
 10
2818.900880
 20
2005.562644
 30
0.0
 10
2862.851920
 20
2015.850164
 30
0.0
  0
LWPOLYLINE
  5
399
100
AcDbEntity
  8
Default
 62
7
100
AcDbPolyline
 90
2
 70
0
 10
2502.305520
 20
1950.442564
 30
0.0
 10
2502.305520
 20
1950.442564
 30
0.0
  0
SPLINE
  5
39a
100
AcDbEntity
  8
Default
 62
7
100
AcDbSpline
 70
8
 71
3
 72
8
 73
4
 74
0
 40
0
 40
0
 40
0
 40
0
 40
1
 40
1
 40
1
 40
1
 10
2862.851920
 20
2015.850164
 30
0.0
 10
2818.900880
 20
2005.562644
 30
0.0
 10
2774.706880
 20
1995.940244
 30
0.0
 10
2730.486240
 20
1987.179204
 30
0.0
  0
SPLINE
  5
39b
100
AcDbEntity
  8
Default
 62
7
100
AcDbSpline
 70
8
 71
3
 72
8
 73
4
 74
0
 40
0
 40
0
 40
0
 40
0
 40
1
 40
1
 40
1
 40
1
 10
2730.486240
 20
1987.179204
 30
0.0
 10
2674.647680
 20
1976.116484
 30
0.0
 10
2618.454640
 20
1966.364164
 30
0.0
 10
2562.098080
 20
1958.317684
 30
0.0
  0
SPLINE
  5
39c
100
AcDbEntity
  8
Default
 62
7
100
AcDbSpline
 70
8
 71
3
 72
8
 73
4
 74
0
 40
0
 40
0
 40
0
 40
0
 40
1
 40
1
 40
1
 40
1
 10
2562.098080
 20
1958.317684
 30
0.0
 10
2542.122880
 20
1955.465684
 30
0.0
 10
2522.200400
 20
1952.837524
 30
0.0
 10
2502.305520
 20
1950.442404
 30
0.0
  0
LWPOLYLINE
  5
39d
100
AcDbEntity
  8
Default
 62
7
100
AcDbPolyline
 90
2
 70
0
 10
2362.052800
 20
1937.534164
 30
0.0
 10
2362.052800
 20
1937.534164
 30
0.0
  0
SPLINE
  5
39e
100
AcDbEntity
  8
Default
 62
7
100
AcDbSpline
 70
8
 71
3
 72
8
 73
4
 74
0
 40
0
 40
0
 40
0
 40
0
 40
1
 40
1
 40
1
 40
1
 10
2502.305520
 20
1950.442404
 30
0.0
 10
2522.200400
 20
1952.837524
 30
0.0
 10
2542.122880
 20
1955.465684
 30
0.0
 10
2562.098080
 20
1958.317684
 30
0.0
  0
SPLINE
  5
39f
100
AcDbEntity
  8
Default
 62
7
100
AcDbSpline
 70
8
 71
3
 72
8
 73
4
 74
0
 40
0
 40
0
 40
0
 40
0
 40
1
 40
1
 40
1
 40
1
 10
2562.098080
 20
1958.317684
 30
0.0
 10
2618.454640
 20
1966.364164
 30
0.0
 10
2674.647680
 20
1976.116484
 30
0.0
 10
2730.486240
 20
1987.179204
 30
0.0
  0
SPLINE
  5
3a0
100
AcDbEntity
  8
Default
 62
7
100
AcDbSpline
 70
8
 71
3
 72
8
 73
4
 74
0
 40
0
 40
0
 40
0
 40
0
 40
1
 40
1
 40
1
 40
1
 10
2730.486240
 20
1987.179204
 30
0.0
 10
2774.706880
 20
1995.940244
 30
0.0
 10
2818.900880
 20
2005.562644
 30
0.0
 10
2862.851920
 20
2015.850164
 30
0.0
  0
LWPOLYLINE
  5
3a1
100
AcDbEntity
  8
Default
 62
7
100
AcDbPolyline
 90
2
 70
0
 10
2862.851920
 20
2015.850164
 30
0.0
 10
2862.851920
 20
2015.850164
 30
0.0
  0
LWPOLYLINE
  5
3a2
100
AcDbEntity
  8
Default
 62
7
100
AcDbPolyline
 90
2
 70
0
 10
2502.305520
 20
1950.442404
 30
0.0
 10
2502.305520
 20
1950.442404
 30
0.0
  0
SPLINE
  5
3a3
100
AcDbEntity
  8
Default
 62
7
100
AcDbSpline
 70
8
 71
3
 72
8
 73
4
 74
0
 40
0
 40
0
 40
0
 40
0
 40
1
 40
1
 40
1
 40
1
 10
2862.851920
 20
2015.850164
 30
0.0
 10
2862.093040
 20
1977.172004
 30
0.0
 10
2860.759440
 20
1938.504804
 30
0.0
 10
2858.941040
 20
1899.952004
 30
0.0
  0
SPLINE
  5
3a4
100
AcDbEntity
  8
Default
 62
7
100
AcDbSpline
 70
8
 71
3
 72
8
 73
4
 74
0
 40
0
 40
0
 40
0
 40
0
 40
1
 40
1
 40
1
 40
1
 10
2858.941040
 20
1899.952004
 30
0.0
 10
2856.196160
 20
1841.757764
 30
0.0
 10
2852.330000
 20
1783.533284
 30
0.0
 10
2847.582880
 20
1725.571924
 30
0.0
  0
SPLINE
  5
3a5
100
AcDbEntity
  8
Default
 62
7
100
AcDbSpline
 70
8
 71
3
 72
8
 73
4
 74
0
 40
0
 40
0
 40
0
 40
0
 40
1
 40
1
 40
1
 40
1
 10
2847.582880
 20
1725.571924
 30
0.0
 10
2844.475680
 20
1687.632804
 30
0.0
 10
2840.980400
 20
1649.685764
 30
0.0
 10
2837.156480
 20
1611.801116
 30
0.0
  0
LWPOLYLINE
  5
3a6
100
AcDbEntity
  8
Default
 62
7
100
AcDbPolyline
 90
2
 70
0
 10
2562.098080
 20
1958.317684
 30
0.0
 10
2562.098080
 20
1958.317684
 30
0.0
  0
SPLINE
  5
3a7
100
AcDbEntity
  8
Default
 62
7
100
AcDbSpline
 70
8
 71
3
 72
8
 73
4
 74
0
 40
0
 40
0
 40
0
 40
0
 40
1
 40
1
 40
1
 40
1
 10
2837.156480
 20
1611.801116
 30
0.0
 10
2840.980400
 20
1649.685764
 30
0.0
 10
2844.475680
 20
1687.632804
 30
0.0
 10
2847.582880
 20
1725.571924
 30
0.0
  0
SPLINE
  5
3a8
100
AcDbEntity
  8
Default
 62
7
100
AcDbSpline
 70
8
 71
3
 72
8
 73
4
 74
0
 40
0
 40
0
 40
0
 40
0
 40
1
 40
1
 40
1
 40
1
 10
2847.582880
 20
1725.571924
 30
0.0
 10
2852.330000
 20
1783.533284
 30
0.0
 10
2856.196160
 20
1841.757764
 30
0.0
 10
2858.941040
 20
1899.952004
 30
0.0
  0
SPLINE
  5
3a9
100
AcDbEntity
  8
Default
 62
7
100
AcDbSpline
 70
8
 71
3
 72
8
 73
4
 74
0
 40
0
 40
0
 40
0
 40
0
 40
1
 40
1
 40
1
 40
1
 10
2858.941040
 20
1899.952004
 30
0.0
 10
2860.759440
 20
1938.504804
 30
0.0
 10
2862.093040
 20
1977.172004
 30
0.0
 10
2862.851920
 20
2015.850164
 30
0.0
  0
LWPOLYLINE
  5
3aa
100
AcDbEntity
  8
Default
 62
7
100
AcDbPolyline
 90
2
 70
0
 10
2730.486240
 20
1987.179204
 30
0.0
 10
2730.486240
 20
1987.179204
 30
0.0
  0
SPLINE
  5
3ab
100
AcDbEntity
  8
Default
 62
7
100
AcDbSpline
 70
8
 71
3
 72
8
 73
4
 74
0
 40
0
 40
0
 40
0
 40
0
 40
1
 40
1
 40
1
 40
1
 10
2862.851920
 20
2015.850164
 30
0.0
 10
2862.093040
 20
1977.172004
 30
0.0
 10
2860.759440
 20
1938.504804
 30
0.0
 10
2858.941040
 20
1899.952004
 30
0.0
  0
SPLINE
  5
3ac
100
AcDbEntity
  8
Default
 62
7
100
AcDbSpline
 70
8
 71
3
 72
8
 73
4
 74
0
 40
0
 40
0
 40
0
 40
0
 40
1
 40
1
 40
1
 40
1
 10
2858.941040
 20
1899.952004
 30
0.0
 10
2856.196160
 20
1841.757764
 30
0.0
 10
2852.330000
 20
1783.533284
 30
0.0
 10
2847.582880
 20
1725.571924
 30
0.0
  0
SPLINE
  5
3ad
100
AcDbEntity
  8
Default
 62
7
100
AcDbSpline
 70
8
 71
3
 72
8
 73
4
 74
0
 40
0
 40
0
 40
0
 40
0
 40
1
 40
1
 40
1
 40
1
 10
2847.582880
 20
1725.571924
 30
0.0
 10
2844.475680
 20
1687.632804
 30
0.0
 10
2840.980400
 20
1649.685764
 30
0.0
 10
2837.156480
 20
1611.801116
 30
0.0
  0
LWPOLYLINE
  5
3ae
100
AcDbEntity
  8
Default
 62
7
100
AcDbPolyline
 90
2
 70
0
 10
2837.156480
 20
1611.801116
 30
0.0
 10
2837.156480
 20
1611.801116
 30
0.0
  0
LWPOLYLINE
  5
3af
100
AcDbEntity
  8
Default
 62
7
100
AcDbPolyline
 90
2
 70
0
 10
2862.851920
 20
2015.850164
 30
0.0
 10
2862.851920
 20
2015.850164
 30
0.0
  0
SPLINE
  5
3b0
100
AcDbEntity
  8
Default
 62
7
100
AcDbSpline
 70
8
 71
3
 72
8
 73
4
 74
0
 40
0
 40
0
 40
0
 40
0
 40
1
 40
1
 40
1
 40
1
 10
2221.431360
 20
1521.875700
 30
0.0
 10
2327.075840
 20
1521.889300
 30
0.0
 10
2429.955760
 20
1530.918428
 30
0.0
 10
2534.272240
 20
1547.184212
 30
0.0
  0
SPLINE
  5
3b1
100
AcDbEntity
  8
Default
 62
7
100
AcDbSpline
 70
8
 71
3
 72
8
 73
4
 74
0
 40
0
 40
0
 40
0
 40
0
 40
1
 40
1
 40
1
 40
1
 10
2534.272240
 20
1547.184212
 30
0.0
 10
2635.930000
 20
1563.035460
 30
0.0
 10
2737.690720
 20
1585.610084
 30
0.0
 10
2837.156480
 20
1611.801116
 30
0.0
  0
LWPOLYLINE
  5
3b2
100
AcDbEntity
  8
Default
 62
7
100
AcDbPolyline
 90
2
 70
0
 10
2858.941040
 20
1899.952004
 30
0.0
 10
2858.941040
 20
1899.952004
 30
0.0
  0
SPLINE
  5
3b3
100
AcDbEntity
  8
Default
 62
7
100
AcDbSpline
 70
8
 71
3
 72
8
 73
4
 74
0
 40
0
 40
0
 40
0
 40
0
 40
1
 40
1
 40
1
 40
1
 10
2837.156480
 20
1611.801116
 30
0.0
 10
2737.690720
 20
1585.610084
 30
0.0
 10
2635.930000
 20
1563.035460
 30
0.0
 10
2534.272240
 20
1547.184212
 30
0.0
  0
SPLINE
  5
3b4
100
AcDbEntity
  8
Default
 62
7
100
AcDbSpline
 70
8
 71
3
 72
8
 73
4
 74
0
 40
0
 40
0
 40
0
 40
0
 40
1
 40
1
 40
1
 40
1
 10
2534.272240
 20
1547.184212
 30
0.0
 10
2429.955760
 20
1530.918428
 30
0.0
 10
2327.075840
 20
1521.888564
 30
0.0
 10
2221.431360
 20
1521.875700
 30
0.0
  0
LWPOLYLINE
  5
3b5
100
AcDbEntity
  8
Default
 62
7
100
AcDbPolyline
 90
2
 70
0
 10
2847.582880
 20
1725.571924
 30
0.0
 10
2847.582880
 20
1725.571924
 30
0.0
  0
SPLINE
  5
3b6
100
AcDbEntity
  8
Default
 62
7
100
AcDbSpline
 70
8
 71
3
 72
8
 73
4
 74
0
 40
0
 40
0
 40
0
 40
0
 40
1
 40
1
 40
1
 40
1
 10
2221.431360
 20
1521.875700
 30
0.0
 10
2327.075840
 20
1521.889300
 30
0.0
 10
2429.955760
 20
1530.918428
 30
0.0
 10
2534.272240
 20
1547.184212
 30
0.0
  0
SPLINE
  5
3b7
100
AcDbEntity
  8
Default
 62
7
100
AcDbSpline
 70
8
 71
3
 72
8
 73
4
 74
0
 40
0
 40
0
 40
0
 40
0
 40
1
 40
1
 40
1
 40
1
 10
2534.272240
 20
1547.184212
 30
0.0
 10
2635.930000
 20
1563.035460
 30
0.0
 10
2737.690720
 20
1585.610084
 30
0.0
 10
2837.156480
 20
1611.801116
 30
0.0
  0
LWPOLYLINE
  5
3b8
100
AcDbEntity
  8
Default
 62
7
100
AcDbPolyline
 90
2
 70
0
 10
2837.156480
 20
1611.801116
 30
0.0
 10
2837.156480
 20
1611.801116
 30
0.0
  0
SPLINE
  5
3b9
100
AcDbEntity
  8
Default
 62
7
100
AcDbSpline
 70
8
 71
3
 72
8
 73
4
 74
0
 40
0
 40
0
 40
0
 40
0
 40
1
 40
1
 40
1
 40
1
 10
1580.010800
 20
2015.849364
 30
0.0
 10
1580.769680
 20
1977.171444
 30
0.0
 10
1582.103280
 20
1938.504564
 30
0.0
 10
1583.921680
 20
1899.952004
 30
0.0
  0
SPLINE
  5
3ba
100
AcDbEntity
  8
Default
 62
7
100
AcDbSpline
 70
8
 71
3
 72
8
 73
4
 74
0
 40
0
 40
0
 40
0
 40
0
 40
1
 40
1
 40
1
 40
1
 10
1583.921680
 20
1899.952004
 30
0.0
 10
1586.666560
 20
1841.757764
 30
0.0
 10
1590.532720
 20
1783.533284
 30
0.0
 10
1595.279840
 20
1725.571924
 30
0.0
  0
SPLINE
  5
3bb
100
AcDbEntity
  8
Default
 62
7
100
AcDbSpline
 70
8
 71
3
 72
8
 73
4
 74
0
 40
0
 40
0
 40
0
 40
0
 40
1
 40
1
 40
1
 40
1
 10
1595.279840
 20
1725.571924
 30
0.0
 10
1598.387040
 20
1687.632804
 30
0.0
 10
1601.882320
 20
1649.685764
 30
0.0
 10
1605.706240
 20
1611.801116
 30
0.0
  0
LWPOLYLINE
  5
3bc
100
AcDbEntity
  8
Default
 62
7
100
AcDbPolyline
 90
2
 70
0
 10
2221.431360
 20
1521.875700
 30
0.0
 10
2221.431360
 20
1521.875700
 30
0.0
  0
SPLINE
  5
3bd
100
AcDbEntity
  8
Default
 62
7
100
AcDbSpline
 70
8
 71
3
 72
8
 73
4
 74
0
 40
0
 40
0
 40
0
 40
0
 40
1
 40
1
 40
1
 40
1
 10
1605.706240
 20
1611.801116
 30
0.0
 10
1601.882320
 20
1649.685764
 30
0.0
 10
1598.387040
 20
1687.632804
 30
0.0
 10
1595.279840
 20
1725.571924
 30
0.0
  0
SPLINE
  5
3be
100
AcDbEntity
  8
Default
 62
7
100
AcDbSpline
 70
8
 71
3
 72
8
 73
4
 74
0
 40
0
 40
0
 40
0
 40
0
 40
1
 40
1
 40
1
 40
1
 10
1595.279840
 20
1725.571924
 30
0.0
 10
1590.532720
 20
1783.533284
 30
0.0
 10
1586.666560
 20
1841.757764
 30
0.0
 10
1583.921680
 20
1899.952004
 30
0.0
  0
SPLINE
  5
3bf
100
AcDbEntity
  8
Default
 62
7
100
AcDbSpline
 70
8
 71
3
 72
8
 73
4
 74
0
 40
0
 40
0
 40
0
 40
0
 40
1
 40
1
 40
1
 40
1
 10
1583.921680
 20
1899.952004
 30
0.0
 10
1582.103280
 20
1938.504564
 30
0.0
 10
1580.769680
 20
1977.171444
 30
0.0
 10
1580.010800
 20
2015.849364
 30
0.0
  0
LWPOLYLINE
  5
3c0
100
AcDbEntity
  8
Default
 62
7
100
AcDbPolyline
 90
2
 70
0
 10
2534.272240
 20
1547.184212
 30
0.0
 10
2534.272240
 20
1547.184212
 30
0.0
  0
SPLINE
  5
3c1
100
AcDbEntity
  8
Default
 62
7
100
AcDbSpline
 70
8
 71
3
 72
8
 73
4
 74
0
 40
0
 40
0
 40
0
 40
0
 40
1
 40
1
 40
1
 40
1
 10
1580.010800
 20
2015.849364
 30
0.0
 10
1580.769680
 20
1977.171444
 30
0.0
 10
1582.103280
 20
1938.504564
 30
0.0
 10
1583.921680
 20
1899.952004
 30
0.0
  0
SPLINE
  5
3c2
100
AcDbEntity
  8
Default
 62
7
100
AcDbSpline
 70
8
 71
3
 72
8
 73
4
 74
0
 40
0
 40
0
 40
0
 40
0
 40
1
 40
1
 40
1
 40
1
 10
1583.921680
 20
1899.952004
 30
0.0
 10
1586.666560
 20
1841.757764
 30
0.0
 10
1590.532720
 20
1783.533284
 30
0.0
 10
1595.279840
 20
1725.571924
 30
0.0
  0
SPLINE
  5
3c3
100
AcDbEntity
  8
Default
 62
7
100
AcDbSpline
 70
8
 71
3
 72
8
 73
4
 74
0
 40
0
 40
0
 40
0
 40
0
 40
1
 40
1
 40
1
 40
1
 10
1595.279840
 20
1725.571924
 30
0.0
 10
1598.387040
 20
1687.632804
 30
0.0
 10
1601.882320
 20
1649.685764
 30
0.0
 10
1605.706240
 20
1611.801116
 30
0.0
  0
LWPOLYLINE
  5
3c4
100
AcDbEntity
  8
Default
 62
7
100
AcDbPolyline
 90
2
 70
0
 10
1605.706240
 20
1611.801116
 30
0.0
 10
1605.706240
 20
1611.801116
 30
0.0
  0
LWPOLYLINE
  5
3c5
100
AcDbEntity
  8
Default
 62
7
100
AcDbPolyline
 90
2
 70
0
 10
1580.010800
 20
2015.849364
 30
0.0
 10
1580.010800
 20
2015.849364
 30
0.0
  0
SPLINE
  5
3c6
100
AcDbEntity
  8
Default
 62
7
100
AcDbSpline
 70
8
 71
3
 72
8
 73
4
 74
0
 40
0
 40
0
 40
0
 40
0
 40
1
 40
1
 40
1
 40
1
 10
1605.706240
 20
1611.801116
 30
0.0
 10
1705.172720
 20
1585.609172
 30
0.0
 10
1806.927280
 20
1563.009204
 30
0.0
 10
1908.585360
 20
1547.149676
 30
0.0
  0
SPLINE
  5
3c7
100
AcDbEntity
  8
Default
 62
7
100
AcDbSpline
 70
8
 71
3
 72
8
 73
4
 74
0
 40
0
 40
0
 40
0
 40
0
 40
1
 40
1
 40
1
 40
1
 10
1908.585360
 20
1547.149676
 30
0.0
 10
2012.928240
 20
1530.871324
 30
0.0
 10
2115.759200
 20
1521.862844
 30
0.0
 10
2221.431360
 20
1521.875700
 30
0.0
  0
LWPOLYLINE
  5
3c8
100
AcDbEntity
  8
Default
 62
7
100
AcDbPolyline
 90
2
 70
0
 10
1583.921680
 20
1899.952004
 30
0.0
 10
1583.921680
 20
1899.952004
 30
0.0
  0
SPLINE
  5
3c9
100
AcDbEntity
  8
Default
 62
7
100
AcDbSpline
 70
8
 71
3
 72
8
 73
4
 74
0
 40
0
 40
0
 40
0
 40
0
 40
1
 40
1
 40
1
 40
1
 10
2221.431360
 20
1521.875700
 30
0.0
 10
2115.759200
 20
1521.862100
 30
0.0
 10
2012.928240
 20
1530.871324
 30
0.0
 10
1908.585360
 20
1547.149676
 30
0.0
  0
SPLINE
  5
3ca
100
AcDbEntity
  8
Default
 62
7
100
AcDbSpline
 70
8
 71
3
 72
8
 73
4
 74
0
 40
0
 40
0
 40
0
 40
0
 40
1
 40
1
 40
1
 40
1
 10
1908.585360
 20
1547.149676
 30
0.0
 10
1806.927280
 20
1563.009204
 30
0.0
 10
1705.172720
 20
1585.609172
 30
0.0
 10
1605.706240
 20
1611.801116
 30
0.0
  0
LWPOLYLINE
  5
3cb
100
AcDbEntity
  8
Default
 62
7
100
AcDbPolyline
 90
2
 70
0
 10
1595.279840
 20
1725.571924
 30
0.0
 10
1595.279840
 20
1725.571924
 30
0.0
  0
SPLINE
  5
3cc
100
AcDbEntity
  8
Default
 62
7
100
AcDbSpline
 70
8
 71
3
 72
8
 73
4
 74
0
 40
0
 40
0
 40
0
 40
0
 40
1
 40
1
 40
1
 40
1
 10
1605.706240
 20
1611.801116
 30
0.0
 10
1705.172720
 20
1585.609172
 30
0.0
 10
1806.927280
 20
1563.009204
 30
0.0
 10
1908.585360
 20
1547.149676
 30
0.0
  0
SPLINE
  5
3cd
100
AcDbEntity
  8
Default
 62
7
100
AcDbSpline
 70
8
 71
3
 72
8
 73
4
 74
0
 40
0
 40
0
 40
0
 40
0
 40
1
 40
1
 40
1
 40
1
 10
1908.585360
 20
1547.149676
 30
0.0
 10
2012.928240
 20
1530.871324
 30
0.0
 10
2115.759200
 20
1521.862844
 30
0.0
 10
2221.431360
 20
1521.875700
 30
0.0
  0
LWPOLYLINE
  5
3ce
100
AcDbEntity
  8
Default
 62
7
100
AcDbPolyline
 90
2
 70
0
 10
2221.431360
 20
1521.875700
 30
0.0
 10
2221.431360
 20
1521.875700
 30
0.0
  0
SPLINE
  5
3cf
100
AcDbEntity
  8
Default
 62
7
100
AcDbSpline
 70
8
 71
3
 72
8
 73
4
 74
0
 40
0
 40
0
 40
0
 40
0
 40
1
 40
1
 40
1
 40
1
 10
1611.263440
 20
1558.856628
 30
0.0
 10
1708.960320
 20
1533.284740
 30
0.0
 10
1808.818240
 20
1511.228684
 30
0.0
 10
1908.584320
 20
1495.664300
 30
0.0
  0
SPLINE
  5
3d0
100
AcDbEntity
  8
Default
 62
7
100
AcDbSpline
 70
8
 71
3
 72
8
 73
4
 74
0
 40
0
 40
0
 40
0
 40
0
 40
1
 40
1
 40
1
 40
1
 10
1908.584320
 20
1495.664300
 30
0.0
 10
1924.751840
 20
1493.142012
 30
0.0
 10
1940.883120
 20
1490.794268
 30
0.0
 10
1956.994400
 20
1488.627580
 30
0.0
  0
LWPOLYLINE
  5
3d1
100
AcDbEntity
  8
Default
 62
7
100
AcDbPolyline
 90
2
 70
0
 10
1605.706240
 20
1611.801116
 30
0.0
 10
1605.706240
 20
1611.801116
 30
0.0
  0
SPLINE
  5
3d2
100
AcDbEntity
  8
Default
 62
7
100
AcDbSpline
 70
8
 71
3
 72
8
 73
4
 74
0
 40
0
 40
0
 40
0
 40
0
 40
1
 40
1
 40
1
 40
1
 10
1956.994400
 20
1488.627580
 30
0.0
 10
1940.883120
 20
1490.794268
 30
0.0
 10
1924.751840
 20
1493.142012
 30
0.0
 10
1908.584320
 20
1495.664300
 30
0.0
  0
SPLINE
  5
3d3
100
AcDbEntity
  8
Default
 62
7
100
AcDbSpline
 70
8
 71
3
 72
8
 73
4
 74
0
 40
0
 40
0
 40
0
 40
0
 40
1
 40
1
 40
1
 40
1
 10
1908.584320
 20
1495.664300
 30
0.0
 10
1808.818240
 20
1511.228684
 30
0.0
 10
1708.960320
 20
1533.284740
 30
0.0
 10
1611.263440
 20
1558.856628
 30
0.0
  0
LWPOLYLINE
  5
3d4
100
AcDbEntity
  8
Default
 62
7
100
AcDbPolyline
 90
2
 70
0
 10
1908.585360
 20
1547.149676
 30
0.0
 10
1908.585360
 20
1547.149676
 30
0.0
  0
SPLINE
  5
3d5
100
AcDbEntity
  8
Default
 62
7
100
AcDbSpline
 70
8
 71
3
 72
8
 73
4
 74
0
 40
0
 40
0
 40
0
 40
0
 40
1
 40
1
 40
1
 40
1
 10
1611.263440
 20
1558.856628
 30
0.0
 10
1708.960320
 20
1533.284740
 30
0.0
 10
1808.818240
 20
1511.228684
 30
0.0
 10
1908.584320
 20
1495.664300
 30
0.0
  0
SPLINE
  5
3d6
100
AcDbEntity
  8
Default
 62
7
100
AcDbSpline
 70
8
 71
3
 72
8
 73
4
 74
0
 40
0
 40
0
 40
0
 40
0
 40
1
 40
1
 40
1
 40
1
 10
1908.584320
 20
1495.664300
 30
0.0
 10
1924.751840
 20
1493.142012
 30
0.0
 10
1940.883120
 20
1490.794268
 30
0.0
 10
1956.994400
 20
1488.627580
 30
0.0
  0
LWPOLYLINE
  5
3d7
100
AcDbEntity
  8
Default
 62
7
100
AcDbPolyline
 90
2
 70
0
 10
1956.994400
 20
1488.627580
 30
0.0
 10
1956.994400
 20
1488.627580
 30
0.0
  0
SPLINE
  5
3d8
100
AcDbEntity
  8
Default
 62
7
100
AcDbSpline
 70
8
 71
3
 72
8
 73
4
 74
0
 40
0
 40
0
 40
0
 40
0
 40
1
 40
1
 40
1
 40
1
 10
1611.263440
 20
1558.856628
 30
0.0
 10
1611.515520
 20
1556.542060
 30
0.0
 10
1611.768640
 20
1554.227852
 30
0.0
 10
1612.022960
 20
1551.914036
 30
0.0
  0
SPLINE
  5
3d9
100
AcDbEntity
  8
Default
 62
7
100
AcDbSpline
 70
8
 71
3
 72
8
 73
4
 74
0
 40
0
 40
0
 40
0
 40
0
 40
1
 40
1
 40
1
 40
1
 10
1612.022960
 20
1551.914036
 30
0.0
 10
1615.198160
 20
1523.023076
 30
0.0
 10
1618.550800
 20
1494.153868
 30
0.0
 10
1622.058320
 20
1465.306244
 30
0.0
  0
SPLINE
  5
3da
100
AcDbEntity
  8
Default
 62
7
100
AcDbSpline
 70
8
 71
3
 72
8
 73
4
 74
0
 40
0
 40
0
 40
0
 40
0
 40
1
 40
1
 40
1
 40
1
 10
1622.058320
 20
1465.306244
 30
0.0
 10
1625.566000
 20
1436.457828
 30
0.0
 10
1629.228960
 20
1407.627420
 30
0.0
 10
1633.024720
 20
1378.813356
 30
0.0
  0
SPLINE
  5
3db
100
AcDbEntity
  8
Default
 62
7
100
AcDbSpline
 70
8
 71
3
 72
8
 73
4
 74
0
 40
0
 40
0
 40
0
 40
0
 40
1
 40
1
 40
1
 40
1
 10
1633.024720
 20
1378.813356
 30
0.0
 10
1640.550160
 20
1321.686108
 30
0.0
 10
1648.600400
 20
1264.609500
 30
0.0
 10
1656.987920
 20
1207.563388
 30
0.0
  0
SPLINE
  5
3dc
100
AcDbEntity
  8
Default
 62
7
100
AcDbSpline
 70
8
 71
3
 72
8
 73
4
 74
0
 40
0
 40
0
 40
0
 40
0
 40
1
 40
1
 40
1
 40
1
 10
1656.987920
 20
1207.563388
 30
0.0
 10
1662.696800
 20
1168.735436
 30
0.0
 10
1668.563280
 20
1129.914300
 30
0.0
 10
1674.520640
 20
1091.092788
 30
0.0
  0
LWPOLYLINE
  5
3dd
100
AcDbEntity
  8
Default
 62
7
100
AcDbPolyline
 90
2
 70
0
 10
1611.263440
 20
1558.856628
 30
0.0
 10
1611.263440
 20
1558.856628
 30
0.0
  0
SPLINE
  5
3de
100
AcDbEntity
  8
Default
 62
7
100
AcDbSpline
 70
8
 71
3
 72
8
 73
4
 74
0
 40
0
 40
0
 40
0
 40
0
 40
1
 40
1
 40
1
 40
1
 10
1674.520640
 20
1091.092788
 30
0.0
 10
1668.563280
 20
1129.914300
 30
0.0
 10
1662.696800
 20
1168.735436
 30
0.0
 10
1656.987920
 20
1207.563388
 30
0.0
  0
SPLINE
  5
3df
100
AcDbEntity
  8
Default
 62
7
100
AcDbSpline
 70
8
 71
3
 72
8
 73
4
 74
0
 40
0
 40
0
 40
0
 40
0
 40
1
 40
1
 40
1
 40
1
 10
1656.987920
 20
1207.563388
 30
0.0
 10
1648.600400
 20
1264.609500
 30
0.0
 10
1640.550160
 20
1321.686108
 30
0.0
 10
1633.024720
 20
1378.813356
 30
0.0
  0
SPLINE
  5
3e0
100
AcDbEntity
  8
Default
 62
7
100
AcDbSpline
 70
8
 71
3
 72
8
 73
4
 74
0
 40
0
 40
0
 40
0
 40
0
 40
1
 40
1
 40
1
 40
1
 10
1633.024720
 20
1378.813356
 30
0.0
 10
1629.228960
 20
1407.627420
 30
0.0
 10
1625.566000
 20
1436.457828
 30
0.0
 10
1622.058320
 20
1465.306244
 30
0.0
  0
SPLINE
  5
3e1
100
AcDbEntity
  8
Default
 62
7
100
AcDbSpline
 70
8
 71
3
 72
8
 73
4
 74
0
 40
0
 40
0
 40
0
 40
0
 40
1
 40
1
 40
1
 40
1
 10
1622.058320
 20
1465.306244
 30
0.0
 10
1618.550800
 20
1494.153868
 30
0.0
 10
1615.198160
 20
1523.023076
 30
0.0
 10
1612.022960
 20
1551.914036
 30
0.0
  0
SPLINE
  5
3e2
100
AcDbEntity
  8
Default
 62
7
100
AcDbSpline
 70
8
 71
3
 72
8
 73
4
 74
0
 40
0
 40
0
 40
0
 40
0
 40
1
 40
1
 40
1
 40
1
 10
1612.022960
 20
1551.914036
 30
0.0
 10
1611.768640
 20
1554.227852
 30
0.0
 10
1611.515520
 20
1556.542060
 30
0.0
 10
1611.263440
 20
1558.856628
 30
0.0
  0
LWPOLYLINE
  5
3e3
100
AcDbEntity
  8
Default
 62
7
100
AcDbPolyline
 90
2
 70
0
 10
1908.584320
 20
1495.664300
 30
0.0
 10
1908.584320
 20
1495.664300
 30
0.0
  0
SPLINE
  5
3e4
100
AcDbEntity
  8
Default
 62
7
100
AcDbSpline
 70
8
 71
3
 72
8
 73
4
 74
0
 40
0
 40
0
 40
0
 40
0
 40
1
 40
1
 40
1
 40
1
 10
1611.263440
 20
1558.856628
 30
0.0
 10
1611.515520
 20
1556.542060
 30
0.0
 10
1611.768640
 20
1554.227852
 30
0.0
 10
1612.022960
 20
1551.914036
 30
0.0
  0
SPLINE
  5
3e5
100
AcDbEntity
  8
Default
 62
7
100
AcDbSpline
 70
8
 71
3
 72
8
 73
4
 74
0
 40
0
 40
0
 40
0
 40
0
 40
1
 40
1
 40
1
 40
1
 10
1612.022960
 20
1551.914036
 30
0.0
 10
1615.198160
 20
1523.023076
 30
0.0
 10
1618.550800
 20
1494.153868
 30
0.0
 10
1622.058320
 20
1465.306244
 30
0.0
  0
SPLINE
  5
3e6
100
AcDbEntity
  8
Default
 62
7
100
AcDbSpline
 70
8
 71
3
 72
8
 73
4
 74
0
 40
0
 40
0
 40
0
 40
0
 40
1
 40
1
 40
1
 40
1
 10
1622.058320
 20
1465.306244
 30
0.0
 10
1625.566000
 20
1436.457828
 30
0.0
 10
1629.228960
 20
1407.627420
 30
0.0
 10
1633.024720
 20
1378.813356
 30
0.0
  0
SPLINE
  5
3e7
100
AcDbEntity
  8
Default
 62
7
100
AcDbSpline
 70
8
 71
3
 72
8
 73
4
 74
0
 40
0
 40
0
 40
0
 40
0
 40
1
 40
1
 40
1
 40
1
 10
1633.024720
 20
1378.813356
 30
0.0
 10
1640.550160
 20
1321.686108
 30
0.0
 10
1648.600400
 20
1264.609500
 30
0.0
 10
1656.987920
 20
1207.563388
 30
0.0
  0
SPLINE
  5
3e8
100
AcDbEntity
  8
Default
 62
7
100
AcDbSpline
 70
8
 71
3
 72
8
 73
4
 74
0
 40
0
 40
0
 40
0
 40
0
 40
1
 40
1
 40
1
 40
1
 10
1656.987920
 20
1207.563388
 30
0.0
 10
1662.696800
 20
1168.735436
 30
0.0
 10
1668.563280
 20
1129.914300
 30
0.0
 10
1674.520640
 20
1091.092788
 30
0.0
  0
LWPOLYLINE
  5
3e9
100
AcDbEntity
  8
Default
 62
7
100
AcDbPolyline
 90
2
 70
0
 10
1674.520640
 20
1091.092788
 30
0.0
 10
1674.520640
 20
1091.092788
 30
0.0
  0
LWPOLYLINE
  5
3ea
100
AcDbEntity
  8
Default
 62
7
100
AcDbPolyline
 90
2
 70
0
 10
1611.263440
 20
1558.856628
 30
0.0
 10
1611.263440
 20
1558.856628
 30
0.0
  0
LWPOLYLINE
  5
3eb
100
AcDbEntity
  8
Default
 62
7
100
AcDbPolyline
 90
2
 70
0
 10
1612.022960
 20
1551.914036
 30
0.0
 10
1612.022960
 20
1551.914036
 30
0.0
  0
LWPOLYLINE
  5
3ec
100
AcDbEntity
  8
Default
 62
7
100
AcDbPolyline
 90
2
 70
0
 10
1622.058320
 20
1465.306244
 30
0.0
 10
1622.058320
 20
1465.306244
 30
0.0
  0
SPLINE
  5
3ed
100
AcDbEntity
  8
Default
 62
7
100
AcDbSpline
 70
8
 71
3
 72
8
 73
4
 74
0
 40
0
 40
0
 40
0
 40
0
 40
1
 40
1
 40
1
 40
1
 10
2221.431360
 20
1470.390148
 30
0.0
 10
2168.420960
 20
1470.385348
 30
0.0
 10
2115.491680
 20
1472.661988
 30
0.0
 10
2062.554080
 20
1477.080276
 30
0.0
  0
SPLINE
  5
3ee
100
AcDbEntity
  8
Default
 62
7
100
AcDbSpline
 70
8
 71
3
 72
8
 73
4
 74
0
 40
0
 40
0
 40
0
 40
0
 40
1
 40
1
 40
1
 40
1
 10
2062.554080
 20
1477.080276
 30
0.0
 10
2027.349040
 20
1480.018532
 30
0.0
 10
1992.162160
 20
1483.901020
 30
0.0
 10
1956.994400
 20
1488.627580
 30
0.0
  0
LWPOLYLINE
  5
3ef
100
AcDbEntity
  8
Default
 62
7
100
AcDbPolyline
 90
2
 70
0
 10
1633.024720
 20
1378.813356
 30
0.0
 10
1633.024720
 20
1378.813356
 30
0.0
  0
SPLINE
  5
3f0
100
AcDbEntity
  8
Default
 62
7
100
AcDbSpline
 70
8
 71
3
 72
8
 73
4
 74
0
 40
0
 40
0
 40
0
 40
0
 40
1
 40
1
 40
1
 40
1
 10
1956.994400
 20
1488.627580
 30
0.0
 10
1992.162160
 20
1483.901020
 30
0.0
 10
2027.349040
 20
1480.018532
 30
0.0
 10
2062.554080
 20
1477.080276
 30
0.0
  0
SPLINE
  5
3f1
100
AcDbEntity
  8
Default
 62
7
100
AcDbSpline
 70
8
 71
3
 72
8
 73
4
 74
0
 40
0
 40
0
 40
0
 40
0
 40
1
 40
1
 40
1
 40
1
 10
2062.554080
 20
1477.080276
 30
0.0
 10
2115.491680
 20
1472.661988
 30
0.0
 10
2168.420960
 20
1470.384820
 30
0.0
 10
2221.431360
 20
1470.390148
 30
0.0
  0
LWPOLYLINE
  5
3f2
100
AcDbEntity
  8
Default
 62
7
100
AcDbPolyline
 90
2
 70
0
 10
1656.987920
 20
1207.563388
 30
0.0
 10
1656.987920
 20
1207.563388
 30
0.0
  0
SPLINE
  5
3f3
100
AcDbEntity
  8
Default
 62
7
100
AcDbSpline
 70
8
 71
3
 72
8
 73
4
 74
0
 40
0
 40
0
 40
0
 40
0
 40
1
 40
1
 40
1
 40
1
 10
2221.431360
 20
1470.390148
 30
0.0
 10
2168.420960
 20
1470.385348
 30
0.0
 10
2115.491680
 20
1472.661988
 30
0.0
 10
2062.554080
 20
1477.080276
 30
0.0
  0
SPLINE
  5
3f4
100
AcDbEntity
  8
Default
 62
7
100
AcDbSpline
 70
8
 71
3
 72
8
 73
4
 74
0
 40
0
 40
0
 40
0
 40
0
 40
1
 40
1
 40
1
 40
1
 10
2062.554080
 20
1477.080276
 30
0.0
 10
2027.349040
 20
1480.018532
 30
0.0
 10
1992.162160
 20
1483.901020
 30
0.0
 10
1956.994400
 20
1488.627580
 30
0.0
  0
LWPOLYLINE
  5
3f5
100
AcDbEntity
  8
Default
 62
7
100
AcDbPolyline
 90
2
 70
0
 10
1956.994400
 20
1488.627580
 30
0.0
 10
1956.994400
 20
1488.627580
 30
0.0
  0
LWPOLYLINE
  5
3f6
100
AcDbEntity
  8
Default
 62
7
100
AcDbPolyline
 90
2
 70
0
 10
2221.431360
 20
1470.390148
 30
0.0
 10
2221.431360
 20
1470.390148
 30
0.0
  0
SPLINE
  5
3f7
100
AcDbEntity
  8
Default
 62
7
100
AcDbSpline
 70
8
 71
3
 72
8
 73
4
 74
0
 40
0
 40
0
 40
0
 40
0
 40
1
 40
1
 40
1
 40
1
 10
2485.870320
 20
1488.665588
 30
0.0
 10
2450.701760
 20
1483.939436
 30
0.0
 10
2415.514240
 20
1480.055108
 30
0.0
 10
2380.308640
 20
1477.112388
 30
0.0
  0
SPLINE
  5
3f8
100
AcDbEntity
  8
Default
 62
7
100
AcDbSpline
 70
8
 71
3
 72
8
 73
4
 74
0
 40
0
 40
0
 40
0
 40
0
 40
1
 40
1
 40
1
 40
1
 10
2380.308640
 20
1477.112388
 30
0.0
 10
2327.358080
 20
1472.686412
 30
0.0
 10
2274.415840
 20
1470.396612
 30
0.0
 10
2221.431360
 20
1470.390148
 30
0.0
  0
LWPOLYLINE
  5
3f9
100
AcDbEntity
  8
Default
 62
7
100
AcDbPolyline
 90
2
 70
0
 10
2221.392400
 20
1470.390148
 30
0.0
 10
2221.392400
 20
1470.390148
 30
0.0
  0
SPLINE
  5
3fa
100
AcDbEntity
  8
Default
 62
7
100
AcDbSpline
 70
8
 71
3
 72
8
 73
4
 74
0
 40
0
 40
0
 40
0
 40
0
 40
1
 40
1
 40
1
 40
1
 10
2221.431360
 20
1470.390148
 30
0.0
 10
2274.415840
 20
1470.396548
 30
0.0
 10
2327.358080
 20
1472.686412
 30
0.0
 10
2380.308640
 20
1477.112388
 30
0.0
  0
SPLINE
  5
3fb
100
AcDbEntity
  8
Default
 62
7
100
AcDbSpline
 70
8
 71
3
 72
8
 73
4
 74
0
 40
0
 40
0
 40
0
 40
0
 40
1
 40
1
 40
1
 40
1
 10
2380.308640
 20
1477.112388
 30
0.0
 10
2415.514240
 20
1480.055108
 30
0.0
 10
2450.701760
 20
1483.939436
 30
0.0
 10
2485.870320
 20
1488.665588
 30
0.0
  0
LWPOLYLINE
  5
3fc
100
AcDbEntity
  8
Default
 62
7
100
AcDbPolyline
 90
2
 70
0
 10
2062.554080
 20
1477.080276
 30
0.0
 10
2062.554080
 20
1477.080276
 30
0.0
  0
SPLINE
  5
3fd
100
AcDbEntity
  8
Default
 62
7
100
AcDbSpline
 70
8
 71
3
 72
8
 73
4
 74
0
 40
0
 40
0
 40
0
 40
0
 40
1
 40
1
 40
1
 40
1
 10
2485.870320
 20
1488.665588
 30
0.0
 10
2450.701760
 20
1483.939436
 30
0.0
 10
2415.514240
 20
1480.055108
 30
0.0
 10
2380.308640
 20
1477.112388
 30
0.0
  0
SPLINE
  5
3fe
100
AcDbEntity
  8
Default
 62
7
100
AcDbSpline
 70
8
 71
3
 72
8
 73
4
 74
0
 40
0
 40
0
 40
0
 40
0
 40
1
 40
1
 40
1
 40
1
 10
2380.308640
 20
1477.112388
 30
0.0
 10
2327.358080
 20
1472.686412
 30
0.0
 10
2274.415840
 20
1470.396612
 30
0.0
 10
2221.431360
 20
1470.390148
 30
0.0
  0
LWPOLYLINE
  5
3ff
100
AcDbEntity
  8
Default
 62
7
100
AcDbPolyline
 90
2
 70
0
 10
2221.431360
 20
1470.390148
 30
0.0
 10
2221.431360
 20
1470.390148
 30
0.0
  0
SPLINE
  5
400
100
AcDbEntity
  8
Default
 62
7
100
AcDbSpline
 70
8
 71
3
 72
8
 73
4
 74
0
 40
0
 40
0
 40
0
 40
0
 40
1
 40
1
 40
1
 40
1
 10
2485.870320
 20
1488.665588
 30
0.0
 10
2501.980640
 20
1490.831868
 30
0.0
 10
2518.109760
 20
1493.178476
 30
0.0
 10
2534.273280
 20
1495.698836
 30
0.0
  0
SPLINE
  5
401
100
AcDbEntity
  8
Default
 62
7
100
AcDbSpline
 70
8
 71
3
 72
8
 73
4
 74
0
 40
0
 40
0
 40
0
 40
0
 40
1
 40
1
 40
1
 40
1
 10
2534.273280
 20
1495.698836
 30
0.0
 10
2634.038960
 20
1511.255100
 30
0.0
 10
2733.902880
 20
1533.286580
 30
0.0
 10
2831.599280
 20
1558.856692
 30
0.0
  0
LWPOLYLINE
  5
402
100
AcDbEntity
  8
Default
 62
7
100
AcDbPolyline
 90
2
 70
0
 10
2485.870320
 20
1488.665588
 30
0.0
 10
2485.870320
 20
1488.665588
 30
0.0
  0
SPLINE
  5
403
100
AcDbEntity
  8
Default
 62
7
100
AcDbSpline
 70
8
 71
3
 72
8
 73
4
 74
0
 40
0
 40
0
 40
0
 40
0
 40
1
 40
1
 40
1
 40
1
 10
2831.599280
 20
1558.856692
 30
0.0
 10
2733.902880
 20
1533.286580
 30
0.0
 10
2634.038960
 20
1511.255100
 30
0.0
 10
2534.273280
 20
1495.698836
 30
0.0
  0
SPLINE
  5
404
100
AcDbEntity
  8
Default
 62
7
100
AcDbSpline
 70
8
 71
3
 72
8
 73
4
 74
0
 40
0
 40
0
 40
0
 40
0
 40
1
 40
1
 40
1
 40
1
 10
2534.273280
 20
1495.698836
 30
0.0
 10
2518.109760
 20
1493.178476
 30
0.0
 10
2501.980640
 20
1490.831868
 30
0.0
 10
2485.870320
 20
1488.665588
 30
0.0
  0
LWPOLYLINE
  5
405
100
AcDbEntity
  8
Default
 62
7
100
AcDbPolyline
 90
2
 70
0
 10
2380.308640
 20
1477.112388
 30
0.0
 10
2380.308640
 20
1477.112388
 30
0.0
  0
SPLINE
  5
406
100
AcDbEntity
  8
Default
 62
7
100
AcDbSpline
 70
8
 71
3
 72
8
 73
4
 74
0
 40
0
 40
0
 40
0
 40
0
 40
1
 40
1
 40
1
 40
1
 10
2485.870320
 20
1488.665588
 30
0.0
 10
2501.980640
 20
1490.831868
 30
0.0
 10
2518.109760
 20
1493.178476
 30
0.0
 10
2534.273280
 20
1495.698836
 30
0.0
  0
SPLINE
  5
407
100
AcDbEntity
  8
Default
 62
7
100
AcDbSpline
 70
8
 71
3
 72
8
 73
4
 74
0
 40
0
 40
0
 40
0
 40
0
 40
1
 40
1
 40
1
 40
1
 10
2534.273280
 20
1495.698836
 30
0.0
 10
2634.038960
 20
1511.255100
 30
0.0
 10
2733.902880
 20
1533.286580
 30
0.0
 10
2831.599280
 20
1558.856692
 30
0.0
  0
LWPOLYLINE
  5
408
100
AcDbEntity
  8
Default
 62
7
100
AcDbPolyline
 90
2
 70
0
 10
2831.599280
 20
1558.856692
 30
0.0
 10
2831.599280
 20
1558.856692
 30
0.0
  0
SPLINE
  5
409
100
AcDbEntity
  8
Default
 62
7
100
AcDbSpline
 70
8
 71
3
 72
8
 73
4
 74
0
 40
0
 40
0
 40
0
 40
0
 40
1
 40
1
 40
1
 40
1
 10
2831.599280
 20
1558.856692
 30
0.0
 10
2831.347200
 20
1556.542124
 30
0.0
 10
2831.094080
 20
1554.227900
 30
0.0
 10
2830.839760
 20
1551.914036
 30
0.0
  0
SPLINE
  5
40a
100
AcDbEntity
  8
Default
 62
7
100
AcDbSpline
 70
8
 71
3
 72
8
 73
4
 74
0
 40
0
 40
0
 40
0
 40
0
 40
1
 40
1
 40
1
 40
1
 10
2830.839760
 20
1551.914036
 30
0.0
 10
2827.664560
 20
1523.023076
 30
0.0
 10
2824.311920
 20
1494.153868
 30
0.0
 10
2820.804400
 20
1465.306244
 30
0.0
  0
SPLINE
  5
40b
100
AcDbEntity
  8
Default
 62
7
100
AcDbSpline
 70
8
 71
3
 72
8
 73
4
 74
0
 40
0
 40
0
 40
0
 40
0
 40
1
 40
1
 40
1
 40
1
 10
2820.804400
 20
1465.306244
 30
0.0
 10
2817.296800
 20
1436.457828
 30
0.0
 10
2813.633760
 20
1407.627420
 30
0.0
 10
2809.838080
 20
1378.813356
 30
0.0
  0
SPLINE
  5
40c
100
AcDbEntity
  8
Default
 62
7
100
AcDbSpline
 70
8
 71
3
 72
8
 73
4
 74
0
 40
0
 40
0
 40
0
 40
0
 40
1
 40
1
 40
1
 40
1
 10
2809.838080
 20
1378.813356
 30
0.0
 10
2802.312560
 20
1321.686108
 30
0.0
 10
2794.262400
 20
1264.609500
 30
0.0
 10
2785.874800
 20
1207.563388
 30
0.0
  0
SPLINE
  5
40d
100
AcDbEntity
  8
Default
 62
7
100
AcDbSpline
 70
8
 71
3
 72
8
 73
4
 74
0
 40
0
 40
0
 40
0
 40
0
 40
1
 40
1
 40
1
 40
1
 10
2785.874800
 20
1207.563388
 30
0.0
 10
2780.166160
 20
1168.736836
 30
0.0
 10
2774.299840
 20
1129.917116
 30
0.0
 10
2768.342720
 20
1091.097004
 30
0.0
  0
LWPOLYLINE
  5
40e
100
AcDbEntity
  8
Default
 62
7
100
AcDbPolyline
 90
2
 70
0
 10
2485.870320
 20
1488.665588
 30
0.0
 10
2485.870320
 20
1488.665588
 30
0.0
  0
SPLINE
  5
40f
100
AcDbEntity
  8
Default
 62
7
100
AcDbSpline
 70
8
 71
3
 72
8
 73
4
 74
0
 40
0
 40
0
 40
0
 40
0
 40
1
 40
1
 40
1
 40
1
 10
2768.342720
 20
1091.097004
 30
0.0
 10
2774.299840
 20
1129.917116
 30
0.0
 10
2780.166160
 20
1168.736836
 30
0.0
 10
2785.874800
 20
1207.563388
 30
0.0
  0
SPLINE
  5
410
100
AcDbEntity
  8
Default
 62
7
100
AcDbSpline
 70
8
 71
3
 72
8
 73
4
 74
0
 40
0
 40
0
 40
0
 40
0
 40
1
 40
1
 40
1
 40
1
 10
2785.874800
 20
1207.563388
 30
0.0
 10
2794.262400
 20
1264.609500
 30
0.0
 10
2802.312560
 20
1321.686108
 30
0.0
 10
2809.838080
 20
1378.813356
 30
0.0
  0
SPLINE
  5
411
100
AcDbEntity
  8
Default
 62
7
100
AcDbSpline
 70
8
 71
3
 72
8
 73
4
 74
0
 40
0
 40
0
 40
0
 40
0
 40
1
 40
1
 40
1
 40
1
 10
2809.838080
 20
1378.813356
 30
0.0
 10
2813.633760
 20
1407.627420
 30
0.0
 10
2817.296800
 20
1436.457828
 30
0.0
 10
2820.804400
 20
1465.306244
 30
0.0
  0
SPLINE
  5
412
100
AcDbEntity
  8
Default
 62
7
100
AcDbSpline
 70
8
 71
3
 72
8
 73
4
 74
0
 40
0
 40
0
 40
0
 40
0
 40
1
 40
1
 40
1
 40
1
 10
2820.804400
 20
1465.306244
 30
0.0
 10
2824.311920
 20
1494.153868
 30
0.0
 10
2827.664560
 20
1523.023076
 30
0.0
 10
2830.839760
 20
1551.914036
 30
0.0
  0
SPLINE
  5
413
100
AcDbEntity
  8
Default
 62
7
100
AcDbSpline
 70
8
 71
3
 72
8
 73
4
 74
0
 40
0
 40
0
 40
0
 40
0
 40
1
 40
1
 40
1
 40
1
 10
2830.839760
 20
1551.914036
 30
0.0
 10
2831.094080
 20
1554.227900
 30
0.0
 10
2831.347200
 20
1556.542124
 30
0.0
 10
2831.599280
 20
1558.856692
 30
0.0
  0
LWPOLYLINE
  5
414
100
AcDbEntity
  8
Default
 62
7
100
AcDbPolyline
 90
2
 70
0
 10
2534.273280
 20
1495.698836
 30
0.0
 10
2534.273280
 20
1495.698836
 30
0.0
  0
SPLINE
  5
415
100
AcDbEntity
  8
Default
 62
7
100
AcDbSpline
 70
8
 71
3
 72
8
 73
4
 74
0
 40
0
 40
0
 40
0
 40
0
 40
1
 40
1
 40
1
 40
1
 10
2831.599280
 20
1558.856692
 30
0.0
 10
2831.347200
 20
1556.542124
 30
0.0
 10
2831.094080
 20
1554.227900
 30
0.0
 10
2830.839760
 20
1551.914036
 30
0.0
  0
SPLINE
  5
416
100
AcDbEntity
  8
Default
 62
7
100
AcDbSpline
 70
8
 71
3
 72
8
 73
4
 74
0
 40
0
 40
0
 40
0
 40
0
 40
1
 40
1
 40
1
 40
1
 10
2830.839760
 20
1551.914036
 30
0.0
 10
2827.664560
 20
1523.023076
 30
0.0
 10
2824.311920
 20
1494.153868
 30
0.0
 10
2820.804400
 20
1465.306244
 30
0.0
  0
SPLINE
  5
417
100
AcDbEntity
  8
Default
 62
7
100
AcDbSpline
 70
8
 71
3
 72
8
 73
4
 74
0
 40
0
 40
0
 40
0
 40
0
 40
1
 40
1
 40
1
 40
1
 10
2820.804400
 20
1465.306244
 30
0.0
 10
2817.296800
 20
1436.457828
 30
0.0
 10
2813.633760
 20
1407.627420
 30
0.0
 10
2809.838080
 20
1378.813356
 30
0.0
  0
SPLINE
  5
418
100
AcDbEntity
  8
Default
 62
7
100
AcDbSpline
 70
8
 71
3
 72
8
 73
4
 74
0
 40
0
 40
0
 40
0
 40
0
 40
1
 40
1
 40
1
 40
1
 10
2809.838080
 20
1378.813356
 30
0.0
 10
2802.312560
 20
1321.686108
 30
0.0
 10
2794.262400
 20
1264.609500
 30
0.0
 10
2785.874800
 20
1207.563388
 30
0.0
  0
SPLINE
  5
419
100
AcDbEntity
  8
Default
 62
7
100
AcDbSpline
 70
8
 71
3
 72
8
 73
4
 74
0
 40
0
 40
0
 40
0
 40
0
 40
1
 40
1
 40
1
 40
1
 10
2785.874800
 20
1207.563388
 30
0.0
 10
2780.166160
 20
1168.736836
 30
0.0
 10
2774.299840
 20
1129.917116
 30
0.0
 10
2768.342720
 20
1091.097004
 30
0.0
  0
LWPOLYLINE
  5
41a
100
AcDbEntity
  8
Default
 62
7
100
AcDbPolyline
 90
2
 70
0
 10
2768.342720
 20
1091.097004
 30
0.0
 10
2768.342720
 20
1091.097004
 30
0.0
  0
LWPOLYLINE
  5
41b
100
AcDbEntity
  8
Default
 62
7
100
AcDbPolyline
 90
2
 70
0
 10
2831.599280
 20
1558.856692
 30
0.0
 10
2831.599280
 20
1558.856692
 30
0.0
  0
LWPOLYLINE
  5
41c
100
AcDbEntity
  8
Default
 62
7
100
AcDbPolyline
 90
2
 70
0
 10
2830.839760
 20
1551.914036
 30
0.0
 10
2830.839760
 20
1551.914036
 30
0.0
  0
LWPOLYLINE
  5
41d
100
AcDbEntity
  8
Default
 62
7
100
AcDbPolyline
 90
2
 70
0
 10
2820.804400
 20
1465.306244
 30
0.0
 10
2820.804400
 20
1465.306244
 30
0.0
  0
SPLINE
  5
41e
100
AcDbEntity
  8
Default
 62
7
100
AcDbSpline
 70
8
 71
3
 72
8
 73
4
 74
0
 40
0
 40
0
 40
0
 40
0
 40
1
 40
1
 40
1
 40
1
 10
2221.431360
 20
1018.593732
 30
0.0
 10
2327.068000
 20
1018.607332
 30
0.0
 10
2429.950960
 20
1027.636044
 30
0.0
 10
2534.264480
 20
1043.901036
 30
0.0
  0
SPLINE
  5
41f
100
AcDbEntity
  8
Default
 62
7
100
AcDbSpline
 70
8
 71
3
 72
8
 73
4
 74
0
 40
0
 40
0
 40
0
 40
0
 40
1
 40
1
 40
1
 40
1
 10
2534.264480
 20
1043.901036
 30
0.0
 10
2612.594960
 20
1056.114668
 30
0.0
 10
2690.985920
 20
1072.319900
 30
0.0
 10
2768.342720
 20
1091.097004
 30
0.0
  0
LWPOLYLINE
  5
420
100
AcDbEntity
  8
Default
 62
7
100
AcDbPolyline
 90
2
 70
0
 10
2809.838080
 20
1378.813356
 30
0.0
 10
2809.838080
 20
1378.813356
 30
0.0
  0
SPLINE
  5
421
100
AcDbEntity
  8
Default
 62
7
100
AcDbSpline
 70
8
 71
3
 72
8
 73
4
 74
0
 40
0
 40
0
 40
0
 40
0
 40
1
 40
1
 40
1
 40
1
 10
2768.342720
 20
1091.097004
 30
0.0
 10
2690.985920
 20
1072.319900
 30
0.0
 10
2612.594960
 20
1056.114668
 30
0.0
 10
2534.264480
 20
1043.901036
 30
0.0
  0
SPLINE
  5
422
100
AcDbEntity
  8
Default
 62
7
100
AcDbSpline
 70
8
 71
3
 72
8
 73
4
 74
0
 40
0
 40
0
 40
0
 40
0
 40
1
 40
1
 40
1
 40
1
 10
2534.264480
 20
1043.901036
 30
0.0
 10
2429.950960
 20
1027.636044
 30
0.0
 10
2327.068000
 20
1018.606588
 30
0.0
 10
2221.431360
 20
1018.593732
 30
0.0
  0
LWPOLYLINE
  5
423
100
AcDbEntity
  8
Default
 62
7
100
AcDbPolyline
 90
2
 70
0
 10
2785.874800
 20
1207.563388
 30
0.0
 10
2785.874800
 20
1207.563388
 30
0.0
  0
SPLINE
  5
424
100
AcDbEntity
  8
Default
 62
7
100
AcDbSpline
 70
8
 71
3
 72
8
 73
4
 74
0
 40
0
 40
0
 40
0
 40
0
 40
1
 40
1
 40
1
 40
1
 10
2221.431360
 20
1018.593732
 30
0.0
 10
2327.068000
 20
1018.607332
 30
0.0
 10
2429.950960
 20
1027.636044
 30
0.0
 10
2534.264480
 20
1043.901036
 30
0.0
  0
SPLINE
  5
425
100
AcDbEntity
  8
Default
 62
7
100
AcDbSpline
 70
8
 71
3
 72
8
 73
4
 74
0
 40
0
 40
0
 40
0
 40
0
 40
1
 40
1
 40
1
 40
1
 10
2534.264480
 20
1043.901036
 30
0.0
 10
2612.594960
 20
1056.114668
 30
0.0
 10
2690.985920
 20
1072.319900
 30
0.0
 10
2768.342720
 20
1091.097004
 30
0.0
  0
LWPOLYLINE
  5
426
100
AcDbEntity
  8
Default
 62
7
100
AcDbPolyline
 90
2
 70
0
 10
2768.342720
 20
1091.097004
 30
0.0
 10
2768.342720
 20
1091.097004
 30
0.0
  0
SPLINE
  5
427
100
AcDbEntity
  8
Default
 62
7
100
AcDbSpline
 70
8
 71
3
 72
8
 73
4
 74
0
 40
0
 40
0
 40
0
 40
0
 40
1
 40
1
 40
1
 40
1
 10
1674.520640
 20
1091.092788
 30
0.0
 10
1751.875760
 20
1072.308092
 30
0.0
 10
1830.262720
 20
1056.086452
 30
0.0
 10
1908.593120
 20
1043.866500
 30
0.0
  0
SPLINE
  5
428
100
AcDbEntity
  8
Default
 62
7
100
AcDbSpline
 70
8
 71
3
 72
8
 73
4
 74
0
 40
0
 40
0
 40
0
 40
0
 40
1
 40
1
 40
1
 40
1
 10
1908.593120
 20
1043.866500
 30
0.0
 10
2012.933040
 20
1027.588948
 30
0.0
 10
2115.767120
 20
1018.580876
 30
0.0
 10
2221.431360
 20
1018.593732
 30
0.0
  0
LWPOLYLINE
  5
429
100
AcDbEntity
  8
Default
 62
7
100
AcDbPolyline
 90
2
 70
0
 10
2221.431360
 20
1018.593732
 30
0.0
 10
2221.431360
 20
1018.593732
 30
0.0
  0
SPLINE
  5
42a
100
AcDbEntity
  8
Default
 62
7
100
AcDbSpline
 70
8
 71
3
 72
8
 73
4
 74
0
 40
0
 40
0
 40
0
 40
0
 40
1
 40
1
 40
1
 40
1
 10
2221.431360
 20
1018.593732
 30
0.0
 10
2115.767120
 20
1018.580132
 30
0.0
 10
2012.933040
 20
1027.588948
 30
0.0
 10
1908.593120
 20
1043.866500
 30
0.0
  0
SPLINE
  5
42b
100
AcDbEntity
  8
Default
 62
7
100
AcDbSpline
 70
8
 71
3
 72
8
 73
4
 74
0
 40
0
 40
0
 40
0
 40
0
 40
1
 40
1
 40
1
 40
1
 10
1908.593120
 20
1043.866500
 30
0.0
 10
1830.262720
 20
1056.086452
 30
0.0
 10
1751.875760
 20
1072.308092
 30
0.0
 10
1674.520640
 20
1091.092788
 30
0.0
  0
LWPOLYLINE
  5
42c
100
AcDbEntity
  8
Default
 62
7
100
AcDbPolyline
 90
2
 70
0
 10
2534.264480
 20
1043.901036
 30
0.0
 10
2534.264480
 20
1043.901036
 30
0.0
  0
SPLINE
  5
42d
100
AcDbEntity
  8
Default
 62
7
100
AcDbSpline
 70
8
 71
3
 72
8
 73
4
 74
0
 40
0
 40
0
 40
0
 40
0
 40
1
 40
1
 40
1
 40
1
 10
1674.520640
 20
1091.092788
 30
0.0
 10
1751.875760
 20
1072.308092
 30
0.0
 10
1830.262720
 20
1056.086452
 30
0.0
 10
1908.593120
 20
1043.866500
 30
0.0
  0
SPLINE
  5
42e
100
AcDbEntity
  8
Default
 62
7
100
AcDbSpline
 70
8
 71
3
 72
8
 73
4
 74
0
 40
0
 40
0
 40
0
 40
0
 40
1
 40
1
 40
1
 40
1
 10
1908.593120
 20
1043.866500
 30
0.0
 10
2012.933040
 20
1027.588948
 30
0.0
 10
2115.767120
 20
1018.580876
 30
0.0
 10
2221.431360
 20
1018.593732
 30
0.0
  0
LWPOLYLINE
  5
42f
100
AcDbEntity
  8
Default
 62
7
100
AcDbPolyline
 90
2
 70
0
 10
2221.431360
 20
1018.593732
 30
0.0
 10
2221.431360
 20
1018.593732
 30
0.0
  0
SPLINE
  5
430
100
AcDbEntity
  8
Default
 62
7
100
AcDbSpline
 70
8
 71
3
 72
8
 73
4
 74
0
 40
0
 40
0
 40
0
 40
0
 40
1
 40
1
 40
1
 40
1
 10
1682.778320
 20
1037.612868
 30
0.0
 10
1682.839120
 20
1037.220796
 30
0.0
 10
1682.900080
 20
1036.828732
 30
0.0
 10
1682.960880
 20
1036.436692
 30
0.0
  0
SPLINE
  5
431
100
AcDbEntity
  8
Default
 62
7
100
AcDbSpline
 70
8
 71
3
 72
8
 73
4
 74
0
 40
0
 40
0
 40
0
 40
0
 40
1
 40
1
 40
1
 40
1
 10
1682.960880
 20
1036.436692
 30
0.0
 10
1691.830240
 20
979.312388
 30
0.0
 10
1700.793680
 20
922.401844
 30
0.0
 10
1709.683600
 20
865.208377
 30
0.0
  0
SPLINE
  5
432
100
AcDbEntity
  8
Default
 62
7
100
AcDbSpline
 70
8
 71
3
 72
8
 73
4
 74
0
 40
0
 40
0
 40
0
 40
0
 40
1
 40
1
 40
1
 40
1
 10
1709.683600
 20
865.208377
 30
0.0
 10
1718.567280
 20
808.055094
 30
0.0
 10
1727.324160
 20
750.959212
 30
0.0
 10
1735.723280
 20
693.671084
 30
0.0
  0
SPLINE
  5
433
100
AcDbEntity
  8
Default
 62
7
100
AcDbSpline
 70
8
 71
3
 72
8
 73
4
 74
0
 40
0
 40
0
 40
0
 40
0
 40
1
 40
1
 40
1
 40
1
 10
1735.723280
 20
693.671084
 30
0.0
 10
1744.131520
 20
636.320444
 30
0.0
 10
1752.133600
 20
579.097228
 30
0.0
 10
1759.515840
 20
521.566796
 30
0.0
  0
SPLINE
  5
434
100
AcDbEntity
  8
Default
 62
7
100
AcDbSpline
 70
8
 71
3
 72
8
 73
4
 74
0
 40
0
 40
0
 40
0
 40
0
 40
1
 40
1
 40
1
 40
1
 10
1759.515840
 20
521.566796
 30
0.0
 10
1760.493440
 20
513.948180
 30
0.0
 10
1761.458480
 20
506.337516
 30
0.0
 10
1762.410720
 20
498.732324
 30
0.0
  0
LWPOLYLINE
  5
435
100
AcDbEntity
  8
Default
 62
7
100
AcDbPolyline
 90
2
 70
0
 10
1674.520640
 20
1091.092788
 30
0.0
 10
1674.520640
 20
1091.092788
 30
0.0
  0
SPLINE
  5
436
100
AcDbEntity
  8
Default
 62
7
100
AcDbSpline
 70
8
 71
3
 72
8
 73
4
 74
0
 40
0
 40
0
 40
0
 40
0
 40
1
 40
1
 40
1
 40
1
 10
1762.410800
 20
498.732324
 30
0.0
 10
1761.458560
 20
506.337516
 30
0.0
 10
1760.493520
 20
513.948180
 30
0.0
 10
1759.515920
 20
521.566796
 30
0.0
  0
SPLINE
  5
437
100
AcDbEntity
  8
Default
 62
7
100
AcDbSpline
 70
8
 71
3
 72
8
 73
4
 74
0
 40
0
 40
0
 40
0
 40
0
 40
1
 40
1
 40
1
 40
1
 10
1759.515920
 20
521.566796
 30
0.0
 10
1752.133600
 20
579.097228
 30
0.0
 10
1744.131520
 20
636.320444
 30
0.0
 10
1735.723360
 20
693.671084
 30
0.0
  0
SPLINE
  5
438
100
AcDbEntity
  8
Default
 62
7
100
AcDbSpline
 70
8
 71
3
 72
8
 73
4
 74
0
 40
0
 40
0
 40
0
 40
0
 40
1
 40
1
 40
1
 40
1
 10
1735.723360
 20
693.671084
 30
0.0
 10
1727.324240
 20
750.959212
 30
0.0
 10
1718.567360
 20
808.055094
 30
0.0
 10
1709.683680
 20
865.208377
 30
0.0
  0
SPLINE
  5
439
100
AcDbEntity
  8
Default
 62
7
100
AcDbSpline
 70
8
 71
3
 72
8
 73
4
 74
0
 40
0
 40
0
 40
0
 40
0
 40
1
 40
1
 40
1
 40
1
 10
1709.683680
 20
865.208377
 30
0.0
 10
1700.793680
 20
922.401844
 30
0.0
 10
1691.830320
 20
979.312388
 30
0.0
 10
1682.960880
 20
1036.436692
 30
0.0
  0
SPLINE
  5
43a
100
AcDbEntity
  8
Default
 62
7
100
AcDbSpline
 70
8
 71
3
 72
8
 73
4
 74
0
 40
0
 40
0
 40
0
 40
0
 40
1
 40
1
 40
1
 40
1
 10
1682.960880
 20
1036.436692
 30
0.0
 10
1682.900080
 20
1036.828732
 30
0.0
 10
1682.839120
 20
1037.220796
 30
0.0
 10
1682.778400
 20
1037.612868
 30
0.0
  0
LWPOLYLINE
  5
43b
100
AcDbEntity
  8
Default
 62
7
100
AcDbPolyline
 90
2
 70
0
 10
1908.593120
 20
1043.866500
 30
0.0
 10
1908.593120
 20
1043.866500
 30
0.0
  0
SPLINE
  5
43c
100
AcDbEntity
  8
Default
 62
7
100
AcDbSpline
 70
8
 71
3
 72
8
 73
4
 74
0
 40
0
 40
0
 40
0
 40
0
 40
1
 40
1
 40
1
 40
1
 10
1682.778320
 20
1037.612868
 30
0.0
 10
1682.839120
 20
1037.220796
 30
0.0
 10
1682.900080
 20
1036.828732
 30
0.0
 10
1682.960880
 20
1036.436692
 30
0.0
  0
SPLINE
  5
43d
100
AcDbEntity
  8
Default
 62
7
100
AcDbSpline
 70
8
 71
3
 72
8
 73
4
 74
0
 40
0
 40
0
 40
0
 40
0
 40
1
 40
1
 40
1
 40
1
 10
1682.960880
 20
1036.436692
 30
0.0
 10
1691.830240
 20
979.312388
 30
0.0
 10
1700.793680
 20
922.401844
 30
0.0
 10
1709.683600
 20
865.208377
 30
0.0
  0
SPLINE
  5
43e
100
AcDbEntity
  8
Default
 62
7
100
AcDbSpline
 70
8
 71
3
 72
8
 73
4
 74
0
 40
0
 40
0
 40
0
 40
0
 40
1
 40
1
 40
1
 40
1
 10
1709.683600
 20
865.208377
 30
0.0
 10
1718.567280
 20
808.055094
 30
0.0
 10
1727.324160
 20
750.959212
 30
0.0
 10
1735.723280
 20
693.671084
 30
0.0
  0
SPLINE
  5
43f
100
AcDbEntity
  8
Default
 62
7
100
AcDbSpline
 70
8
 71
3
 72
8
 73
4
 74
0
 40
0
 40
0
 40
0
 40
0
 40
1
 40
1
 40
1
 40
1
 10
1735.723280
 20
693.671084
 30
0.0
 10
1744.131520
 20
636.320444
 30
0.0
 10
1752.133600
 20
579.097228
 30
0.0
 10
1759.515840
 20
521.566796
 30
0.0
  0
SPLINE
  5
440
100
AcDbEntity
  8
Default
 62
7
100
AcDbSpline
 70
8
 71
3
 72
8
 73
4
 74
0
 40
0
 40
0
 40
0
 40
0
 40
1
 40
1
 40
1
 40
1
 10
1759.515840
 20
521.566796
 30
0.0
 10
1760.493440
 20
513.948180
 30
0.0
 10
1761.458480
 20
506.337516
 30
0.0
 10
1762.410720
 20
498.732324
 30
0.0
  0
LWPOLYLINE
  5
441
100
AcDbEntity
  8
Default
 62
7
100
AcDbPolyline
 90
2
 70
0
 10
1762.410800
 20
498.732324
 30
0.0
 10
1762.410800
 20
498.732324
 30
0.0
  0
LWPOLYLINE
  5
442
100
AcDbEntity
  8
Default
 62
7
100
AcDbPolyline
 90
2
 70
0
 10
1682.778320
 20
1037.612868
 30
0.0
 10
1682.778320
 20
1037.612868
 30
0.0
  0
LWPOLYLINE
  5
443
100
AcDbEntity
  8
Default
 62
7
100
AcDbPolyline
 90
2
 70
0
 10
1682.960880
 20
1036.436692
 30
0.0
 10
1682.960880
 20
1036.436692
 30
0.0
  0
LWPOLYLINE
  5
444
100
AcDbEntity
  8
Default
 62
7
100
AcDbPolyline
 90
2
 70
0
 10
1709.683680
 20
865.208377
 30
0.0
 10
1709.683680
 20
865.208377
 30
0.0
  0
SPLINE
  5
445
100
AcDbEntity
  8
Default
 62
7
100
AcDbSpline
 70
8
 71
3
 72
8
 73
4
 74
0
 40
0
 40
0
 40
0
 40
0
 40
1
 40
1
 40
1
 40
1
 10
1682.778320
 20
1037.612868
 30
0.0
 10
1757.452800
 20
1019.673436
 30
0.0
 10
1833.050480
 20
1004.165908
 30
0.0
 10
1908.595280
 20
992.380604
 30
0.0
  0
SPLINE
  5
446
100
AcDbEntity
  8
Default
 62
7
100
AcDbSpline
 70
8
 71
3
 72
8
 73
4
 74
0
 40
0
 40
0
 40
0
 40
0
 40
1
 40
1
 40
1
 40
1
 10
1908.595280
 20
992.380604
 30
0.0
 10
1935.385520
 20
988.201228
 30
0.0
 10
1962.076400
 20
984.501084
 30
0.0
 10
1988.741440
 20
981.309836
 30
0.0
  0
LWPOLYLINE
  5
447
100
AcDbEntity
  8
Default
 62
7
100
AcDbPolyline
 90
2
 70
0
 10
1735.723360
 20
693.671084
 30
0.0
 10
1735.723360
 20
693.671084
 30
0.0
  0
SPLINE
  5
448
100
AcDbEntity
  8
Default
 62
7
100
AcDbSpline
 70
8
 71
3
 72
8
 73
4
 74
0
 40
0
 40
0
 40
0
 40
0
 40
1
 40
1
 40
1
 40
1
 10
1988.741440
 20
981.309836
 30
0.0
 10
1962.076400
 20
984.501084
 30
0.0
 10
1935.385520
 20
988.201228
 30
0.0
 10
1908.595280
 20
992.380604
 30
0.0
  0
SPLINE
  5
449
100
AcDbEntity
  8
Default
 62
7
100
AcDbSpline
 70
8
 71
3
 72
8
 73
4
 74
0
 40
0
 40
0
 40
0
 40
0
 40
1
 40
1
 40
1
 40
1
 10
1908.595280
 20
992.380604
 30
0.0
 10
1833.050480
 20
1004.165908
 30
0.0
 10
1757.452800
 20
1019.673436
 30
0.0
 10
1682.778320
 20
1037.612868
 30
0.0
  0
LWPOLYLINE
  5
44a
100
AcDbEntity
  8
Default
 62
7
100
AcDbPolyline
 90
2
 70
0
 10
1759.515920
 20
521.566796
 30
0.0
 10
1759.515920
 20
521.566796
 30
0.0
  0
SPLINE
  5
44b
100
AcDbEntity
  8
Default
 62
7
100
AcDbSpline
 70
8
 71
3
 72
8
 73
4
 74
0
 40
0
 40
0
 40
0
 40
0
 40
1
 40
1
 40
1
 40
1
 10
1682.778320
 20
1037.612868
 30
0.0
 10
1757.452800
 20
1019.673436
 30
0.0
 10
1833.050480
 20
1004.165908
 30
0.0
 10
1908.595280
 20
992.380604
 30
0.0
  0
SPLINE
  5
44c
100
AcDbEntity
  8
Default
 62
7
100
AcDbSpline
 70
8
 71
3
 72
8
 73
4
 74
0
 40
0
 40
0
 40
0
 40
0
 40
1
 40
1
 40
1
 40
1
 10
1908.595280
 20
992.380604
 30
0.0
 10
1935.385520
 20
988.201228
 30
0.0
 10
1962.076400
 20
984.501084
 30
0.0
 10
1988.741440
 20
981.309836
 30
0.0
  0
LWPOLYLINE
  5
44d
100
AcDbEntity
  8
Default
 62
7
100
AcDbPolyline
 90
2
 70
0
 10
1988.741440
 20
981.309836
 30
0.0
 10
1988.741440
 20
981.309836
 30
0.0
  0
SPLINE
  5
44e
100
AcDbEntity
  8
Default
 62
7
100
AcDbSpline
 70
8
 71
3
 72
8
 73
4
 74
0
 40
0
 40
0
 40
0
 40
0
 40
1
 40
1
 40
1
 40
1
 10
2221.431360
 20
967.108172
 30
0.0
 10
2168.429040
 20
967.103372
 30
0.0
 10
2115.501760
 20
969.379516
 30
0.0
 10
2062.567360
 20
973.797164
 30
0.0
  0
SPLINE
  5
44f
100
AcDbEntity
  8
Default
 62
7
100
AcDbSpline
 70
8
 71
3
 72
8
 73
4
 74
0
 40
0
 40
0
 40
0
 40
0
 40
1
 40
1
 40
1
 40
1
 10
2062.567360
 20
973.797164
 30
0.0
 10
2037.951120
 20
975.851516
 30
0.0
 10
2013.342400
 20
978.367612
 30
0.0
 10
1988.741440
 20
981.309796
 30
0.0
  0
LWPOLYLINE
  5
450
100
AcDbEntity
  8
Default
 62
7
100
AcDbPolyline
 90
2
 70
0
 10
1682.778320
 20
1037.612868
 30
0.0
 10
1682.778320
 20
1037.612868
 30
0.0
  0
SPLINE
  5
451
100
AcDbEntity
  8
Default
 62
7
100
AcDbSpline
 70
8
 71
3
 72
8
 73
4
 74
0
 40
0
 40
0
 40
0
 40
0
 40
1
 40
1
 40
1
 40
1
 10
1988.741440
 20
981.309796
 30
0.0
 10
2013.342400
 20
978.367612
 30
0.0
 10
2037.951120
 20
975.851516
 30
0.0
 10
2062.567360
 20
973.797164
 30
0.0
  0
SPLINE
  5
452
100
AcDbEntity
  8
Default
 62
7
100
AcDbSpline
 70
8
 71
3
 72
8
 73
4
 74
0
 40
0
 40
0
 40
0
 40
0
 40
1
 40
1
 40
1
 40
1
 10
2062.567360
 20
973.797164
 30
0.0
 10
2115.501760
 20
969.379516
 30
0.0
 10
2168.429040
 20
967.102820
 30
0.0
 10
2221.431360
 20
967.108172
 30
0.0
  0
LWPOLYLINE
  5
453
100
AcDbEntity
  8
Default
 62
7
100
AcDbPolyline
 90
2
 70
0
 10
1908.595280
 20
992.380604
 30
0.0
 10
1908.595280
 20
992.380604
 30
0.0
  0
SPLINE
  5
454
100
AcDbEntity
  8
Default
 62
7
100
AcDbSpline
 70
8
 71
3
 72
8
 73
4
 74
0
 40
0
 40
0
 40
0
 40
0
 40
1
 40
1
 40
1
 40
1
 10
2221.431360
 20
967.108172
 30
0.0
 10
2168.429040
 20
967.103372
 30
0.0
 10
2115.501760
 20
969.379516
 30
0.0
 10
2062.567360
 20
973.797164
 30
0.0
  0
SPLINE
  5
455
100
AcDbEntity
  8
Default
 62
7
100
AcDbSpline
 70
8
 71
3
 72
8
 73
4
 74
0
 40
0
 40
0
 40
0
 40
0
 40
1
 40
1
 40
1
 40
1
 10
2062.567360
 20
973.797164
 30
0.0
 10
2037.951120
 20
975.851516
 30
0.0
 10
2013.342400
 20
978.367612
 30
0.0
 10
1988.741440
 20
981.309796
 30
0.0
  0
LWPOLYLINE
  5
456
100
AcDbEntity
  8
Default
 62
7
100
AcDbPolyline
 90
2
 70
0
 10
1988.741440
 20
981.309796
 30
0.0
 10
1988.741440
 20
981.309796
 30
0.0
  0
LWPOLYLINE
  5
457
100
AcDbEntity
  8
Default
 62
7
100
AcDbPolyline
 90
2
 70
0
 10
2221.431360
 20
967.108172
 30
0.0
 10
2221.431360
 20
967.108172
 30
0.0
  0
SPLINE
  5
458
100
AcDbEntity
  8
Default
 62
7
100
AcDbSpline
 70
8
 71
3
 72
8
 73
4
 74
0
 40
0
 40
0
 40
0
 40
0
 40
1
 40
1
 40
1
 40
1
 10
2454.123920
 20
981.347756
 30
0.0
 10
2429.522000
 20
978.404756
 30
0.0
 10
2404.912480
 20
975.886780
 30
0.0
 10
2380.295280
 20
973.829276
 30
0.0
  0
SPLINE
  5
459
100
AcDbEntity
  8
Default
 62
7
100
AcDbSpline
 70
8
 71
3
 72
8
 73
4
 74
0
 40
0
 40
0
 40
0
 40
0
 40
1
 40
1
 40
1
 40
1
 10
2380.295280
 20
973.829276
 30
0.0
 10
2327.348000
 20
969.403940
 30
0.0
 10
2274.407760
 20
967.114612
 30
0.0
 10
2221.431360
 20
967.108172
 30
0.0
  0
LWPOLYLINE
  5
45a
100
AcDbEntity
  8
Default
 62
7
100
AcDbPolyline
 90
2
 70
0
 10
2221.392480
 20
967.108172
 30
0.0
 10
2221.392480
 20
967.108172
 30
0.0
  0
SPLINE
  5
45b
100
AcDbEntity
  8
Default
 62
7
100
AcDbSpline
 70
8
 71
3
 72
8
 73
4
 74
0
 40
0
 40
0
 40
0
 40
0
 40
1
 40
1
 40
1
 40
1
 10
2221.431360
 20
967.108172
 30
0.0
 10
2274.407760
 20
967.115372
 30
0.0
 10
2327.348000
 20
969.403940
 30
0.0
 10
2380.295280
 20
973.829276
 30
0.0
  0
SPLINE
  5
45c
100
AcDbEntity
  8
Default
 62
7
100
AcDbSpline
 70
8
 71
3
 72
8
 73
4
 74
0
 40
0
 40
0
 40
0
 40
0
 40
1
 40
1
 40
1
 40
1
 10
2380.295280
 20
973.829276
 30
0.0
 10
2404.912480
 20
975.886780
 30
0.0
 10
2429.522000
 20
978.404756
 30
0.0
 10
2454.123920
 20
981.347756
 30
0.0
  0
LWPOLYLINE
  5
45d
100
AcDbEntity
  8
Default
 62
7
100
AcDbPolyline
 90
2
 70
0
 10
2062.567360
 20
973.797164
 30
0.0
 10
2062.567360
 20
973.797164
 30
0.0
  0
SPLINE
  5
45e
100
AcDbEntity
  8
Default
 62
7
100
AcDbSpline
 70
8
 71
3
 72
8
 73
4
 74
0
 40
0
 40
0
 40
0
 40
0
 40
1
 40
1
 40
1
 40
1
 10
2454.123920
 20
981.347756
 30
0.0
 10
2429.522000
 20
978.404756
 30
0.0
 10
2404.912480
 20
975.886780
 30
0.0
 10
2380.295280
 20
973.829276
 30
0.0
  0
SPLINE
  5
45f
100
AcDbEntity
  8
Default
 62
7
100
AcDbSpline
 70
8
 71
3
 72
8
 73
4
 74
0
 40
0
 40
0
 40
0
 40
0
 40
1
 40
1
 40
1
 40
1
 10
2380.295280
 20
973.829276
 30
0.0
 10
2327.348000
 20
969.403940
 30
0.0
 10
2274.407760
 20
967.114612
 30
0.0
 10
2221.431360
 20
967.108172
 30
0.0
  0
LWPOLYLINE
  5
460
100
AcDbEntity
  8
Default
 62
7
100
AcDbPolyline
 90
2
 70
0
 10
2221.431360
 20
967.108172
 30
0.0
 10
2221.431360
 20
967.108172
 30
0.0
  0
SPLINE
  5
461
100
AcDbEntity
  8
Default
 62
7
100
AcDbSpline
 70
8
 71
3
 72
8
 73
4
 74
0
 40
0
 40
0
 40
0
 40
0
 40
1
 40
1
 40
1
 40
1
 10
2454.123920
 20
981.347828
 30
0.0
 10
2480.789600
 20
984.539820
 30
0.0
 10
2507.478800
 20
988.238980
 30
0.0
 10
2534.262320
 20
992.415140
 30
0.0
  0
SPLINE
  5
462
100
AcDbEntity
  8
Default
 62
7
100
AcDbSpline
 70
8
 71
3
 72
8
 73
4
 74
0
 40
0
 40
0
 40
0
 40
0
 40
1
 40
1
 40
1
 40
1
 10
2534.262320
 20
992.415140
 30
0.0
 10
2609.807280
 20
1004.194364
 30
0.0
 10
2685.408880
 20
1019.686428
 30
0.0
 10
2760.085200
 20
1037.617988
 30
0.0
  0
LWPOLYLINE
  5
463
100
AcDbEntity
  8
Default
 62
7
100
AcDbPolyline
 90
2
 70
0
 10
2454.123920
 20
981.347756
 30
0.0
 10
2454.123920
 20
981.347756
 30
0.0
  0
SPLINE
  5
464
100
AcDbEntity
  8
Default
 62
7
100
AcDbSpline
 70
8
 71
3
 72
8
 73
4
 74
0
 40
0
 40
0
 40
0
 40
0
 40
1
 40
1
 40
1
 40
1
 10
2760.085200
 20
1037.617988
 30
0.0
 10
2685.408880
 20
1019.686428
 30
0.0
 10
2609.807280
 20
1004.194364
 30
0.0
 10
2534.262320
 20
992.415140
 30
0.0
  0
SPLINE
  5
465
100
AcDbEntity
  8
Default
 62
7
100
AcDbSpline
 70
8
 71
3
 72
8
 73
4
 74
0
 40
0
 40
0
 40
0
 40
0
 40
1
 40
1
 40
1
 40
1
 10
2534.262320
 20
992.415140
 30
0.0
 10
2507.478800
 20
988.238980
 30
0.0
 10
2480.789600
 20
984.539820
 30
0.0
 10
2454.123920
 20
981.347828
 30
0.0
  0
LWPOLYLINE
  5
466
100
AcDbEntity
  8
Default
 62
7
100
AcDbPolyline
 90
2
 70
0
 10
2380.295280
 20
973.829276
 30
0.0
 10
2380.295280
 20
973.829276
 30
0.0
  0
SPLINE
  5
467
100
AcDbEntity
  8
Default
 62
7
100
AcDbSpline
 70
8
 71
3
 72
8
 73
4
 74
0
 40
0
 40
0
 40
0
 40
0
 40
1
 40
1
 40
1
 40
1
 10
2454.123920
 20
981.347828
 30
0.0
 10
2480.789600
 20
984.539820
 30
0.0
 10
2507.478800
 20
988.238980
 30
0.0
 10
2534.262320
 20
992.415140
 30
0.0
  0
SPLINE
  5
468
100
AcDbEntity
  8
Default
 62
7
100
AcDbSpline
 70
8
 71
3
 72
8
 73
4
 74
0
 40
0
 40
0
 40
0
 40
0
 40
1
 40
1
 40
1
 40
1
 10
2534.262320
 20
992.415140
 30
0.0
 10
2609.807280
 20
1004.194364
 30
0.0
 10
2685.408880
 20
1019.686428
 30
0.0
 10
2760.085200
 20
1037.617988
 30
0.0
  0
LWPOLYLINE
  5
469
100
AcDbEntity
  8
Default
 62
7
100
AcDbPolyline
 90
2
 70
0
 10
2760.085200
 20
1037.617988
 30
0.0
 10
2760.085200
 20
1037.617988
 30
0.0
  0
SPLINE
  5
46a
100
AcDbEntity
  8
Default
 62
7
100
AcDbSpline
 70
8
 71
3
 72
8
 73
4
 74
0
 40
0
 40
0
 40
0
 40
0
 40
1
 40
1
 40
1
 40
1
 10
2760.085200
 20
1037.617988
 30
0.0
 10
2760.024400
 20
1037.224220
 30
0.0
 10
2759.962960
 20
1036.830460
 30
0.0
 10
2759.901760
 20
1036.436692
 30
0.0
  0
SPLINE
  5
46b
100
AcDbEntity
  8
Default
 62
7
100
AcDbSpline
 70
8
 71
3
 72
8
 73
4
 74
0
 40
0
 40
0
 40
0
 40
0
 40
1
 40
1
 40
1
 40
1
 10
2759.901760
 20
1036.436692
 30
0.0
 10
2751.032400
 20
979.312388
 30
0.0
 10
2742.068960
 20
922.401844
 30
0.0
 10
2733.178960
 20
865.208377
 30
0.0
  0
SPLINE
  5
46c
100
AcDbEntity
  8
Default
 62
7
100
AcDbSpline
 70
8
 71
3
 72
8
 73
4
 74
0
 40
0
 40
0
 40
0
 40
0
 40
1
 40
1
 40
1
 40
1
 10
2733.178960
 20
865.208377
 30
0.0
 10
2724.295280
 20
808.055094
 30
0.0
 10
2715.538400
 20
750.959212
 30
0.0
 10
2707.139360
 20
693.671084
 30
0.0
  0
SPLINE
  5
46d
100
AcDbEntity
  8
Default
 62
7
100
AcDbSpline
 70
8
 71
3
 72
8
 73
4
 74
0
 40
0
 40
0
 40
0
 40
0
 40
1
 40
1
 40
1
 40
1
 10
2707.139360
 20
693.671084
 30
0.0
 10
2698.731120
 20
636.320444
 30
0.0
 10
2690.729040
 20
579.097228
 30
0.0
 10
2683.346800
 20
521.566796
 30
0.0
  0
SPLINE
  5
46e
100
AcDbEntity
  8
Default
 62
7
100
AcDbSpline
 70
8
 71
3
 72
8
 73
4
 74
0
 40
0
 40
0
 40
0
 40
0
 40
1
 40
1
 40
1
 40
1
 10
2683.346800
 20
521.566796
 30
0.0
 10
2682.369840
 20
513.953644
 30
0.0
 10
2681.405520
 20
506.348468
 30
0.0
 10
2680.453920
 20
498.748740
 30
0.0
  0
LWPOLYLINE
  5
46f
100
AcDbEntity
  8
Default
 62
7
100
AcDbPolyline
 90
2
 70
0
 10
2454.123920
 20
981.347828
 30
0.0
 10
2454.123920
 20
981.347828
 30
0.0
  0
SPLINE
  5
470
100
AcDbEntity
  8
Default
 62
7
100
AcDbSpline
 70
8
 71
3
 72
8
 73
4
 74
0
 40
0
 40
0
 40
0
 40
0
 40
1
 40
1
 40
1
 40
1
 10
2680.454000
 20
498.748740
 30
0.0
 10
2681.405520
 20
506.348468
 30
0.0
 10
2682.369920
 20
513.953644
 30
0.0
 10
2683.346800
 20
521.566796
 30
0.0
  0
SPLINE
  5
471
100
AcDbEntity
  8
Default
 62
7
100
AcDbSpline
 70
8
 71
3
 72
8
 73
4
 74
0
 40
0
 40
0
 40
0
 40
0
 40
1
 40
1
 40
1
 40
1
 10
2683.346800
 20
521.566796
 30
0.0
 10
2690.729120
 20
579.097228
 30
0.0
 10
2698.731200
 20
636.320444
 30
0.0
 10
2707.139440
 20
693.671084
 30
0.0
  0
SPLINE
  5
472
100
AcDbEntity
  8
Default
 62
7
100
AcDbSpline
 70
8
 71
3
 72
8
 73
4
 74
0
 40
0
 40
0
 40
0
 40
0
 40
1
 40
1
 40
1
 40
1
 10
2707.139440
 20
693.671084
 30
0.0
 10
2715.538480
 20
750.959212
 30
0.0
 10
2724.295360
 20
808.055094
 30
0.0
 10
2733.179040
 20
865.208377
 30
0.0
  0
SPLINE
  5
473
100
AcDbEntity
  8
Default
 62
7
100
AcDbSpline
 70
8
 71
3
 72
8
 73
4
 74
0
 40
0
 40
0
 40
0
 40
0
 40
1
 40
1
 40
1
 40
1
 10
2733.179040
 20
865.208377
 30
0.0
 10
2742.069040
 20
922.401844
 30
0.0
 10
2751.032400
 20
979.312388
 30
0.0
 10
2759.901840
 20
1036.436692
 30
0.0
  0
SPLINE
  5
474
100
AcDbEntity
  8
Default
 62
7
100
AcDbSpline
 70
8
 71
3
 72
8
 73
4
 74
0
 40
0
 40
0
 40
0
 40
0
 40
1
 40
1
 40
1
 40
1
 10
2759.901840
 20
1036.436692
 30
0.0
 10
2759.962640
 20
1036.830460
 30
0.0
 10
2760.024080
 20
1037.224220
 30
0.0
 10
2760.085280
 20
1037.617988
 30
0.0
  0
LWPOLYLINE
  5
475
100
AcDbEntity
  8
Default
 62
7
100
AcDbPolyline
 90
2
 70
0
 10
2534.262320
 20
992.415140
 30
0.0
 10
2534.262320
 20
992.415140
 30
0.0
  0
SPLINE
  5
476
100
AcDbEntity
  8
Default
 62
7
100
AcDbSpline
 70
8
 71
3
 72
8
 73
4
 74
0
 40
0
 40
0
 40
0
 40
0
 40
1
 40
1
 40
1
 40
1
 10
2760.085200
 20
1037.617988
 30
0.0
 10
2760.024400
 20
1037.224220
 30
0.0
 10
2759.962960
 20
1036.830460
 30
0.0
 10
2759.901760
 20
1036.436692
 30
0.0
  0
SPLINE
  5
477
100
AcDbEntity
  8
Default
 62
7
100
AcDbSpline
 70
8
 71
3
 72
8
 73
4
 74
0
 40
0
 40
0
 40
0
 40
0
 40
1
 40
1
 40
1
 40
1
 10
2759.901760
 20
1036.436692
 30
0.0
 10
2751.032400
 20
979.312388
 30
0.0
 10
2742.068960
 20
922.401844
 30
0.0
 10
2733.178960
 20
865.208377
 30
0.0
  0
SPLINE
  5
478
100
AcDbEntity
  8
Default
 62
7
100
AcDbSpline
 70
8
 71
3
 72
8
 73
4
 74
0
 40
0
 40
0
 40
0
 40
0
 40
1
 40
1
 40
1
 40
1
 10
2733.178960
 20
865.208377
 30
0.0
 10
2724.295280
 20
808.055094
 30
0.0
 10
2715.538400
 20
750.959212
 30
0.0
 10
2707.139360
 20
693.671084
 30
0.0
  0
SPLINE
  5
479
100
AcDbEntity
  8
Default
 62
7
100
AcDbSpline
 70
8
 71
3
 72
8
 73
4
 74
0
 40
0
 40
0
 40
0
 40
0
 40
1
 40
1
 40
1
 40
1
 10
2707.139360
 20
693.671084
 30
0.0
 10
2698.731120
 20
636.320444
 30
0.0
 10
2690.729040
 20
579.097228
 30
0.0
 10
2683.346800
 20
521.566796
 30
0.0
  0
SPLINE
  5
47a
100
AcDbEntity
  8
Default
 62
7
100
AcDbSpline
 70
8
 71
3
 72
8
 73
4
 74
0
 40
0
 40
0
 40
0
 40
0
 40
1
 40
1
 40
1
 40
1
 10
2683.346800
 20
521.566796
 30
0.0
 10
2682.369840
 20
513.953644
 30
0.0
 10
2681.405520
 20
506.348468
 30
0.0
 10
2680.453920
 20
498.748740
 30
0.0
  0
LWPOLYLINE
  5
47b
100
AcDbEntity
  8
Default
 62
7
100
AcDbPolyline
 90
2
 70
0
 10
2680.454000
 20
498.748740
 30
0.0
 10
2680.454000
 20
498.748740
 30
0.0
  0
LWPOLYLINE
  5
47c
100
AcDbEntity
  8
Default
 62
7
100
AcDbPolyline
 90
2
 70
0
 10
2760.085200
 20
1037.617988
 30
0.0
 10
2760.085200
 20
1037.617988
 30
0.0
  0
LWPOLYLINE
  5
47d
100
AcDbEntity
  8
Default
 62
7
100
AcDbPolyline
 90
2
 70
0
 10
2759.901840
 20
1036.436692
 30
0.0
 10
2759.901840
 20
1036.436692
 30
0.0
  0
LWPOLYLINE
  5
47e
100
AcDbEntity
  8
Default
 62
7
100
AcDbPolyline
 90
2
 70
0
 10
2733.179040
 20
865.208377
 30
0.0
 10
2733.179040
 20
865.208377
 30
0.0
  0
SPLINE
  5
47f
100
AcDbEntity
  8
Default
 62
7
100
AcDbSpline
 70
8
 71
3
 72
8
 73
4
 74
0
 40
0
 40
0
 40
0
 40
0
 40
1
 40
1
 40
1
 40
1
 10
2221.431280
 20
446.313420
 30
0.0
 10
2327.058960
 20
446.327020
 30
0.0
 10
2429.932000
 20
455.353676
 30
0.0
 10
2534.244960
 20
471.617692
 30
0.0
  0
SPLINE
  5
480
100
AcDbEntity
  8
Default
 62
7
100
AcDbSpline
 70
8
 71
3
 72
8
 73
4
 74
0
 40
0
 40
0
 40
0
 40
0
 40
1
 40
1
 40
1
 40
1
 10
2534.244960
 20
471.617692
 30
0.0
 10
2583.044080
 20
479.226244
 30
0.0
 10
2631.868720
 20
488.384436
 30
0.0
 10
2680.454000
 20
498.748740
 30
0.0
  0
LWPOLYLINE
  5
481
100
AcDbEntity
  8
Default
 62
7
100
AcDbPolyline
 90
2
 70
0
 10
2707.139440
 20
693.671084
 30
0.0
 10
2707.139440
 20
693.671084
 30
0.0
  0
SPLINE
  5
482
100
AcDbEntity
  8
Default
 62
7
100
AcDbSpline
 70
8
 71
3
 72
8
 73
4
 74
0
 40
0
 40
0
 40
0
 40
0
 40
1
 40
1
 40
1
 40
1
 10
2680.454000
 20
498.748740
 30
0.0
 10
2631.868720
 20
488.384436
 30
0.0
 10
2583.044080
 20
479.226244
 30
0.0
 10
2534.244960
 20
471.617692
 30
0.0
  0
SPLINE
  5
483
100
AcDbEntity
  8
Default
 62
7
100
AcDbSpline
 70
8
 71
3
 72
8
 73
4
 74
0
 40
0
 40
0
 40
0
 40
0
 40
1
 40
1
 40
1
 40
1
 10
2534.244960
 20
471.617692
 30
0.0
 10
2429.932000
 20
455.353676
 30
0.0
 10
2327.058960
 20
446.326276
 30
0.0
 10
2221.431280
 20
446.313420
 30
0.0
  0
LWPOLYLINE
  5
484
100
AcDbEntity
  8
Default
 62
7
100
AcDbPolyline
 90
2
 70
0
 10
2683.346800
 20
521.566796
 30
0.0
 10
2683.346800
 20
521.566796
 30
0.0
  0
SPLINE
  5
485
100
AcDbEntity
  8
Default
 62
7
100
AcDbSpline
 70
8
 71
3
 72
8
 73
4
 74
0
 40
0
 40
0
 40
0
 40
0
 40
1
 40
1
 40
1
 40
1
 10
2221.431280
 20
446.313420
 30
0.0
 10
2327.058960
 20
446.327020
 30
0.0
 10
2429.932000
 20
455.353676
 30
0.0
 10
2534.244960
 20
471.617692
 30
0.0
  0
SPLINE
  5
486
100
AcDbEntity
  8
Default
 62
7
100
AcDbSpline
 70
8
 71
3
 72
8
 73
4
 74
0
 40
0
 40
0
 40
0
 40
0
 40
1
 40
1
 40
1
 40
1
 10
2534.244960
 20
471.617692
 30
0.0
 10
2583.044080
 20
479.226244
 30
0.0
 10
2631.868720
 20
488.384436
 30
0.0
 10
2680.454000
 20
498.748740
 30
0.0
  0
LWPOLYLINE
  5
487
100
AcDbEntity
  8
Default
 62
7
100
AcDbPolyline
 90
2
 70
0
 10
2680.454000
 20
498.748740
 30
0.0
 10
2680.454000
 20
498.748740
 30
0.0
  0
SPLINE
  5
488
100
AcDbEntity
  8
Default
 62
7
100
AcDbSpline
 70
8
 71
3
 72
8
 73
4
 74
0
 40
0
 40
0
 40
0
 40
0
 40
1
 40
1
 40
1
 40
1
 10
1762.410800
 20
498.732324
 30
0.0
 10
1810.993200
 20
488.361196
 30
0.0
 10
1859.814960
 20
479.195420
 30
0.0
 10
1908.612720
 20
471.583132
 30
0.0
  0
SPLINE
  5
489
100
AcDbEntity
  8
Default
 62
7
100
AcDbSpline
 70
8
 71
3
 72
8
 73
4
 74
0
 40
0
 40
0
 40
0
 40
0
 40
1
 40
1
 40
1
 40
1
 10
1908.612720
 20
471.583132
 30
0.0
 10
2012.951920
 20
455.306572
 30
0.0
 10
2115.776080
 20
446.300588
 30
0.0
 10
2221.431280
 20
446.313420
 30
0.0
  0
LWPOLYLINE
  5
48a
100
AcDbEntity
  8
Default
 62
7
100
AcDbPolyline
 90
2
 70
0
 10
2221.431280
 20
446.313420
 30
0.0
 10
2221.431280
 20
446.313420
 30
0.0
  0
SPLINE
  5
48b
100
AcDbEntity
  8
Default
 62
7
100
AcDbSpline
 70
8
 71
3
 72
8
 73
4
 74
0
 40
0
 40
0
 40
0
 40
0
 40
1
 40
1
 40
1
 40
1
 10
2221.431280
 20
446.313420
 30
0.0
 10
2115.776080
 20
446.299820
 30
0.0
 10
2012.951920
 20
455.306572
 30
0.0
 10
1908.612720
 20
471.583132
 30
0.0
  0
SPLINE
  5
48c
100
AcDbEntity
  8
Default
 62
7
100
AcDbSpline
 70
8
 71
3
 72
8
 73
4
 74
0
 40
0
 40
0
 40
0
 40
0
 40
1
 40
1
 40
1
 40
1
 10
1908.612720
 20
471.583132
 30
0.0
 10
1859.814960
 20
479.195420
 30
0.0
 10
1810.993200
 20
488.361196
 30
0.0
 10
1762.410800
 20
498.732324
 30
0.0
  0
LWPOLYLINE
  5
48d
100
AcDbEntity
  8
Default
 62
7
100
AcDbPolyline
 90
2
 70
0
 10
2534.244960
 20
471.617692
 30
0.0
 10
2534.244960
 20
471.617692
 30
0.0
  0
SPLINE
  5
48e
100
AcDbEntity
  8
Default
 62
7
100
AcDbSpline
 70
8
 71
3
 72
8
 73
4
 74
0
 40
0
 40
0
 40
0
 40
0
 40
1
 40
1
 40
1
 40
1
 10
1762.410800
 20
498.732324
 30
0.0
 10
1810.993200
 20
488.361196
 30
0.0
 10
1859.814960
 20
479.195420
 30
0.0
 10
1908.612720
 20
471.583132
 30
0.0
  0
SPLINE
  5
48f
100
AcDbEntity
  8
Default
 62
7
100
AcDbSpline
 70
8
 71
3
 72
8
 73
4
 74
0
 40
0
 40
0
 40
0
 40
0
 40
1
 40
1
 40
1
 40
1
 10
1908.612720
 20
471.583132
 30
0.0
 10
2012.951920
 20
455.306572
 30
0.0
 10
2115.776080
 20
446.300588
 30
0.0
 10
2221.431280
 20
446.313420
 30
0.0
  0
LWPOLYLINE
  5
490
100
AcDbEntity
  8
Default
 62
7
100
AcDbPolyline
 90
2
 70
0
 10
2221.431280
 20
446.313420
 30
0.0
 10
2221.431280
 20
446.313420
 30
0.0
  0
SPLINE
  5
491
100
AcDbEntity
  8
Default
 62
7
100
AcDbSpline
 70
8
 71
3
 72
8
 73
4
 74
0
 40
0
 40
0
 40
0
 40
0
 40
1
 40
1
 40
1
 40
1
 10
1768.825520
 20
445.884548
 30
0.0
 10
1815.290080
 20
436.071940
 30
0.0
 10
1861.962720
 20
427.374812
 30
0.0
 10
1908.613200
 20
420.097508
 30
0.0
  0
SPLINE
  5
492
100
AcDbEntity
  8
Default
 62
7
100
AcDbSpline
 70
8
 71
3
 72
8
 73
4
 74
0
 40
0
 40
0
 40
0
 40
0
 40
1
 40
1
 40
1
 40
1
 10
1908.613200
 20
420.097508
 30
0.0
 10
1947.452000
 20
414.038804
 30
0.0
 10
1986.080640
 20
408.987508
 30
0.0
 10
2024.723520
 20
405.033788
 30
0.0
  0
LWPOLYLINE
  5
493
100
AcDbEntity
  8
Default
 62
7
100
AcDbPolyline
 90
2
 70
0
 10
1762.410800
 20
498.732324
 30
0.0
 10
1762.410800
 20
498.732324
 30
0.0
  0
SPLINE
  5
494
100
AcDbEntity
  8
Default
 62
7
100
AcDbSpline
 70
8
 71
3
 72
8
 73
4
 74
0
 40
0
 40
0
 40
0
 40
0
 40
1
 40
1
 40
1
 40
1
 10
2024.723520
 20
405.033788
 30
0.0
 10
1986.080640
 20
408.987508
 30
0.0
 10
1947.452000
 20
414.038804
 30
0.0
 10
1908.613200
 20
420.097508
 30
0.0
  0
SPLINE
  5
495
100
AcDbEntity
  8
Default
 62
7
100
AcDbSpline
 70
8
 71
3
 72
8
 73
4
 74
0
 40
0
 40
0
 40
0
 40
0
 40
1
 40
1
 40
1
 40
1
 10
1908.613200
 20
420.097508
 30
0.0
 10
1861.962720
 20
427.374812
 30
0.0
 10
1815.290080
 20
436.071940
 30
0.0
 10
1768.825520
 20
445.884548
 30
0.0
  0
LWPOLYLINE
  5
496
100
AcDbEntity
  8
Default
 62
7
100
AcDbPolyline
 90
2
 70
0
 10
1908.612720
 20
471.583132
 30
0.0
 10
1908.612720
 20
471.583132
 30
0.0
  0
SPLINE
  5
497
100
AcDbEntity
  8
Default
 62
7
100
AcDbSpline
 70
8
 71
3
 72
8
 73
4
 74
0
 40
0
 40
0
 40
0
 40
0
 40
1
 40
1
 40
1
 40
1
 10
1768.825520
 20
445.884548
 30
0.0
 10
1815.290080
 20
436.071940
 30
0.0
 10
1861.962720
 20
427.374812
 30
0.0
 10
1908.613200
 20
420.097508
 30
0.0
  0
SPLINE
  5
498
100
AcDbEntity
  8
Default
 62
7
100
AcDbSpline
 70
8
 71
3
 72
8
 73
4
 74
0
 40
0
 40
0
 40
0
 40
0
 40
1
 40
1
 40
1
 40
1
 10
1908.613200
 20
420.097508
 30
0.0
 10
1947.452000
 20
414.038804
 30
0.0
 10
1986.080640
 20
408.987508
 30
0.0
 10
2024.723520
 20
405.033788
 30
0.0
  0
LWPOLYLINE
  5
499
100
AcDbEntity
  8
Default
 62
7
100
AcDbPolyline
 90
2
 70
0
 10
2024.723520
 20
405.033788
 30
0.0
 10
2024.723520
 20
405.033788
 30
0.0
  0
SPLINE
  5
49a
100
AcDbEntity
  8
Default
 62
7
100
AcDbSpline
 70
8
 71
3
 72
8
 73
4
 74
0
 40
0
 40
0
 40
0
 40
0
 40
1
 40
1
 40
1
 40
1
 10
2221.431360
 20
394.827868
 30
0.0
 10
2168.428080
 20
394.823068
 30
0.0
 10
2115.500720
 20
397.099300
 30
0.0
 10
2062.566000
 20
401.516996
 30
0.0
  0
SPLINE
  5
49b
100
AcDbEntity
  8
Default
 62
7
100
AcDbSpline
 70
8
 71
3
 72
8
 73
4
 74
0
 40
0
 40
0
 40
0
 40
0
 40
1
 40
1
 40
1
 40
1
 10
2062.566000
 20
401.516996
 30
0.0
 10
2049.949840
 20
402.569868
 30
0.0
 10
2037.335760
 20
403.744052
 30
0.0
 10
2024.723520
 20
405.033788
 30
0.0
  0
LWPOLYLINE
  5
49c
100
AcDbEntity
  8
Default
 62
7
100
AcDbPolyline
 90
2
 70
0
 10
1768.825520
 20
445.884548
 30
0.0
 10
1768.825520
 20
445.884548
 30
0.0
  0
SPLINE
  5
49d
100
AcDbEntity
  8
Default
 62
7
100
AcDbSpline
 70
8
 71
3
 72
8
 73
4
 74
0
 40
0
 40
0
 40
0
 40
0
 40
1
 40
1
 40
1
 40
1
 10
2024.723520
 20
405.033788
 30
0.0
 10
2037.335760
 20
403.744052
 30
0.0
 10
2049.949840
 20
402.569868
 30
0.0
 10
2062.566000
 20
401.516996
 30
0.0
  0
SPLINE
  5
49e
100
AcDbEntity
  8
Default
 62
7
100
AcDbSpline
 70
8
 71
3
 72
8
 73
4
 74
0
 40
0
 40
0
 40
0
 40
0
 40
1
 40
1
 40
1
 40
1
 10
2062.566000
 20
401.516996
 30
0.0
 10
2115.500720
 20
397.099300
 30
0.0
 10
2168.428080
 20
394.822532
 30
0.0
 10
2221.431360
 20
394.827868
 30
0.0
  0
LWPOLYLINE
  5
49f
100
AcDbEntity
  8
Default
 62
7
100
AcDbPolyline
 90
2
 70
0
 10
1908.613200
 20
420.097508
 30
0.0
 10
1908.613200
 20
420.097508
 30
0.0
  0
SPLINE
  5
4a0
100
AcDbEntity
  8
Default
 62
7
100
AcDbSpline
 70
8
 71
3
 72
8
 73
4
 74
0
 40
0
 40
0
 40
0
 40
0
 40
1
 40
1
 40
1
 40
1
 10
2221.431360
 20
394.827868
 30
0.0
 10
2168.428080
 20
394.823068
 30
0.0
 10
2115.500720
 20
397.099300
 30
0.0
 10
2062.566000
 20
401.516996
 30
0.0
  0
SPLINE
  5
4a1
100
AcDbEntity
  8
Default
 62
7
100
AcDbSpline
 70
8
 71
3
 72
8
 73
4
 74
0
 40
0
 40
0
 40
0
 40
0
 40
1
 40
1
 40
1
 40
1
 10
2062.566000
 20
401.516996
 30
0.0
 10
2049.949840
 20
402.569868
 30
0.0
 10
2037.335760
 20
403.744052
 30
0.0
 10
2024.723520
 20
405.033788
 30
0.0
  0
LWPOLYLINE
  5
4a2
100
AcDbEntity
  8
Default
 62
7
100
AcDbPolyline
 90
2
 70
0
 10
2024.723520
 20
405.033788
 30
0.0
 10
2024.723520
 20
405.033788
 30
0.0
  0
LWPOLYLINE
  5
4a3
100
AcDbEntity
  8
Default
 62
7
100
AcDbPolyline
 90
2
 70
0
 10
2221.431360
 20
394.827868
 30
0.0
 10
2221.431360
 20
394.827868
 30
0.0
  0
SPLINE
  5
4a4
100
AcDbEntity
  8
Default
 62
7
100
AcDbSpline
 70
8
 71
3
 72
8
 73
4
 74
0
 40
0
 40
0
 40
0
 40
0
 40
1
 40
1
 40
1
 40
1
 10
2418.140960
 20
405.069844
 30
0.0
 10
2405.528160
 20
403.779084
 30
0.0
 10
2392.913440
 20
402.603612
 30
0.0
 10
2380.296640
 20
401.549108
 30
0.0
  0
SPLINE
  5
4a5
100
AcDbEntity
  8
Default
 62
7
100
AcDbSpline
 70
8
 71
3
 72
8
 73
4
 74
0
 40
0
 40
0
 40
0
 40
0
 40
1
 40
1
 40
1
 40
1
 10
2380.296640
 20
401.549108
 30
0.0
 10
2327.349040
 20
397.123724
 30
0.0
 10
2274.408720
 20
394.834324
 30
0.0
 10
2221.431360
 20
394.827868
 30
0.0
  0
LWPOLYLINE
  5
4a6
100
AcDbEntity
  8
Default
 62
7
100
AcDbPolyline
 90
2
 70
0
 10
2221.392480
 20
394.827868
 30
0.0
 10
2221.392480
 20
394.827868
 30
0.0
  0
SPLINE
  5
4a7
100
AcDbEntity
  8
Default
 62
7
100
AcDbSpline
 70
8
 71
3
 72
8
 73
4
 74
0
 40
0
 40
0
 40
0
 40
0
 40
1
 40
1
 40
1
 40
1
 10
2221.431360
 20
394.827868
 30
0.0
 10
2274.408720
 20
394.835068
 30
0.0
 10
2327.349040
 20
397.123724
 30
0.0
 10
2380.296640
 20
401.549108
 30
0.0
  0
SPLINE
  5
4a8
100
AcDbEntity
  8
Default
 62
7
100
AcDbSpline
 70
8
 71
3
 72
8
 73
4
 74
0
 40
0
 40
0
 40
0
 40
0
 40
1
 40
1
 40
1
 40
1
 10
2380.296640
 20
401.549108
 30
0.0
 10
2392.913440
 20
402.603612
 30
0.0
 10
2405.528160
 20
403.779084
 30
0.0
 10
2418.140960
 20
405.069844
 30
0.0
  0
LWPOLYLINE
  5
4a9
100
AcDbEntity
  8
Default
 62
7
100
AcDbPolyline
 90
2
 70
0
 10
2062.566000
 20
401.516996
 30
0.0
 10
2062.566000
 20
401.516996
 30
0.0
  0
SPLINE
  5
4aa
100
AcDbEntity
  8
Default
 62
7
100
AcDbSpline
 70
8
 71
3
 72
8
 73
4
 74
0
 40
0
 40
0
 40
0
 40
0
 40
1
 40
1
 40
1
 40
1
 10
2418.140960
 20
405.069844
 30
0.0
 10
2405.528160
 20
403.779084
 30
0.0
 10
2392.913440
 20
402.603612
 30
0.0
 10
2380.296640
 20
401.549108
 30
0.0
  0
SPLINE
  5
4ab
100
AcDbEntity
  8
Default
 62
7
100
AcDbSpline
 70
8
 71
3
 72
8
 73
4
 74
0
 40
0
 40
0
 40
0
 40
0
 40
1
 40
1
 40
1
 40
1
 10
2380.296640
 20
401.549108
 30
0.0
 10
2327.349040
 20
397.123724
 30
0.0
 10
2274.408720
 20
394.834324
 30
0.0
 10
2221.431360
 20
394.827868
 30
0.0
  0
LWPOLYLINE
  5
4ac
100
AcDbEntity
  8
Default
 62
7
100
AcDbPolyline
 90
2
 70
0
 10
2221.431360
 20
394.827868
 30
0.0
 10
2221.431360
 20
394.827868
 30
0.0
  0
SPLINE
  5
4ad
100
AcDbEntity
  8
Default
 62
7
100
AcDbSpline
 70
8
 71
3
 72
8
 73
4
 74
0
 40
0
 40
0
 40
0
 40
0
 40
1
 40
1
 40
1
 40
1
 10
2418.140960
 20
405.069868
 30
0.0
 10
2456.786720
 20
409.026764
 30
0.0
 10
2495.415760
 20
414.078076
 30
0.0
 10
2534.244480
 20
420.132068
 30
0.0
  0
SPLINE
  5
4ae
100
AcDbEntity
  8
Default
 62
7
100
AcDbSpline
 70
8
 71
3
 72
8
 73
4
 74
0
 40
0
 40
0
 40
0
 40
0
 40
1
 40
1
 40
1
 40
1
 10
2534.244480
 20
420.132068
 30
0.0
 10
2580.896400
 20
427.405812
 30
0.0
 10
2627.571840
 20
436.095884
 30
0.0
 10
2674.039200
 20
445.901940
 30
0.0
  0
LWPOLYLINE
  5
4af
100
AcDbEntity
  8
Default
 62
7
100
AcDbPolyline
 90
2
 70
0
 10
2418.140960
 20
405.069844
 30
0.0
 10
2418.140960
 20
405.069844
 30
0.0
  0
SPLINE
  5
4b0
100
AcDbEntity
  8
Default
 62
7
100
AcDbSpline
 70
8
 71
3
 72
8
 73
4
 74
0
 40
0
 40
0
 40
0
 40
0
 40
1
 40
1
 40
1
 40
1
 10
2674.039200
 20
445.901940
 30
0.0
 10
2627.571840
 20
436.095884
 30
0.0
 10
2580.896400
 20
427.405812
 30
0.0
 10
2534.244480
 20
420.132068
 30
0.0
  0
SPLINE
  5
4b1
100
AcDbEntity
  8
Default
 62
7
100
AcDbSpline
 70
8
 71
3
 72
8
 73
4
 74
0
 40
0
 40
0
 40
0
 40
0
 40
1
 40
1
 40
1
 40
1
 10
2534.244480
 20
420.132068
 30
0.0
 10
2495.415760
 20
414.078076
 30
0.0
 10
2456.786720
 20
409.026764
 30
0.0
 10
2418.140960
 20
405.069868
 30
0.0
  0
LWPOLYLINE
  5
4b2
100
AcDbEntity
  8
Default
 62
7
100
AcDbPolyline
 90
2
 70
0
 10
2380.296640
 20
401.549108
 30
0.0
 10
2380.296640
 20
401.549108
 30
0.0
  0
SPLINE
  5
4b3
100
AcDbEntity
  8
Default
 62
7
100
AcDbSpline
 70
8
 71
3
 72
8
 73
4
 74
0
 40
0
 40
0
 40
0
 40
0
 40
1
 40
1
 40
1
 40
1
 10
2418.140960
 20
405.069868
 30
0.0
 10
2456.786720
 20
409.026764
 30
0.0
 10
2495.415760
 20
414.078076
 30
0.0
 10
2534.244480
 20
420.132068
 30
0.0
  0
SPLINE
  5
4b4
100
AcDbEntity
  8
Default
 62
7
100
AcDbSpline
 70
8
 71
3
 72
8
 73
4
 74
0
 40
0
 40
0
 40
0
 40
0
 40
1
 40
1
 40
1
 40
1
 10
2534.244480
 20
420.132068
 30
0.0
 10
2580.896400
 20
427.405812
 30
0.0
 10
2627.571840
 20
436.095884
 30
0.0
 10
2674.039200
 20
445.901940
 30
0.0
  0
LWPOLYLINE
  5
4b5
100
AcDbEntity
  8
Default
 62
7
100
AcDbPolyline
 90
2
 70
0
 10
2674.039200
 20
445.901940
 30
0.0
 10
2674.039200
 20
445.901940
 30
0.0
  0
SPLINE
  5
4b6
100
AcDbEntity
  8
Default
 62
7
100
AcDbSpline
 70
8
 71
3
 72
8
 73
4
 74
0
 40
0
 40
0
 40
0
 40
0
 40
1
 40
1
 40
1
 40
1
 10
2674.039200
 20
445.901940
 30
0.0
 10
2670.251280
 20
413.642204
 30
0.0
 10
2666.704320
 20
381.374612
 30
0.0
 10
2663.416480
 20
348.904476
 30
0.0
  0
SPLINE
  5
4b7
100
AcDbEntity
  8
Default
 62
7
100
AcDbSpline
 70
8
 71
3
 72
8
 73
4
 74
0
 40
0
 40
0
 40
0
 40
0
 40
1
 40
1
 40
1
 40
1
 10
2663.416480
 20
348.904476
 30
0.0
 10
2657.522080
 20
290.692236
 30
0.0
 10
2652.684800
 20
234.099868
 30
0.0
 10
2648.642080
 20
175.745492
 30
0.0
  0
SPLINE
  5
4b8
100
AcDbEntity
  8
Default
 62
7
100
AcDbSpline
 70
8
 71
3
 72
8
 73
4
 74
0
 40
0
 40
0
 40
0
 40
0
 40
1
 40
1
 40
1
 40
1
 10
2648.642080
 20
175.745492
 30
0.0
 10
2646.640560
 20
146.854396
 30
0.0
 10
2644.868080
 20
117.947156
 30
0.0
 10
2643.261600
 20
89.035092
 30
0.0
  0
SPLINE
  5
4b9
100
AcDbEntity
  8
Default
 62
7
100
AcDbSpline
 70
8
 71
3
 72
8
 73
4
 74
0
 40
0
 40
0
 40
0
 40
0
 40
1
 40
1
 40
1
 40
1
 10
2643.261600
 20
89.035092
 30
0.0
 10
2641.654960
 20
60.121636
 30
0.0
 10
2640.215840
 20
31.198964
 30
0.0
 10
2638.781360
 20
2.274884
 30
0.0
  0
LWPOLYLINE
  5
4ba
100
AcDbEntity
  8
Default
 62
7
100
AcDbPolyline
 90
2
 70
0
 10
2418.140960
 20
405.069868
 30
0.0
 10
2418.140960
 20
405.069868
 30
0.0
  0
SPLINE
  5
4bb
100
AcDbEntity
  8
Default
 62
7
100
AcDbSpline
 70
8
 71
3
 72
8
 73
4
 74
0
 40
0
 40
0
 40
0
 40
0
 40
1
 40
1
 40
1
 40
1
 10
2638.781360
 20
2.274884
 30
0.0
 10
2640.215840
 20
31.198964
 30
0.0
 10
2641.654960
 20
60.121636
 30
0.0
 10
2643.261600
 20
89.035092
 30
0.0
  0
SPLINE
  5
4bc
100
AcDbEntity
  8
Default
 62
7
100
AcDbSpline
 70
8
 71
3
 72
8
 73
4
 74
0
 40
0
 40
0
 40
0
 40
0
 40
1
 40
1
 40
1
 40
1
 10
2643.261600
 20
89.035092
 30
0.0
 10
2644.868080
 20
117.947156
 30
0.0
 10
2646.640560
 20
146.854396
 30
0.0
 10
2648.642080
 20
175.745492
 30
0.0
  0
SPLINE
  5
4bd
100
AcDbEntity
  8
Default
 62
7
100
AcDbSpline
 70
8
 71
3
 72
8
 73
4
 74
0
 40
0
 40
0
 40
0
 40
0
 40
1
 40
1
 40
1
 40
1
 10
2648.642080
 20
175.745492
 30
0.0
 10
2652.684800
 20
234.099868
 30
0.0
 10
2657.522080
 20
290.692236
 30
0.0
 10
2663.416480
 20
348.904476
 30
0.0
  0
SPLINE
  5
4be
100
AcDbEntity
  8
Default
 62
7
100
AcDbSpline
 70
8
 71
3
 72
8
 73
4
 74
0
 40
0
 40
0
 40
0
 40
0
 40
1
 40
1
 40
1
 40
1
 10
2663.416480
 20
348.904476
 30
0.0
 10
2666.704320
 20
381.374612
 30
0.0
 10
2670.251280
 20
413.642204
 30
0.0
 10
2674.039200
 20
445.901940
 30
0.0
  0
LWPOLYLINE
  5
4bf
100
AcDbEntity
  8
Default
 62
7
100
AcDbPolyline
 90
2
 70
0
 10
2534.244480
 20
420.132068
 30
0.0
 10
2534.244480
 20
420.132068
 30
0.0
  0
SPLINE
  5
4c0
100
AcDbEntity
  8
Default
 62
7
100
AcDbSpline
 70
8
 71
3
 72
8
 73
4
 74
0
 40
0
 40
0
 40
0
 40
0
 40
1
 40
1
 40
1
 40
1
 10
2674.039200
 20
445.901940
 30
0.0
 10
2670.251280
 20
413.642204
 30
0.0
 10
2666.704320
 20
381.374612
 30
0.0
 10
2663.416480
 20
348.904476
 30
0.0
  0
SPLINE
  5
4c1
100
AcDbEntity
  8
Default
 62
7
100
AcDbSpline
 70
8
 71
3
 72
8
 73
4
 74
0
 40
0
 40
0
 40
0
 40
0
 40
1
 40
1
 40
1
 40
1
 10
2663.416480
 20
348.904476
 30
0.0
 10
2657.522080
 20
290.692236
 30
0.0
 10
2652.684800
 20
234.099868
 30
0.0
 10
2648.642080
 20
175.745492
 30
0.0
  0
SPLINE
  5
4c2
100
AcDbEntity
  8
Default
 62
7
100
AcDbSpline
 70
8
 71
3
 72
8
 73
4
 74
0
 40
0
 40
0
 40
0
 40
0
 40
1
 40
1
 40
1
 40
1
 10
2648.642080
 20
175.745492
 30
0.0
 10
2646.640560
 20
146.854396
 30
0.0
 10
2644.868080
 20
117.947156
 30
0.0
 10
2643.261600
 20
89.035092
 30
0.0
  0
SPLINE
  5
4c3
100
AcDbEntity
  8
Default
 62
7
100
AcDbSpline
 70
8
 71
3
 72
8
 73
4
 74
0
 40
0
 40
0
 40
0
 40
0
 40
1
 40
1
 40
1
 40
1
 10
2643.261600
 20
89.035092
 30
0.0
 10
2641.654960
 20
60.121636
 30
0.0
 10
2640.215840
 20
31.198964
 30
0.0
 10
2638.781360
 20
2.274884
 30
0.0
  0
LWPOLYLINE
  5
4c4
100
AcDbEntity
  8
Default
 62
7
100
AcDbPolyline
 90
2
 70
0
 10
2638.781360
 20
2.274884
 30
0.0
 10
2638.781360
 20
2.274884
 30
0.0
  0
LWPOLYLINE
  5
4c5
100
AcDbEntity
  8
Default
 62
7
100
AcDbPolyline
 90
2
 70
0
 10
2674.039200
 20
445.901940
 30
0.0
 10
2674.039200
 20
445.901940
 30
0.0
  0
LWPOLYLINE
  5
4c6
100
AcDbEntity
  8
Default
 62
7
100
AcDbPolyline
 90
2
 70
0
 10
2663.416480
 20
348.904476
 30
0.0
 10
2663.416480
 20
348.904476
 30
0.0
  0
SPLINE
  5
4c7
100
AcDbEntity
  8
Default
 62
7
100
AcDbSpline
 70
8
 71
3
 72
8
 73
4
 74
0
 40
0
 40
0
 40
0
 40
0
 40
1
 40
1
 40
1
 40
1
 10
1768.825520
 20
445.884548
 30
0.0
 10
1772.612720
 20
413.630612
 30
0.0
 10
1776.158960
 20
381.368788
 30
0.0
 10
1779.446240
 20
348.904476
 30
0.0
  0
SPLINE
  5
4c8
100
AcDbEntity
  8
Default
 62
7
100
AcDbSpline
 70
8
 71
3
 72
8
 73
4
 74
0
 40
0
 40
0
 40
0
 40
0
 40
1
 40
1
 40
1
 40
1
 10
1779.446240
 20
348.904476
 30
0.0
 10
1785.340640
 20
290.692236
 30
0.0
 10
1790.177920
 20
234.099868
 30
0.0
 10
1794.220640
 20
175.745492
 30
0.0
  0
SPLINE
  5
4c9
100
AcDbEntity
  8
Default
 62
7
100
AcDbSpline
 70
8
 71
3
 72
8
 73
4
 74
0
 40
0
 40
0
 40
0
 40
0
 40
1
 40
1
 40
1
 40
1
 10
1794.220640
 20
175.745492
 30
0.0
 10
1796.222160
 20
146.854396
 30
0.0
 10
1797.994640
 20
117.947156
 30
0.0
 10
1799.601120
 20
89.035092
 30
0.0
  0
SPLINE
  5
4ca
100
AcDbEntity
  8
Default
 62
7
100
AcDbSpline
 70
8
 71
3
 72
8
 73
4
 74
0
 40
0
 40
0
 40
0
 40
0
 40
1
 40
1
 40
1
 40
1
 10
1799.601120
 20
89.035092
 30
0.0
 10
1801.207760
 20
60.121636
 30
0.0
 10
1802.646880
 20
31.198964
 30
0.0
 10
1804.081360
 20
2.274884
 30
0.0
  0
LWPOLYLINE
  5
4cb
100
AcDbEntity
  8
Default
 62
7
100
AcDbPolyline
 90
2
 70
0
 10
2648.642080
 20
175.745492
 30
0.0
 10
2648.642080
 20
175.745492
 30
0.0
  0
SPLINE
  5
4cc
100
AcDbEntity
  8
Default
 62
7
100
AcDbSpline
 70
8
 71
3
 72
8
 73
4
 74
0
 40
0
 40
0
 40
0
 40
0
 40
1
 40
1
 40
1
 40
1
 10
1804.081360
 20
2.274884
 30
0.0
 10
1802.646880
 20
31.198964
 30
0.0
 10
1801.207760
 20
60.121636
 30
0.0
 10
1799.601120
 20
89.035092
 30
0.0
  0
SPLINE
  5
4cd
100
AcDbEntity
  8
Default
 62
7
100
AcDbSpline
 70
8
 71
3
 72
8
 73
4
 74
0
 40
0
 40
0
 40
0
 40
0
 40
1
 40
1
 40
1
 40
1
 10
1799.601120
 20
89.035092
 30
0.0
 10
1797.994640
 20
117.947156
 30
0.0
 10
1796.222160
 20
146.854396
 30
0.0
 10
1794.220640
 20
175.745492
 30
0.0
  0
SPLINE
  5
4ce
100
AcDbEntity
  8
Default
 62
7
100
AcDbSpline
 70
8
 71
3
 72
8
 73
4
 74
0
 40
0
 40
0
 40
0
 40
0
 40
1
 40
1
 40
1
 40
1
 10
1794.220640
 20
175.745492
 30
0.0
 10
1790.177920
 20
234.099868
 30
0.0
 10
1785.340640
 20
290.692236
 30
0.0
 10
1779.446240
 20
348.904476
 30
0.0
  0
SPLINE
  5
4cf
100
AcDbEntity
  8
Default
 62
7
100
AcDbSpline
 70
8
 71
3
 72
8
 73
4
 74
0
 40
0
 40
0
 40
0
 40
0
 40
1
 40
1
 40
1
 40
1
 10
1779.446240
 20
348.904476
 30
0.0
 10
1776.158960
 20
381.368788
 30
0.0
 10
1772.612720
 20
413.630612
 30
0.0
 10
1768.825520
 20
445.884548
 30
0.0
  0
LWPOLYLINE
  5
4d0
100
AcDbEntity
  8
Default
 62
7
100
AcDbPolyline
 90
2
 70
0
 10
2643.261600
 20
89.035092
 30
0.0
 10
2643.261600
 20
89.035092
 30
0.0
  0
SPLINE
  5
4d1
100
AcDbEntity
  8
Default
 62
7
100
AcDbSpline
 70
8
 71
3
 72
8
 73
4
 74
0
 40
0
 40
0
 40
0
 40
0
 40
1
 40
1
 40
1
 40
1
 10
1768.825520
 20
445.884548
 30
0.0
 10
1772.612720
 20
413.630612
 30
0.0
 10
1776.158960
 20
381.368788
 30
0.0
 10
1779.446240
 20
348.904476
 30
0.0
  0
SPLINE
  5
4d2
100
AcDbEntity
  8
Default
 62
7
100
AcDbSpline
 70
8
 71
3
 72
8
 73
4
 74
0
 40
0
 40
0
 40
0
 40
0
 40
1
 40
1
 40
1
 40
1
 10
1779.446240
 20
348.904476
 30
0.0
 10
1785.340640
 20
290.692236
 30
0.0
 10
1790.177920
 20
234.099868
 30
0.0
 10
1794.220640
 20
175.745492
 30
0.0
  0
SPLINE
  5
4d3
100
AcDbEntity
  8
Default
 62
7
100
AcDbSpline
 70
8
 71
3
 72
8
 73
4
 74
0
 40
0
 40
0
 40
0
 40
0
 40
1
 40
1
 40
1
 40
1
 10
1794.220640
 20
175.745492
 30
0.0
 10
1796.222160
 20
146.854396
 30
0.0
 10
1797.994640
 20
117.947156
 30
0.0
 10
1799.601120
 20
89.035092
 30
0.0
  0
SPLINE
  5
4d4
100
AcDbEntity
  8
Default
 62
7
100
AcDbSpline
 70
8
 71
3
 72
8
 73
4
 74
0
 40
0
 40
0
 40
0
 40
0
 40
1
 40
1
 40
1
 40
1
 10
1799.601120
 20
89.035092
 30
0.0
 10
1801.207760
 20
60.121636
 30
0.0
 10
1802.646880
 20
31.198964
 30
0.0
 10
1804.081360
 20
2.274884
 30
0.0
  0
LWPOLYLINE
  5
4d5
100
AcDbEntity
  8
Default
 62
7
100
AcDbPolyline
 90
2
 70
0
 10
1804.081360
 20
2.274884
 30
0.0
 10
1804.081360
 20
2.274884
 30
0.0
  0
LWPOLYLINE
  5
4d6
100
AcDbEntity
  8
Default
 62
7
100
AcDbPolyline
 90
2
 70
0
 10
1768.825520
 20
445.884548
 30
0.0
 10
1768.825520
 20
445.884548
 30
0.0
  0
LWPOLYLINE
  5
4d7
100
AcDbEntity
  8
Default
 62
7
100
AcDbPolyline
 90
2
 70
0
 10
1779.446240
 20
348.904476
 30
0.0
 10
1779.446240
 20
348.904476
 30
0.0
  0
SPLINE
  5
4d8
100
AcDbEntity
  8
Default
 62
7
100
AcDbSpline
 70
8
 71
3
 72
8
 73
4
 74
0
 40
0
 40
0
 40
0
 40
0
 40
1
 40
1
 40
1
 40
1
 10
2038.157440
 20
2.274884
 30
0.0
 10
1960.132080
 20
2.274884
 30
0.0
 10
1882.106720
 20
2.274884
 30
0.0
 10
1804.081360
 20
2.274884
 30
0.0
  0
LWPOLYLINE
  5
4d9
100
AcDbEntity
  8
Default
 62
7
100
AcDbPolyline
 90
2
 70
0
 10
1794.220640
 20
175.745492
 30
0.0
 10
1794.220640
 20
175.745492
 30
0.0
  0
SPLINE
  5
4da
100
AcDbEntity
  8
Default
 62
7
100
AcDbSpline
 70
8
 71
3
 72
8
 73
4
 74
0
 40
0
 40
0
 40
0
 40
0
 40
1
 40
1
 40
1
 40
1
 10
2038.157440
 20
2.274884
 30
0.0
 10
1960.132080
 20
2.274884
 30
0.0
 10
1882.106720
 20
2.274884
 30
0.0
 10
1804.081360
 20
2.274884
 30
0.0
  0
LWPOLYLINE
  5
4db
100
AcDbEntity
  8
Default
 62
7
100
AcDbPolyline
 90
2
 70
0
 10
1804.081360
 20
2.274884
 30
0.0
 10
1804.081360
 20
2.274884
 30
0.0
  0
SPLINE
  5
4dc
100
AcDbEntity
  8
Default
 62
7
100
AcDbSpline
 70
8
 71
3
 72
8
 73
4
 74
0
 40
0
 40
0
 40
0
 40
0
 40
1
 40
1
 40
1
 40
1
 10
2404.705280
 20
2.274884
 30
0.0
 10
2282.522720
 20
2.274884
 30
0.0
 10
2160.340080
 20
2.274884
 30
0.0
 10
2038.157440
 20
2.274884
 30
0.0
  0
SPLINE
  5
4dd
100
AcDbEntity
  8
Default
 62
7
100
AcDbSpline
 70
8
 71
3
 72
8
 73
4
 74
0
 40
0
 40
0
 40
0
 40
0
 40
1
 40
1
 40
1
 40
1
 10
2404.705280
 20
2.274884
 30
0.0
 10
2282.522720
 20
2.274884
 30
0.0
 10
2160.340080
 20
2.274884
 30
0.0
 10
2038.157440
 20
2.274884
 30
0.0
  0
LWPOLYLINE
  5
4de
100
AcDbEntity
  8
Default
 62
7
100
AcDbPolyline
 90
3
 70
0
 10
2038.157440
 20
2.274884
 30
0.0
 10
2038.157440
 20
2.274884
 30
0.0
 10
2038.157440
 20
2.274884
 30
0.0
  0
SPLINE
  5
4df
100
AcDbEntity
  8
Default
 62
7
100
AcDbSpline
 70
8
 71
3
 72
8
 73
4
 74
0
 40
0
 40
0
 40
0
 40
0
 40
1
 40
1
 40
1
 40
1
 10
2638.781360
 20
2.274884
 30
0.0
 10
2560.756000
 20
2.274884
 30
0.0
 10
2482.730640
 20
2.274884
 30
0.0
 10
2404.705280
 20
2.274884
 30
0.0
  0
SPLINE
  5
4e0
100
AcDbEntity
  8
Default
 62
7
100
AcDbSpline
 70
8
 71
3
 72
8
 73
4
 74
0
 40
0
 40
0
 40
0
 40
0
 40
1
 40
1
 40
1
 40
1
 10
2638.781360
 20
2.274884
 30
0.0
 10
2560.756000
 20
2.274884
 30
0.0
 10
2482.730640
 20
2.274884
 30
0.0
 10
2404.705280
 20
2.274884
 30
0.0
  0
LWPOLYLINE
  5
4e1
100
AcDbEntity
  8
Default
 62
7
100
AcDbPolyline
 90
3
 70
0
 10
2404.705280
 20
2.274884
 30
0.0
 10
2404.705280
 20
2.274884
 30
0.0
 10
2404.705280
 20
2.274884
 30
0.0
  0
SPLINE
  5
4e2
100
AcDbEntity
  8
Default
 62
7
100
AcDbSpline
 70
8
 71
3
 72
8
 73
4
 74
0
 40
0
 40
0
 40
0
 40
0
 40
1
 40
1
 40
1
 40
1
 10
2761.546320
 20
2766.030244
 30
0.0
 10
2660.569600
 20
2766.030244
 30
0.0
 10
2559.592800
 20
2766.030244
 30
0.0
 10
2458.616000
 20
2766.030244
 30
0.0
  0
LWPOLYLINE
  5
4e3
100
AcDbEntity
  8
Default
 62
7
100
AcDbPolyline
 90
2
 70
0
 10
2638.781360
 20
2.274884
 30
0.0
 10
2638.781360
 20
2.274884
 30
0.0
  0
SPLINE
  5
4e4
100
AcDbEntity
  8
Default
 62
7
100
AcDbSpline
 70
8
 71
3
 72
8
 73
4
 74
0
 40
0
 40
0
 40
0
 40
0
 40
1
 40
1
 40
1
 40
1
 10
2761.546320
 20
2766.030244
 30
0.0
 10
2660.569600
 20
2766.030244
 30
0.0
 10
2559.592800
 20
2766.030244
 30
0.0
 10
2458.616000
 20
2766.030244
 30
0.0
  0
LWPOLYLINE
  5
4e5
100
AcDbEntity
  8
Default
 62
7
100
AcDbPolyline
 90
2
 70
0
 10
2458.616000
 20
2766.030244
 30
0.0
 10
2458.616000
 20
2766.030244
 30
0.0
  0
SPLINE
  5
4e6
100
AcDbEntity
  8
Default
 62
7
100
AcDbSpline
 70
8
 71
3
 72
8
 73
4
 74
0
 40
0
 40
0
 40
0
 40
0
 40
1
 40
1
 40
1
 40
1
 10
2761.546320
 20
2766.030244
 30
0.0
 10
2771.835520
 20
2738.911924
 30
0.0
 10
2781.232640
 20
2711.630964
 30
0.0
 10
2789.802800
 20
2683.767764
 30
0.0
  0
SPLINE
  5
4e7
100
AcDbEntity
  8
Default
 62
7
100
AcDbSpline
 70
8
 71
3
 72
8
 73
4
 74
0
 40
0
 40
0
 40
0
 40
0
 40
1
 40
1
 40
1
 40
1
 10
2789.802800
 20
2683.767764
 30
0.0
 10
2798.364400
 20
2655.932244
 30
0.0
 10
2805.982320
 20
2627.903684
 30
0.0
 10
2812.778240
 20
2599.457524
 30
0.0
  0
SPLINE
  5
4e8
100
AcDbEntity
  8
Default
 62
7
100
AcDbSpline
 70
8
 71
3
 72
8
 73
4
 74
0
 40
0
 40
0
 40
0
 40
0
 40
1
 40
1
 40
1
 40
1
 10
2812.778240
 20
2599.457524
 30
0.0
 10
2821.580960
 20
2562.611604
 30
0.0
 10
2828.920640
 20
2525.417284
 30
0.0
 10
2835.046240
 20
2487.930804
 30
0.0
  0
LWPOLYLINE
  5
4e9
100
AcDbEntity
  8
Default
 62
7
100
AcDbPolyline
 90
2
 70
0
 10
2761.546320
 20
2766.030244
 30
0.0
 10
2761.546320
 20
2766.030244
 30
0.0
  0
SPLINE
  5
4ea
100
AcDbEntity
  8
Default
 62
7
100
AcDbSpline
 70
8
 71
3
 72
8
 73
4
 74
0
 40
0
 40
0
 40
0
 40
0
 40
1
 40
1
 40
1
 40
1
 10
2835.046240
 20
2487.930804
 30
0.0
 10
2828.920640
 20
2525.417284
 30
0.0
 10
2821.580960
 20
2562.611604
 30
0.0
 10
2812.778240
 20
2599.457524
 30
0.0
  0
SPLINE
  5
4eb
100
AcDbEntity
  8
Default
 62
7
100
AcDbSpline
 70
8
 71
3
 72
8
 73
4
 74
0
 40
0
 40
0
 40
0
 40
0
 40
1
 40
1
 40
1
 40
1
 10
2812.778240
 20
2599.457524
 30
0.0
 10
2805.982320
 20
2627.903684
 30
0.0
 10
2798.364400
 20
2655.932244
 30
0.0
 10
2789.802800
 20
2683.767764
 30
0.0
  0
SPLINE
  5
4ec
100
AcDbEntity
  8
Default
 62
7
100
AcDbSpline
 70
8
 71
3
 72
8
 73
4
 74
0
 40
0
 40
0
 40
0
 40
0
 40
1
 40
1
 40
1
 40
1
 10
2789.802800
 20
2683.767764
 30
0.0
 10
2781.232640
 20
2711.630964
 30
0.0
 10
2771.835520
 20
2738.911924
 30
0.0
 10
2761.546320
 20
2766.030244
 30
0.0
  0
LWPOLYLINE
  5
4ed
100
AcDbEntity
  8
Default
 62
7
100
AcDbPolyline
 90
2
 70
0
 10
1799.601120
 20
89.035092
 30
0.0
 10
1799.601120
 20
89.035092
 30
0.0
  0
SPLINE
  5
4ee
100
AcDbEntity
  8
Default
 62
7
100
AcDbSpline
 70
8
 71
3
 72
8
 73
4
 74
0
 40
0
 40
0
 40
0
 40
0
 40
1
 40
1
 40
1
 40
1
 10
2761.546320
 20
2766.030244
 30
0.0
 10
2771.835520
 20
2738.911924
 30
0.0
 10
2781.232640
 20
2711.630964
 30
0.0
 10
2789.802800
 20
2683.767764
 30
0.0
  0
SPLINE
  5
4ef
100
AcDbEntity
  8
Default
 62
7
100
AcDbSpline
 70
8
 71
3
 72
8
 73
4
 74
0
 40
0
 40
0
 40
0
 40
0
 40
1
 40
1
 40
1
 40
1
 10
2789.802800
 20
2683.767764
 30
0.0
 10
2798.364400
 20
2655.932244
 30
0.0
 10
2805.982320
 20
2627.903684
 30
0.0
 10
2812.778240
 20
2599.457524
 30
0.0
  0
SPLINE
  5
4f0
100
AcDbEntity
  8
Default
 62
7
100
AcDbSpline
 70
8
 71
3
 72
8
 73
4
 74
0
 40
0
 40
0
 40
0
 40
0
 40
1
 40
1
 40
1
 40
1
 10
2812.778240
 20
2599.457524
 30
0.0
 10
2821.580960
 20
2562.611604
 30
0.0
 10
2828.920640
 20
2525.417284
 30
0.0
 10
2835.046240
 20
2487.930804
 30
0.0
  0
LWPOLYLINE
  5
4f1
100
AcDbEntity
  8
Default
 62
7
100
AcDbPolyline
 90
2
 70
0
 10
2835.046240
 20
2487.930804
 30
0.0
 10
2835.046240
 20
2487.930804
 30
0.0
  0
LWPOLYLINE
  5
4f2
100
AcDbEntity
  8
Default
 62
7
100
AcDbPolyline
 90
2
 70
0
 10
2761.546320
 20
2766.030244
 30
0.0
 10
2761.546320
 20
2766.030244
 30
0.0
  0
SPLINE
  5
4f3
100
AcDbEntity
  8
Default
 62
7
100
AcDbSpline
 70
8
 71
3
 72
8
 73
4
 74
0
 40
0
 40
0
 40
0
 40
0
 40
1
 40
1
 40
1
 40
1
 10
2458.616000
 20
2766.030244
 30
0.0
 10
2300.492880
 20
2766.030244
 30
0.0
 10
2142.369840
 20
2766.030244
 30
0.0
 10
1984.246720
 20
2766.030244
 30
0.0
  0
LWPOLYLINE
  5
4f4
100
AcDbEntity
  8
Default
 62
7
100
AcDbPolyline
 90
2
 70
0
 10
2789.802800
 20
2683.767764
 30
0.0
 10
2789.802800
 20
2683.767764
 30
0.0
  0
SPLINE
  5
4f5
100
AcDbEntity
  8
Default
 62
7
100
AcDbSpline
 70
8
 71
3
 72
8
 73
4
 74
0
 40
0
 40
0
 40
0
 40
0
 40
1
 40
1
 40
1
 40
1
 10
2458.616000
 20
2766.030244
 30
0.0
 10
2300.492880
 20
2766.030244
 30
0.0
 10
2142.369840
 20
2766.030244
 30
0.0
 10
1984.246720
 20
2766.030244
 30
0.0
  0
LWPOLYLINE
  5
4f6
100
AcDbEntity
  8
Default
 62
7
100
AcDbPolyline
 90
2
 70
0
 10
2812.778240
 20
2599.457524
 30
0.0
 10
2812.778240
 20
2599.457524
 30
0.0
  0
SPLINE
  5
4f7
100
AcDbEntity
  8
Default
 62
7
100
AcDbSpline
 70
8
 71
3
 72
8
 73
4
 74
0
 40
0
 40
0
 40
0
 40
0
 40
1
 40
1
 40
1
 40
1
 10
1984.246720
 20
2766.030244
 30
0.0
 10
1883.269920
 20
2766.030244
 30
0.0
 10
1782.293120
 20
2766.030244
 30
0.0
 10
1681.316400
 20
2766.030244
 30
0.0
  0
LWPOLYLINE
  5
4f8
100
AcDbEntity
  8
Default
 62
7
100
AcDbPolyline
 90
2
 70
0
 10
2458.616000
 20
2766.030244
 30
0.0
 10
2458.616000
 20
2766.030244
 30
0.0
  0
SPLINE
  5
4f9
100
AcDbEntity
  8
Default
 62
7
100
AcDbSpline
 70
8
 71
3
 72
8
 73
4
 74
0
 40
0
 40
0
 40
0
 40
0
 40
1
 40
1
 40
1
 40
1
 10
1984.246720
 20
2766.030244
 30
0.0
 10
1883.269920
 20
2766.030244
 30
0.0
 10
1782.293120
 20
2766.030244
 30
0.0
 10
1681.316400
 20
2766.030244
 30
0.0
  0
LWPOLYLINE
  5
4fa
100
AcDbEntity
  8
Default
 62
7
100
AcDbPolyline
 90
2
 70
0
 10
1984.246720
 20
2766.030244
 30
0.0
 10
1984.246720
 20
2766.030244
 30
0.0
  0
SPLINE
  5
4fb
100
AcDbEntity
  8
Default
 62
7
100
AcDbSpline
 70
8
 71
3
 72
8
 73
4
 74
0
 40
0
 40
0
 40
0
 40
0
 40
1
 40
1
 40
1
 40
1
 10
1681.316400
 20
2766.030244
 30
0.0
 10
1671.027280
 20
2738.911924
 30
0.0
 10
1661.630080
 20
2711.630964
 30
0.0
 10
1653.060000
 20
2683.767764
 30
0.0
  0
SPLINE
  5
4fc
100
AcDbEntity
  8
Default
 62
7
100
AcDbSpline
 70
8
 71
3
 72
8
 73
4
 74
0
 40
0
 40
0
 40
0
 40
0
 40
1
 40
1
 40
1
 40
1
 10
1653.060000
 20
2683.767764
 30
0.0
 10
1644.498400
 20
2655.932244
 30
0.0
 10
1636.880400
 20
2627.903684
 30
0.0
 10
1630.084480
 20
2599.457524
 30
0.0
  0
SPLINE
  5
4fd
100
AcDbEntity
  8
Default
 62
7
100
AcDbSpline
 70
8
 71
3
 72
8
 73
4
 74
0
 40
0
 40
0
 40
0
 40
0
 40
1
 40
1
 40
1
 40
1
 10
1630.084480
 20
2599.457524
 30
0.0
 10
1621.281840
 20
2562.611524
 30
0.0
 10
1613.942080
 20
2525.417284
 30
0.0
 10
1607.816560
 20
2487.930804
 30
0.0
  0
LWPOLYLINE
  5
4fe
100
AcDbEntity
  8
Default
 62
7
100
AcDbPolyline
 90
2
 70
0
 10
1681.316400
 20
2766.030244
 30
0.0
 10
1681.316400
 20
2766.030244
 30
0.0
  0
SPLINE
  5
4ff
100
AcDbEntity
  8
Default
 62
7
100
AcDbSpline
 70
8
 71
3
 72
8
 73
4
 74
0
 40
0
 40
0
 40
0
 40
0
 40
1
 40
1
 40
1
 40
1
 10
1607.816560
 20
2487.930804
 30
0.0
 10
1613.942080
 20
2525.417284
 30
0.0
 10
1621.281840
 20
2562.611524
 30
0.0
 10
1630.084480
 20
2599.457524
 30
0.0
  0
SPLINE
  5
500
100
AcDbEntity
  8
Default
 62
7
100
AcDbSpline
 70
8
 71
3
 72
8
 73
4
 74
0
 40
0
 40
0
 40
0
 40
0
 40
1
 40
1
 40
1
 40
1
 10
1630.084480
 20
2599.457524
 30
0.0
 10
1636.880400
 20
2627.903684
 30
0.0
 10
1644.498400
 20
2655.932244
 30
0.0
 10
1653.060000
 20
2683.767764
 30
0.0
  0
SPLINE
  5
501
100
AcDbEntity
  8
Default
 62
7
100
AcDbSpline
 70
8
 71
3
 72
8
 73
4
 74
0
 40
0
 40
0
 40
0
 40
0
 40
1
 40
1
 40
1
 40
1
 10
1653.060000
 20
2683.767764
 30
0.0
 10
1661.630080
 20
2711.630964
 30
0.0
 10
1671.027280
 20
2738.911924
 30
0.0
 10
1681.316400
 20
2766.030244
 30
0.0
  0
LWPOLYLINE
  5
502
100
AcDbEntity
  8
Default
 62
7
100
AcDbPolyline
 90
2
 70
0
 10
1984.246720
 20
2766.030244
 30
0.0
 10
1984.246720
 20
2766.030244
 30
0.0
  0
SPLINE
  5
503
100
AcDbEntity
  8
Default
 62
7
100
AcDbSpline
 70
8
 71
3
 72
8
 73
4
 74
0
 40
0
 40
0
 40
0
 40
0
 40
1
 40
1
 40
1
 40
1
 10
1681.316400
 20
2766.030244
 30
0.0
 10
1671.027280
 20
2738.911924
 30
0.0
 10
1661.630080
 20
2711.630964
 30
0.0
 10
1653.060000
 20
2683.767764
 30
0.0
  0
SPLINE
  5
504
100
AcDbEntity
  8
Default
 62
7
100
AcDbSpline
 70
8
 71
3
 72
8
 73
4
 74
0
 40
0
 40
0
 40
0
 40
0
 40
1
 40
1
 40
1
 40
1
 10
1653.060000
 20
2683.767764
 30
0.0
 10
1644.498400
 20
2655.932244
 30
0.0
 10
1636.880400
 20
2627.903684
 30
0.0
 10
1630.084480
 20
2599.457524
 30
0.0
  0
SPLINE
  5
505
100
AcDbEntity
  8
Default
 62
7
100
AcDbSpline
 70
8
 71
3
 72
8
 73
4
 74
0
 40
0
 40
0
 40
0
 40
0
 40
1
 40
1
 40
1
 40
1
 10
1630.084480
 20
2599.457524
 30
0.0
 10
1621.281840
 20
2562.611524
 30
0.0
 10
1613.942080
 20
2525.417284
 30
0.0
 10
1607.816560
 20
2487.930804
 30
0.0
  0
LWPOLYLINE
  5
506
100
AcDbEntity
  8
Default
 62
7
100
AcDbPolyline
 90
2
 70
0
 10
1607.816560
 20
2487.930804
 30
0.0
 10
1607.816560
 20
2487.930804
 30
0.0
  0
LWPOLYLINE
  5
507
100
AcDbEntity
  8
Default
 62
7
100
AcDbPolyline
 90
2
 70
0
 10
1681.316400
 20
2766.030244
 30
0.0
 10
1681.316400
 20
2766.030244
 30
0.0
  0
SPLINE
  5
508
100
AcDbEntity
  8
Default
 62
7
100
AcDbSpline
 70
8
 71
3
 72
8
 73
4
 74
0
 40
0
 40
0
 40
0
 40
0
 40
1
 40
1
 40
1
 40
1
 10
1607.816560
 20
2487.930804
 30
0.0
 10
1706.615280
 20
2461.973684
 30
0.0
 10
1807.646400
 20
2439.581444
 30
0.0
 10
1908.592800
 20
2423.833284
 30
0.0
  0
SPLINE
  5
509
100
AcDbEntity
  8
Default
 62
7
100
AcDbSpline
 70
8
 71
3
 72
8
 73
4
 74
0
 40
0
 40
0
 40
0
 40
0
 40
1
 40
1
 40
1
 40
1
 10
1908.592800
 20
2423.833284
 30
0.0
 10
1960.386800
 20
2415.753124
 30
0.0
 10
2012.266720
 20
2409.398564
 30
0.0
 10
2064.516320
 20
2405.087764
 30
0.0
  0
SPLINE
  5
50a
100
AcDbEntity
  8
Default
 62
7
100
AcDbSpline
 70
8
 71
3
 72
8
 73
4
 74
0
 40
0
 40
0
 40
0
 40
0
 40
1
 40
1
 40
1
 40
1
 10
2064.516320
 20
2405.087764
 30
0.0
 10
2116.853600
 20
2400.769684
 30
0.0
 10
2168.913440
 20
2398.554084
 30
0.0
 10
2221.431360
 20
2398.560404
 30
0.0
  0
LWPOLYLINE
  5
50b
100
AcDbEntity
  8
Default
 62
7
100
AcDbPolyline
 90
2
 70
0
 10
1653.060000
 20
2683.767764
 30
0.0
 10
1653.060000
 20
2683.767764
 30
0.0
  0
SPLINE
  5
50c
100
AcDbEntity
  8
Default
 62
7
100
AcDbSpline
 70
8
 71
3
 72
8
 73
4
 74
0
 40
0
 40
0
 40
0
 40
0
 40
1
 40
1
 40
1
 40
1
 10
2221.431360
 20
2398.560404
 30
0.0
 10
2168.913440
 20
2398.552404
 30
0.0
 10
2116.853600
 20
2400.769684
 30
0.0
 10
2064.516320
 20
2405.087764
 30
0.0
  0
SPLINE
  5
50d
100
AcDbEntity
  8
Default
 62
7
100
AcDbSpline
 70
8
 71
3
 72
8
 73
4
 74
0
 40
0
 40
0
 40
0
 40
0
 40
1
 40
1
 40
1
 40
1
 10
2064.516320
 20
2405.087764
 30
0.0
 10
2012.266720
 20
2409.398564
 30
0.0
 10
1960.386800
 20
2415.753124
 30
0.0
 10
1908.592800
 20
2423.833284
 30
0.0
  0
SPLINE
  5
50e
100
AcDbEntity
  8
Default
 62
7
100
AcDbSpline
 70
8
 71
3
 72
8
 73
4
 74
0
 40
0
 40
0
 40
0
 40
0
 40
1
 40
1
 40
1
 40
1
 10
1908.592800
 20
2423.833284
 30
0.0
 10
1807.646400
 20
2439.581444
 30
0.0
 10
1706.615280
 20
2461.973684
 30
0.0
 10
1607.816560
 20
2487.930804
 30
0.0
  0
LWPOLYLINE
  5
50f
100
AcDbEntity
  8
Default
 62
7
100
AcDbPolyline
 90
2
 70
0
 10
1630.084480
 20
2599.457524
 30
0.0
 10
1630.084480
 20
2599.457524
 30
0.0
  0
SPLINE
  5
510
100
AcDbEntity
  8
Default
 62
7
100
AcDbSpline
 70
8
 71
3
 72
8
 73
4
 74
0
 40
0
 40
0
 40
0
 40
0
 40
1
 40
1
 40
1
 40
1
 10
1607.816560
 20
2487.930804
 30
0.0
 10
1706.615280
 20
2461.973684
 30
0.0
 10
1807.646400
 20
2439.581444
 30
0.0
 10
1908.592800
 20
2423.833284
 30
0.0
  0
SPLINE
  5
511
100
AcDbEntity
  8
Default
 62
7
100
AcDbSpline
 70
8
 71
3
 72
8
 73
4
 74
0
 40
0
 40
0
 40
0
 40
0
 40
1
 40
1
 40
1
 40
1
 10
1908.592800
 20
2423.833284
 30
0.0
 10
1960.386800
 20
2415.753124
 30
0.0
 10
2012.266720
 20
2409.398564
 30
0.0
 10
2064.516320
 20
2405.087764
 30
0.0
  0
SPLINE
  5
512
100
AcDbEntity
  8
Default
 62
7
100
AcDbSpline
 70
8
 71
3
 72
8
 73
4
 74
0
 40
0
 40
0
 40
0
 40
0
 40
1
 40
1
 40
1
 40
1
 10
2064.516320
 20
2405.087764
 30
0.0
 10
2116.853600
 20
2400.769684
 30
0.0
 10
2168.913440
 20
2398.554084
 30
0.0
 10
2221.431360
 20
2398.560404
 30
0.0
  0
LWPOLYLINE
  5
513
100
AcDbEntity
  8
Default
 62
7
100
AcDbPolyline
 90
2
 70
0
 10
2221.431360
 20
2398.560404
 30
0.0
 10
2221.431360
 20
2398.560404
 30
0.0
  0
LWPOLYLINE
  5
514
100
AcDbEntity
  8
Default
 62
7
100
AcDbPolyline
 90
2
 70
0
 10
1607.816560
 20
2487.930804
 30
0.0
 10
1607.816560
 20
2487.930804
 30
0.0
  0
SPLINE
  5
515
100
AcDbEntity
  8
Default
 62
7
100
AcDbSpline
 70
8
 71
3
 72
8
 73
4
 74
0
 40
0
 40
0
 40
0
 40
0
 40
1
 40
1
 40
1
 40
1
 10
2221.431360
 20
2398.560404
 30
0.0
 10
2273.946480
 20
2398.568404
 30
0.0
 10
2326.009520
 20
2400.794964
 30
0.0
 10
2378.343440
 20
2405.119364
 30
0.0
  0
SPLINE
  5
516
100
AcDbEntity
  8
Default
 62
7
100
AcDbSpline
 70
8
 71
3
 72
8
 73
4
 74
0
 40
0
 40
0
 40
0
 40
0
 40
1
 40
1
 40
1
 40
1
 10
2378.343440
 20
2405.119364
 30
0.0
 10
2430.588160
 20
2409.436404
 30
0.0
 10
2482.474400
 20
2415.792404
 30
0.0
 10
2534.264800
 20
2423.867764
 30
0.0
  0
SPLINE
  5
517
100
AcDbEntity
  8
Default
 62
7
100
AcDbSpline
 70
8
 71
3
 72
8
 73
4
 74
0
 40
0
 40
0
 40
0
 40
0
 40
1
 40
1
 40
1
 40
1
 10
2534.264800
 20
2423.867764
 30
0.0
 10
2635.210560
 20
2439.607684
 30
0.0
 10
2736.248240
 20
2461.974964
 30
0.0
 10
2835.046240
 20
2487.930804
 30
0.0
  0
LWPOLYLINE
  5
518
100
AcDbEntity
  8
Default
 62
7
100
AcDbPolyline
 90
2
 70
0
 10
1908.592800
 20
2423.833284
 30
0.0
 10
1908.592800
 20
2423.833284
 30
0.0
  0
SPLINE
  5
519
100
AcDbEntity
  8
Default
 62
7
100
AcDbSpline
 70
8
 71
3
 72
8
 73
4
 74
0
 40
0
 40
0
 40
0
 40
0
 40
1
 40
1
 40
1
 40
1
 10
2835.046240
 20
2487.930804
 30
0.0
 10
2736.248240
 20
2461.974964
 30
0.0
 10
2635.210560
 20
2439.607684
 30
0.0
 10
2534.264800
 20
2423.867764
 30
0.0
  0
SPLINE
  5
51a
100
AcDbEntity
  8
Default
 62
7
100
AcDbSpline
 70
8
 71
3
 72
8
 73
4
 74
0
 40
0
 40
0
 40
0
 40
0
 40
1
 40
1
 40
1
 40
1
 10
2534.264800
 20
2423.867764
 30
0.0
 10
2482.474400
 20
2415.792404
 30
0.0
 10
2430.588160
 20
2409.436404
 30
0.0
 10
2378.343440
 20
2405.119364
 30
0.0
  0
SPLINE
  5
51b
100
AcDbEntity
  8
Default
 62
7
100
AcDbSpline
 70
8
 71
3
 72
8
 73
4
 74
0
 40
0
 40
0
 40
0
 40
0
 40
1
 40
1
 40
1
 40
1
 10
2378.343440
 20
2405.119364
 30
0.0
 10
2326.009520
 20
2400.794964
 30
0.0
 10
2273.946480
 20
2398.566804
 30
0.0
 10
2221.431360
 20
2398.560404
 30
0.0
  0
LWPOLYLINE
  5
51c
100
AcDbEntity
  8
Default
 62
7
100
AcDbPolyline
 90
2
 70
0
 10
2064.516320
 20
2405.087764
 30
0.0
 10
2064.516320
 20
2405.087764
 30
0.0
  0
SPLINE
  5
51d
100
AcDbEntity
  8
Default
 62
7
100
AcDbSpline
 70
8
 71
3
 72
8
 73
4
 74
0
 40
0
 40
0
 40
0
 40
0
 40
1
 40
1
 40
1
 40
1
 10
2221.431360
 20
2398.560404
 30
0.0
 10
2273.946480
 20
2398.568404
 30
0.0
 10
2326.009520
 20
2400.794964
 30
0.0
 10
2378.343440
 20
2405.119364
 30
0.0
  0
SPLINE
  5
51e
100
AcDbEntity
  8
Default
 62
7
100
AcDbSpline
 70
8
 71
3
 72
8
 73
4
 74
0
 40
0
 40
0
 40
0
 40
0
 40
1
 40
1
 40
1
 40
1
 10
2378.343440
 20
2405.119364
 30
0.0
 10
2430.588160
 20
2409.436404
 30
0.0
 10
2482.474400
 20
2415.792404
 30
0.0
 10
2534.264800
 20
2423.867764
 30
0.0
  0
SPLINE
  5
51f
100
AcDbEntity
  8
Default
 62
7
100
AcDbSpline
 70
8
 71
3
 72
8
 73
4
 74
0
 40
0
 40
0
 40
0
 40
0
 40
1
 40
1
 40
1
 40
1
 10
2534.264800
 20
2423.867764
 30
0.0
 10
2635.210560
 20
2439.607684
 30
0.0
 10
2736.248240
 20
2461.974964
 30
0.0
 10
2835.046240
 20
2487.930804
 30
0.0
  0
LWPOLYLINE
  5
520
100
AcDbEntity
  8
Default
 62
7
100
AcDbPolyline
 90
2
 70
0
 10
2835.046240
 20
2487.930804
 30
0.0
 10
2835.046240
 20
2487.930804
 30
0.0
  0
LWPOLYLINE
  5
521
100
AcDbEntity
  8
Default
 62
7
100
AcDbPolyline
 90
2
 70
0
 10
2221.431360
 20
2398.560404
 30
0.0
 10
2221.431360
 20
2398.560404
 30
0.0
  0
SPLINE
  5
522
100
AcDbEntity
  8
Default
 62
7
100
AcDbSpline
 70
8
 71
3
 72
8
 73
4
 74
0
 40
0
 40
0
 40
0
 40
0
 40
1
 40
1
 40
1
 40
1
 10
2503.394560
 20
2067.491204
 30
0.0
 10
2460.303440
 20
2044.506484
 30
0.0
 10
2414.565120
 20
2023.690484
 30
0.0
 10
2367.884320
 20
2008.789524
 30
0.0
  0
SPLINE
  5
523
100
AcDbEntity
  8
Default
 62
7
100
AcDbSpline
 70
8
 71
3
 72
8
 73
4
 74
0
 40
0
 40
0
 40
0
 40
0
 40
1
 40
1
 40
1
 40
1
 10
2367.884320
 20
2008.789524
 30
0.0
 10
2320.141440
 20
1993.549604
 30
0.0
 10
2271.830160
 20
1984.583204
 30
0.0
 10
2221.431360
 20
1984.570404
 30
0.0
  0
SPLINE
  5
524
100
AcDbEntity
  8
Default
 62
7
100
AcDbSpline
 70
8
 71
3
 72
8
 73
4
 74
0
 40
0
 40
0
 40
0
 40
0
 40
1
 40
1
 40
1
 40
1
 10
2503.394560
 20
2067.491204
 30
0.0
 10
2503.529280
 20
2119.165764
 30
0.0
 10
2503.180000
 20
2170.036724
 30
0.0
 10
2502.279280
 20
2219.907444
 30
0.0
  0
SPLINE
  5
525
100
AcDbEntity
  8
Default
 62
7
100
AcDbSpline
 70
8
 71
3
 72
8
 73
4
 74
0
 40
0
 40
0
 40
0
 40
0
 40
1
 40
1
 40
1
 40
1
 10
2502.279280
 20
2219.907444
 30
0.0
 10
2501.378400
 20
2269.778004
 30
0.0
 10
2499.927680
 20
2318.639044
 30
0.0
 10
2497.845200
 20
2366.240644
 30
0.0
  0
SPLINE
  5
526
100
AcDbEntity
  8
Default
 62
7
100
AcDbSpline
 70
8
 71
3
 72
8
 73
4
 74
0
 40
0
 40
0
 40
0
 40
0
 40
1
 40
1
 40
1
 40
1
 10
2497.845200
 20
2366.240644
 30
0.0
 10
2613.733120
 20
2381.852564
 30
0.0
 10
2729.728080
 20
2406.294964
 30
0.0
 10
2842.850560
 20
2435.290164
 30
0.0
  0
SPLINE
  5
527
100
AcDbEntity
  8
Default
 62
7
100
AcDbSpline
 70
8
 71
3
 72
8
 73
4
 74
0
 40
0
 40
0
 40
0
 40
0
 40
1
 40
1
 40
1
 40
1
 10
2221.431360
 20
1984.570404
 30
0.0
 10
2330.529600
 20
1984.581604
 30
0.0
 10
2437.088640
 20
1992.677764
 30
0.0
 10
2545.105760
 20
2007.429684
 30
0.0
  0
SPLINE
  5
528
100
AcDbEntity
  8
Default
 62
7
100
AcDbSpline
 70
8
 71
3
 72
8
 73
4
 74
0
 40
0
 40
0
 40
0
 40
0
 40
1
 40
1
 40
1
 40
1
 10
2545.105760
 20
2007.429684
 30
0.0
 10
2651.888880
 20
2022.013124
 30
0.0
 10
2758.652240
 20
2042.928484
 30
0.0
 10
2863.515760
 20
2067.491204
 30
0.0
  0
SPLINE
  5
529
100
AcDbEntity
  8
Default
 62
7
100
AcDbSpline
 70
8
 71
3
 72
8
 73
4
 74
0
 40
0
 40
0
 40
0
 40
0
 40
1
 40
1
 40
1
 40
1
 10
2842.850560
 20
2435.290164
 30
0.0
 10
2843.236560
 20
2432.403444
 30
0.0
 10
2843.616080
 20
2429.515044
 30
0.0
 10
2843.989360
 20
2426.625204
 30
0.0
  0
SPLINE
  5
52a
100
AcDbEntity
  8
Default
 62
7
100
AcDbSpline
 70
8
 71
3
 72
8
 73
4
 74
0
 40
0
 40
0
 40
0
 40
0
 40
1
 40
1
 40
1
 40
1
 10
2843.989360
 20
2426.625204
 30
0.0
 10
2851.492080
 20
2368.535124
 30
0.0
 10
2856.448160
 20
2309.808084
 30
0.0
 10
2859.515680
 20
2251.187524
 30
0.0
  0
SPLINE
  5
52b
100
AcDbEntity
  8
Default
 62
7
100
AcDbSpline
 70
8
 71
3
 72
8
 73
4
 74
0
 40
0
 40
0
 40
0
 40
0
 40
1
 40
1
 40
1
 40
1
 10
2859.515680
 20
2251.187524
 30
0.0
 10
2862.583520
 20
2192.561844
 30
0.0
 10
2863.780080
 20
2133.636564
 30
0.0
 10
2863.552400
 20
2074.958724
 30
0.0
  0
SPLINE
  5
52c
100
AcDbEntity
  8
Default
 62
7
100
AcDbSpline
 70
8
 71
3
 72
8
 73
4
 74
0
 40
0
 40
0
 40
0
 40
0
 40
1
 40
1
 40
1
 40
1
 10
2863.552400
 20
2074.958724
 30
0.0
 10
2863.543600
 20
2072.469764
 30
0.0
 10
2863.530000
 20
2069.980484
 30
0.0
 10
2863.515600
 20
2067.491204
 30
0.0
  0
SPLINE
  5
52d
100
AcDbEntity
  8
Default
 62
7
100
AcDbSpline
 70
8
 71
3
 72
8
 73
4
 74
0
 40
0
 40
0
 40
0
 40
0
 40
1
 40
1
 40
1
 40
1
 10
2221.431360
 20
1984.570404
 30
0.0
 10
2171.028400
 20
1984.556804
 30
0.0
 10
2122.748960
 20
1993.500004
 30
0.0
 10
2075.002480
 20
2008.746004
 30
0.0
  0
SPLINE
  5
52e
100
AcDbEntity
  8
Default
 62
7
100
AcDbSpline
 70
8
 71
3
 72
8
 73
4
 74
0
 40
0
 40
0
 40
0
 40
0
 40
1
 40
1
 40
1
 40
1
 10
2075.002480
 20
2008.746004
 30
0.0
 10
2028.313200
 20
2023.654404
 30
0.0
 10
1982.564800
 20
2044.498244
 30
0.0
 10
1939.468160
 20
2067.490404
 30
0.0
  0
SPLINE
  5
52f
100
AcDbEntity
  8
Default
 62
7
100
AcDbSpline
 70
8
 71
3
 72
8
 73
4
 74
0
 40
0
 40
0
 40
0
 40
0
 40
1
 40
1
 40
1
 40
1
 10
1939.468160
 20
2067.490404
 30
0.0
 10
1939.335760
 20
2118.287364
 30
0.0
 10
1939.664320
 20
2169.057124
 30
0.0
 10
1940.582720
 20
2219.875364
 30
0.0
  0
SPLINE
  5
530
100
AcDbEntity
  8
Default
 62
7
100
AcDbSpline
 70
8
 71
3
 72
8
 73
4
 74
0
 40
0
 40
0
 40
0
 40
0
 40
1
 40
1
 40
1
 40
1
 10
1940.582720
 20
2219.875364
 30
0.0
 10
1941.465280
 20
2268.714324
 30
0.0
 10
1942.883920
 20
2317.461364
 30
0.0
 10
1945.015920
 20
2366.203284
 30
0.0
  0
SPLINE
  5
531
100
AcDbEntity
  8
Default
 62
7
100
AcDbSpline
 70
8
 71
3
 72
8
 73
4
 74
0
 40
0
 40
0
 40
0
 40
0
 40
1
 40
1
 40
1
 40
1
 10
1945.015920
 20
2366.203284
 30
0.0
 10
1886.677360
 20
2374.064004
 30
0.0
 10
1828.809600
 20
2384.082724
 30
0.0
 10
1771.135520
 20
2395.797284
 30
0.0
  0
SPLINE
  5
532
100
AcDbEntity
  8
Default
 62
7
100
AcDbSpline
 70
8
 71
3
 72
8
 73
4
 74
0
 40
0
 40
0
 40
0
 40
0
 40
1
 40
1
 40
1
 40
1
 10
1771.135520
 20
2395.797284
 30
0.0
 10
1742.399200
 20
2401.634164
 30
0.0
 10
1713.761200
 20
2407.881604
 30
0.0
 10
1685.194880
 20
2414.492724
 30
0.0
  0
SPLINE
  5
533
100
AcDbEntity
  8
Default
 62
7
100
AcDbSpline
 70
8
 71
3
 72
8
 73
4
 74
0
 40
0
 40
0
 40
0
 40
0
 40
1
 40
1
 40
1
 40
1
 10
1685.194880
 20
2414.492724
 30
0.0
 10
1656.714240
 20
2421.084004
 30
0.0
 10
1628.328000
 20
2428.031764
 30
0.0
 10
1600.012160
 20
2435.290084
 30
0.0
  0
SPLINE
  5
534
100
AcDbEntity
  8
Default
 62
7
100
AcDbSpline
 70
8
 71
3
 72
8
 73
4
 74
0
 40
0
 40
0
 40
0
 40
0
 40
1
 40
1
 40
1
 40
1
 10
1579.346960
 20
2067.490404
 30
0.0
 10
1684.212960
 20
2042.922324
 30
0.0
 10
1790.965120
 20
2021.983924
 30
0.0
 10
1897.752160
 20
2007.393844
 30
0.0
  0
SPLINE
  5
535
100
AcDbEntity
  8
Default
 62
7
100
AcDbSpline
 70
8
 71
3
 72
8
 73
4
 74
0
 40
0
 40
0
 40
0
 40
0
 40
1
 40
1
 40
1
 40
1
 10
1897.752160
 20
2007.393844
 30
0.0
 10
2005.794400
 20
1992.632404
 30
0.0
 10
2112.307680
 20
1984.558244
 30
0.0
 10
2221.431360
 20
1984.570404
 30
0.0
  0
SPLINE
  5
536
100
AcDbEntity
  8
Default
 62
7
100
AcDbSpline
 70
8
 71
3
 72
8
 73
4
 74
0
 40
0
 40
0
 40
0
 40
0
 40
1
 40
1
 40
1
 40
1
 10
1600.012160
 20
2435.290084
 30
0.0
 10
1599.626160
 20
2432.403364
 30
0.0
 10
1599.246640
 20
2429.515044
 30
0.0
 10
1598.873360
 20
2426.625204
 30
0.0
  0
SPLINE
  5
537
100
AcDbEntity
  8
Default
 62
7
100
AcDbSpline
 70
8
 71
3
 72
8
 73
4
 74
0
 40
0
 40
0
 40
0
 40
0
 40
1
 40
1
 40
1
 40
1
 10
1598.873360
 20
2426.625204
 30
0.0
 10
1591.370640
 20
2368.535124
 30
0.0
 10
1586.414560
 20
2309.808084
 30
0.0
 10
1583.347040
 20
2251.187524
 30
0.0
  0
SPLINE
  5
538
100
AcDbEntity
  8
Default
 62
7
100
AcDbSpline
 70
8
 71
3
 72
8
 73
4
 74
0
 40
0
 40
0
 40
0
 40
0
 40
1
 40
1
 40
1
 40
1
 10
1583.347040
 20
2251.187524
 30
0.0
 10
1580.279200
 20
2192.561844
 30
0.0
 10
1579.082640
 20
2133.636564
 30
0.0
 10
1579.310320
 20
2074.958724
 30
0.0
  0
SPLINE
  5
539
100
AcDbEntity
  8
Default
 62
7
100
AcDbSpline
 70
8
 71
3
 72
8
 73
4
 74
0
 40
0
 40
0
 40
0
 40
0
 40
1
 40
1
 40
1
 40
1
 10
1579.310320
 20
2074.958724
 30
0.0
 10
1579.319120
 20
2072.469444
 30
0.0
 10
1579.332720
 20
2069.980004
 30
0.0
 10
1579.347120
 20
2067.490404
 30
0.0
  0
SPLINE
  5
53a
100
AcDbEntity
  8
Default
 62
7
100
AcDbSpline
 70
8
 71
3
 72
8
 73
4
 74
0
 40
0
 40
0
 40
0
 40
0
 40
1
 40
1
 40
1
 40
1
 10
2461.600560
 20
1091.097004
 30
0.0
 10
2466.206160
 20
1159.442780
 30
0.0
 10
2470.619040
 20
1226.837348
 30
0.0
 10
2474.700240
 20
1293.118076
 30
0.0
  0
SPLINE
  5
53b
100
AcDbEntity
  8
Default
 62
7
100
AcDbSpline
 70
8
 71
3
 72
8
 73
4
 74
0
 40
0
 40
0
 40
0
 40
0
 40
1
 40
1
 40
1
 40
1
 10
2474.700240
 20
1293.118076
 30
0.0
 10
2478.781280
 20
1359.397988
 30
0.0
 10
2482.532480
 20
1424.566988
 30
0.0
 10
2485.870320
 20
1488.665588
 30
0.0
  0
SPLINE
  5
53c
100
AcDbEntity
  8
Default
 62
7
100
AcDbSpline
 70
8
 71
3
 72
8
 73
4
 74
0
 40
0
 40
0
 40
0
 40
0
 40
1
 40
1
 40
1
 40
1
 10
2485.870320
 20
1488.665588
 30
0.0
 10
2602.085680
 20
1504.292532
 30
0.0
 10
2718.337440
 20
1529.212652
 30
0.0
 10
2831.599280
 20
1558.856692
 30
0.0
  0
SPLINE
  5
53d
100
AcDbEntity
  8
Default
 62
7
100
AcDbSpline
 70
8
 71
3
 72
8
 73
4
 74
0
 40
0
 40
0
 40
0
 40
0
 40
1
 40
1
 40
1
 40
1
 10
2221.431360
 20
1018.593732
 30
0.0
 10
2314.123360
 20
1018.605092
 30
0.0
 10
2404.881280
 20
1025.557660
 30
0.0
 10
2496.621200
 20
1038.341052
 30
0.0
  0
SPLINE
  5
53e
100
AcDbEntity
  8
Default
 62
7
100
AcDbSpline
 70
8
 71
3
 72
8
 73
4
 74
0
 40
0
 40
0
 40
0
 40
0
 40
1
 40
1
 40
1
 40
1
 10
2496.621200
 20
1038.341052
 30
0.0
 10
2587.858960
 20
1051.054460
 30
0.0
 10
2678.897280
 20
1069.385772
 30
0.0
 10
2768.342720
 20
1091.096868
 30
0.0
  0
SPLINE
  5
53f
100
AcDbEntity
  8
Default
 62
7
100
AcDbSpline
 70
8
 71
3
 72
8
 73
4
 74
0
 40
0
 40
0
 40
0
 40
0
 40
1
 40
1
 40
1
 40
1
 10
2461.600560
 20
1091.097004
 30
0.0
 10
2424.716720
 20
1070.709436
 30
0.0
 10
2385.457040
 20
1052.326444
 30
0.0
 10
2345.198640
 20
1039.277956
 30
0.0
  0
SPLINE
  5
540
100
AcDbEntity
  8
Default
 62
7
100
AcDbSpline
 70
8
 71
3
 72
8
 73
4
 74
0
 40
0
 40
0
 40
0
 40
0
 40
1
 40
1
 40
1
 40
1
 10
2345.198640
 20
1039.277956
 30
0.0
 10
2304.915760
 20
1026.221532
 30
0.0
 10
2264.014800
 20
1018.605524
 30
0.0
 10
2221.431360
 20
1018.593732
 30
0.0
  0
SPLINE
  5
541
100
AcDbEntity
  8
Default
 62
7
100
AcDbSpline
 70
8
 71
3
 72
8
 73
4
 74
0
 40
0
 40
0
 40
0
 40
0
 40
1
 40
1
 40
1
 40
1
 10
2831.599280
 20
1558.856692
 30
0.0
 10
2831.347200
 20
1556.542124
 30
0.0
 10
2831.094080
 20
1554.227900
 30
0.0
 10
2830.839760
 20
1551.914036
 30
0.0
  0
SPLINE
  5
542
100
AcDbEntity
  8
Default
 62
7
100
AcDbSpline
 70
8
 71
3
 72
8
 73
4
 74
0
 40
0
 40
0
 40
0
 40
0
 40
1
 40
1
 40
1
 40
1
 10
2830.839760
 20
1551.914036
 30
0.0
 10
2827.664560
 20
1523.023076
 30
0.0
 10
2824.311920
 20
1494.153868
 30
0.0
 10
2820.804400
 20
1465.306244
 30
0.0
  0
SPLINE
  5
543
100
AcDbEntity
  8
Default
 62
7
100
AcDbSpline
 70
8
 71
3
 72
8
 73
4
 74
0
 40
0
 40
0
 40
0
 40
0
 40
1
 40
1
 40
1
 40
1
 10
2820.804400
 20
1465.306244
 30
0.0
 10
2817.296800
 20
1436.457828
 30
0.0
 10
2813.633760
 20
1407.627420
 30
0.0
 10
2809.838080
 20
1378.813356
 30
0.0
  0
SPLINE
  5
544
100
AcDbEntity
  8
Default
 62
7
100
AcDbSpline
 70
8
 71
3
 72
8
 73
4
 74
0
 40
0
 40
0
 40
0
 40
0
 40
1
 40
1
 40
1
 40
1
 10
2809.838080
 20
1378.813356
 30
0.0
 10
2802.312560
 20
1321.686108
 30
0.0
 10
2794.262400
 20
1264.609500
 30
0.0
 10
2785.874800
 20
1207.563388
 30
0.0
  0
SPLINE
  5
545
100
AcDbEntity
  8
Default
 62
7
100
AcDbSpline
 70
8
 71
3
 72
8
 73
4
 74
0
 40
0
 40
0
 40
0
 40
0
 40
1
 40
1
 40
1
 40
1
 10
2785.874800
 20
1207.563388
 30
0.0
 10
2780.166160
 20
1168.736796
 30
0.0
 10
2774.299840
 20
1129.917020
 30
0.0
 10
2768.342720
 20
1091.096868
 30
0.0
  0
SPLINE
  5
546
100
AcDbEntity
  8
Default
 62
7
100
AcDbSpline
 70
8
 71
3
 72
8
 73
4
 74
0
 40
0
 40
0
 40
0
 40
0
 40
1
 40
1
 40
1
 40
1
 10
2827.900000
 20
1525.611628
 30
0.0
 10
2783.059760
 20
1525.611628
 30
0.0
 10
2738.219520
 20
1525.611628
 30
0.0
 10
2693.379280
 20
1525.611628
 30
0.0
  0
SPLINE
  5
547
100
AcDbEntity
  8
Default
 62
7
100
AcDbSpline
 70
8
 71
3
 72
8
 73
4
 74
0
 40
0
 40
0
 40
0
 40
0
 40
1
 40
1
 40
1
 40
1
 10
1674.520720
 20
1091.092676
 30
0.0
 10
1763.967360
 20
1069.372012
 30
0.0
 10
1854.996560
 20
1051.021124
 30
0.0
 10
1946.238320
 20
1038.304044
 30
0.0
  0
SPLINE
  5
548
100
AcDbEntity
  8
Default
 62
7
100
AcDbSpline
 70
8
 71
3
 72
8
 73
4
 74
0
 40
0
 40
0
 40
0
 40
0
 40
1
 40
1
 40
1
 40
1
 10
1946.238320
 20
1038.304044
 30
0.0
 10
2037.996800
 20
1025.514940
 30
0.0
 10
2128.720960
 20
1018.582436
 30
0.0
 10
2221.431360
 20
1018.593732
 30
0.0
  0
SPLINE
  5
549
100
AcDbEntity
  8
Default
 62
7
100
AcDbSpline
 70
8
 71
3
 72
8
 73
4
 74
0
 40
0
 40
0
 40
0
 40
0
 40
1
 40
1
 40
1
 40
1
 10
1611.263440
 20
1558.856628
 30
0.0
 10
1724.531920
 20
1529.208932
 30
0.0
 10
1840.769520
 20
1504.257884
 30
0.0
 10
1956.994400
 20
1488.627580
 30
0.0
  0
SPLINE
  5
54a
100
AcDbEntity
  8
Default
 62
7
100
AcDbSpline
 70
8
 71
3
 72
8
 73
4
 74
0
 40
0
 40
0
 40
0
 40
0
 40
1
 40
1
 40
1
 40
1
 10
1981.262480
 20
1091.092788
 30
0.0
 10
1976.657200
 20
1159.432532
 30
0.0
 10
1972.244720
 20
1226.821268
 30
0.0
 10
1968.163840
 20
1293.096372
 30
0.0
  0
SPLINE
  5
54b
100
AcDbEntity
  8
Default
 62
7
100
AcDbSpline
 70
8
 71
3
 72
8
 73
4
 74
0
 40
0
 40
0
 40
0
 40
0
 40
1
 40
1
 40
1
 40
1
 10
1968.163840
 20
1293.096372
 30
0.0
 10
1964.083040
 20
1359.370684
 30
0.0
 10
1960.332080
 20
1424.534292
 30
0.0
 10
1956.994400
 20
1488.627580
 30
0.0
  0
SPLINE
  5
54c
100
AcDbEntity
  8
Default
 62
7
100
AcDbSpline
 70
8
 71
3
 72
8
 73
4
 74
0
 40
0
 40
0
 40
0
 40
0
 40
1
 40
1
 40
1
 40
1
 10
2221.431360
 20
1018.593732
 30
0.0
 10
2178.839600
 20
1018.582372
 30
0.0
 10
2137.957040
 20
1026.177476
 30
0.0
 10
2097.666320
 20
1039.240020
 30
0.0
  0
SPLINE
  5
54d
100
AcDbEntity
  8
Default
 62
7
100
AcDbSpline
 70
8
 71
3
 72
8
 73
4
 74
0
 40
0
 40
0
 40
0
 40
0
 40
1
 40
1
 40
1
 40
1
 10
2097.666320
 20
1039.240020
 30
0.0
 10
2057.405920
 20
1052.292748
 30
0.0
 10
2018.143840
 20
1070.697876
 30
0.0
 10
1981.262480
 20
1091.092788
 30
0.0
  0
SPLINE
  5
54e
100
AcDbEntity
  8
Default
 62
7
100
AcDbSpline
 70
8
 71
3
 72
8
 73
4
 74
0
 40
0
 40
0
 40
0
 40
0
 40
1
 40
1
 40
1
 40
1
 10
1611.263440
 20
1558.856628
 30
0.0
 10
1611.515520
 20
1556.542060
 30
0.0
 10
1611.768640
 20
1554.227852
 30
0.0
 10
1612.022960
 20
1551.914036
 30
0.0
  0
SPLINE
  5
54f
100
AcDbEntity
  8
Default
 62
7
100
AcDbSpline
 70
8
 71
3
 72
8
 73
4
 74
0
 40
0
 40
0
 40
0
 40
0
 40
1
 40
1
 40
1
 40
1
 10
1612.022960
 20
1551.914036
 30
0.0
 10
1615.198160
 20
1523.023076
 30
0.0
 10
1618.550800
 20
1494.153868
 30
0.0
 10
1622.058320
 20
1465.306244
 30
0.0
  0
SPLINE
  5
550
100
AcDbEntity
  8
Default
 62
7
100
AcDbSpline
 70
8
 71
3
 72
8
 73
4
 74
0
 40
0
 40
0
 40
0
 40
0
 40
1
 40
1
 40
1
 40
1
 10
1622.058320
 20
1465.306244
 30
0.0
 10
1625.566000
 20
1436.457828
 30
0.0
 10
1629.228960
 20
1407.627420
 30
0.0
 10
1633.024720
 20
1378.813356
 30
0.0
  0
SPLINE
  5
551
100
AcDbEntity
  8
Default
 62
7
100
AcDbSpline
 70
8
 71
3
 72
8
 73
4
 74
0
 40
0
 40
0
 40
0
 40
0
 40
1
 40
1
 40
1
 40
1
 10
1633.024720
 20
1378.813356
 30
0.0
 10
1640.550160
 20
1321.686108
 30
0.0
 10
1648.600320
 20
1264.609500
 30
0.0
 10
1656.987920
 20
1207.563388
 30
0.0
  0
SPLINE
  5
552
100
AcDbEntity
  8
Default
 62
7
100
AcDbSpline
 70
8
 71
3
 72
8
 73
4
 74
0
 40
0
 40
0
 40
0
 40
0
 40
1
 40
1
 40
1
 40
1
 10
1656.987920
 20
1207.563388
 30
0.0
 10
1662.696800
 20
1168.735388
 30
0.0
 10
1668.563280
 20
1129.914236
 30
0.0
 10
1674.520720
 20
1091.092676
 30
0.0
  0
SPLINE
  5
553
100
AcDbEntity
  8
Default
 62
7
100
AcDbSpline
 70
8
 71
3
 72
8
 73
4
 74
0
 40
0
 40
0
 40
0
 40
0
 40
1
 40
1
 40
1
 40
1
 10
1749.419280
 20
1525.611628
 30
0.0
 10
1704.600480
 20
1525.611628
 30
0.0
 10
1659.781600
 20
1525.611628
 30
0.0
 10
1614.962720
 20
1525.611628
 30
0.0
  0
SPLINE
  5
554
100
AcDbEntity
  8
Default
 62
7
100
AcDbSpline
 70
8
 71
3
 72
8
 73
4
 74
0
 40
0
 40
0
 40
0
 40
0
 40
1
 40
1
 40
1
 40
1
 10
2423.005280
 20
498.748740
 30
0.0
 10
2425.201040
 20
538.680868
 30
0.0
 10
2427.558240
 20
578.857868
 30
0.0
 10
2430.032480
 20
619.152020
 30
0.0
  0
SPLINE
  5
555
100
AcDbEntity
  8
Default
 62
7
100
AcDbSpline
 70
8
 71
3
 72
8
 73
4
 74
0
 40
0
 40
0
 40
0
 40
0
 40
1
 40
1
 40
1
 40
1
 10
2430.032480
 20
619.152020
 30
0.0
 10
2432.507280
 20
659.454148
 30
0.0
 10
2435.099200
 20
699.869932
 30
0.0
 10
2437.758880
 20
740.265564
 30
0.0
  0
SPLINE
  5
556
100
AcDbEntity
  8
Default
 62
7
100
AcDbSpline
 70
8
 71
3
 72
8
 73
4
 74
0
 40
0
 40
0
 40
0
 40
0
 40
1
 40
1
 40
1
 40
1
 10
2437.758880
 20
740.265564
 30
0.0
 10
2443.076560
 20
821.032034
 30
0.0
 10
2448.657920
 20
901.688633
 30
0.0
 10
2454.123920
 20
981.347756
 30
0.0
  0
SPLINE
  5
557
100
AcDbEntity
  8
Default
 62
7
100
AcDbSpline
 70
8
 71
3
 72
8
 73
4
 74
0
 40
0
 40
0
 40
0
 40
0
 40
1
 40
1
 40
1
 40
1
 10
2454.123920
 20
981.347756
 30
0.0
 10
2556.973200
 20
993.659396
 30
0.0
 10
2659.483040
 20
1013.461164
 30
0.0
 10
2760.085200
 20
1037.617988
 30
0.0
  0
SPLINE
  5
558
100
AcDbEntity
  8
Default
 62
7
100
AcDbSpline
 70
8
 71
3
 72
8
 73
4
 74
0
 40
0
 40
0
 40
0
 40
0
 40
1
 40
1
 40
1
 40
1
 10
2221.431280
 20
446.313420
 30
0.0
 10
2298.873840
 20
446.322460
 30
0.0
 10
2375.155680
 20
451.177268
 30
0.0
 10
2452.031920
 20
460.303620
 30
0.0
  0
SPLINE
  5
559
100
AcDbEntity
  8
Default
 62
7
100
AcDbSpline
 70
8
 71
3
 72
8
 73
4
 74
0
 40
0
 40
0
 40
0
 40
0
 40
1
 40
1
 40
1
 40
1
 10
2452.031920
 20
460.303620
 30
0.0
 10
2528.722320
 20
469.407916
 30
0.0
 10
2604.960400
 20
482.644348
 30
0.0
 10
2680.453920
 20
498.748716
 30
0.0
  0
SPLINE
  5
55a
100
AcDbEntity
  8
Default
 62
7
100
AcDbSpline
 70
8
 71
3
 72
8
 73
4
 74
0
 40
0
 40
0
 40
0
 40
0
 40
1
 40
1
 40
1
 40
1
 10
2423.005280
 20
498.748740
 30
0.0
 10
2391.470720
 20
483.429996
 30
0.0
 10
2358.461440
 20
470.131588
 30
0.0
 10
2324.563600
 20
460.812540
 30
0.0
  0
SPLINE
  5
55b
100
AcDbEntity
  8
Default
 62
7
100
AcDbSpline
 70
8
 71
3
 72
8
 73
4
 74
0
 40
0
 40
0
 40
0
 40
0
 40
1
 40
1
 40
1
 40
1
 10
2324.563600
 20
460.812540
 30
0.0
 10
2290.749280
 20
451.516468
 30
0.0
 10
2256.598720
 20
446.323148
 30
0.0
 10
2221.431280
 20
446.313420
 30
0.0
  0
SPLINE
  5
55c
100
AcDbEntity
  8
Default
 62
7
100
AcDbSpline
 70
8
 71
3
 72
8
 73
4
 74
0
 40
0
 40
0
 40
0
 40
0
 40
1
 40
1
 40
1
 40
1
 10
2760.085200
 20
1037.617988
 30
0.0
 10
2760.024400
 20
1037.224220
 30
0.0
 10
2759.962960
 20
1036.830460
 30
0.0
 10
2759.901760
 20
1036.436692
 30
0.0
  0
SPLINE
  5
55d
100
AcDbEntity
  8
Default
 62
7
100
AcDbSpline
 70
8
 71
3
 72
8
 73
4
 74
0
 40
0
 40
0
 40
0
 40
0
 40
1
 40
1
 40
1
 40
1
 10
2759.901760
 20
1036.436692
 30
0.0
 10
2751.032400
 20
979.312388
 30
0.0
 10
2742.068960
 20
922.401844
 30
0.0
 10
2733.179040
 20
865.208377
 30
0.0
  0
SPLINE
  5
55e
100
AcDbEntity
  8
Default
 62
7
100
AcDbSpline
 70
8
 71
3
 72
8
 73
4
 74
0
 40
0
 40
0
 40
0
 40
0
 40
1
 40
1
 40
1
 40
1
 10
2733.179040
 20
865.208377
 30
0.0
 10
2724.295360
 20
808.055094
 30
0.0
 10
2715.538400
 20
750.959212
 30
0.0
 10
2707.139360
 20
693.671084
 30
0.0
  0
SPLINE
  5
55f
100
AcDbEntity
  8
Default
 62
7
100
AcDbSpline
 70
8
 71
3
 72
8
 73
4
 74
0
 40
0
 40
0
 40
0
 40
0
 40
1
 40
1
 40
1
 40
1
 10
2707.139360
 20
693.671084
 30
0.0
 10
2698.731120
 20
636.320444
 30
0.0
 10
2690.729040
 20
579.097228
 30
0.0
 10
2683.346800
 20
521.566796
 30
0.0
  0
SPLINE
  5
560
100
AcDbEntity
  8
Default
 62
7
100
AcDbSpline
 70
8
 71
3
 72
8
 73
4
 74
0
 40
0
 40
0
 40
0
 40
0
 40
1
 40
1
 40
1
 40
1
 10
2683.346800
 20
521.566796
 30
0.0
 10
2682.369840
 20
513.953644
 30
0.0
 10
2681.405520
 20
506.348452
 30
0.0
 10
2680.453920
 20
498.748716
 30
0.0
  0
SPLINE
  5
561
100
AcDbEntity
  8
Default
 62
7
100
AcDbSpline
 70
8
 71
3
 72
8
 73
4
 74
0
 40
0
 40
0
 40
0
 40
0
 40
1
 40
1
 40
1
 40
1
 10
1762.410800
 20
498.732300
 30
0.0
 10
1837.909760
 20
482.615212
 30
0.0
 10
1914.130160
 20
469.369500
 30
0.0
 10
1990.829120
 20
460.266204
 30
0.0
  0
SPLINE
  5
562
100
AcDbEntity
  8
Default
 62
7
100
AcDbSpline
 70
8
 71
3
 72
8
 73
4
 74
0
 40
0
 40
0
 40
0
 40
0
 40
1
 40
1
 40
1
 40
1
 10
1990.829120
 20
460.266204
 30
0.0
 10
2067.716480
 20
451.140548
 30
0.0
 10
2143.978320
 20
446.304012
 30
0.0
 10
2221.431280
 20
446.313420
 30
0.0
  0
SPLINE
  5
563
100
AcDbEntity
  8
Default
 62
7
100
AcDbSpline
 70
8
 71
3
 72
8
 73
4
 74
0
 40
0
 40
0
 40
0
 40
0
 40
1
 40
1
 40
1
 40
1
 10
1682.778320
 20
1037.612868
 30
0.0
 10
1783.389760
 20
1013.442588
 30
0.0
 10
1885.878080
 20
993.620476
 30
0.0
 10
1988.741440
 20
981.309772
 30
0.0
  0
SPLINE
  5
564
100
AcDbEntity
  8
Default
 62
7
100
AcDbSpline
 70
8
 71
3
 72
8
 73
4
 74
0
 40
0
 40
0
 40
0
 40
0
 40
1
 40
1
 40
1
 40
1
 10
2019.858320
 20
498.732324
 30
0.0
 10
2017.662800
 20
538.662596
 30
0.0
 10
2015.305760
 20
578.837708
 30
0.0
 10
2012.831600
 20
619.129996
 30
0.0
  0
SPLINE
  5
565
100
AcDbEntity
  8
Default
 62
7
100
AcDbSpline
 70
8
 71
3
 72
8
 73
4
 74
0
 40
0
 40
0
 40
0
 40
0
 40
1
 40
1
 40
1
 40
1
 10
2012.831600
 20
619.129996
 30
0.0
 10
2010.356960
 20
659.430356
 30
0.0
 10
2007.765200
 20
699.844420
 30
0.0
 10
2005.105680
 20
740.238348
 30
0.0
  0
SPLINE
  5
566
100
AcDbEntity
  8
Default
 62
7
100
AcDbSpline
 70
8
 71
3
 72
8
 73
4
 74
0
 40
0
 40
0
 40
0
 40
0
 40
1
 40
1
 40
1
 40
1
 10
2005.105680
 20
740.238348
 30
0.0
 10
1999.788320
 20
821.001080
 30
0.0
 10
1994.207200
 20
901.654073
 30
0.0
 10
1988.741440
 20
981.309772
 30
0.0
  0
SPLINE
  5
567
100
AcDbEntity
  8
Default
 62
7
100
AcDbSpline
 70
8
 71
3
 72
8
 73
4
 74
0
 40
0
 40
0
 40
0
 40
0
 40
1
 40
1
 40
1
 40
1
 10
2221.431280
 20
446.313420
 30
0.0
 10
2186.257680
 20
446.304380
 30
0.0
 10
2152.116080
 20
451.479276
 30
0.0
 10
2118.294720
 20
460.776052
 30
0.0
  0
SPLINE
  5
568
100
AcDbEntity
  8
Default
 62
7
100
AcDbSpline
 70
8
 71
3
 72
8
 73
4
 74
0
 40
0
 40
0
 40
0
 40
0
 40
1
 40
1
 40
1
 40
1
 10
2118.294720
 20
460.776052
 30
0.0
 10
2084.393280
 20
470.094804
 30
0.0
 10
2051.390640
 20
483.403716
 30
0.0
 10
2019.858320
 20
498.732324
 30
0.0
  0
SPLINE
  5
569
100
AcDbEntity
  8
Default
 62
7
100
AcDbSpline
 70
8
 71
3
 72
8
 73
4
 74
0
 40
0
 40
0
 40
0
 40
0
 40
1
 40
1
 40
1
 40
1
 10
1682.778320
 20
1037.612868
 30
0.0
 10
1682.839120
 20
1037.220796
 30
0.0
 10
1682.900080
 20
1036.828732
 30
0.0
 10
1682.960880
 20
1036.436692
 30
0.0
  0
SPLINE
  5
56a
100
AcDbEntity
  8
Default
 62
7
100
AcDbSpline
 70
8
 71
3
 72
8
 73
4
 74
0
 40
0
 40
0
 40
0
 40
0
 40
1
 40
1
 40
1
 40
1
 10
1682.960880
 20
1036.436692
 30
0.0
 10
1691.830240
 20
979.312388
 30
0.0
 10
1700.793680
 20
922.401844
 30
0.0
 10
1709.683600
 20
865.208377
 30
0.0
  0
SPLINE
  5
56b
100
AcDbEntity
  8
Default
 62
7
100
AcDbSpline
 70
8
 71
3
 72
8
 73
4
 74
0
 40
0
 40
0
 40
0
 40
0
 40
1
 40
1
 40
1
 40
1
 10
1709.683600
 20
865.208377
 30
0.0
 10
1718.567280
 20
808.055094
 30
0.0
 10
1727.324240
 20
750.959212
 30
0.0
 10
1735.723280
 20
693.671084
 30
0.0
  0
SPLINE
  5
56c
100
AcDbEntity
  8
Default
 62
7
100
AcDbSpline
 70
8
 71
3
 72
8
 73
4
 74
0
 40
0
 40
0
 40
0
 40
0
 40
1
 40
1
 40
1
 40
1
 10
1735.723280
 20
693.671084
 30
0.0
 10
1744.131520
 20
636.320444
 30
0.0
 10
1752.133600
 20
579.097228
 30
0.0
 10
1759.515840
 20
521.566796
 30
0.0
  0
SPLINE
  5
56d
100
AcDbEntity
  8
Default
 62
7
100
AcDbSpline
 70
8
 71
3
 72
8
 73
4
 74
0
 40
0
 40
0
 40
0
 40
0
 40
1
 40
1
 40
1
 40
1
 10
1759.515840
 20
521.566796
 30
0.0
 10
1760.493440
 20
513.948156
 30
0.0
 10
1761.458560
 20
506.337492
 30
0.0
 10
1762.410800
 20
498.732300
 30
0.0
  0
SPLINE
  5
56e
100
AcDbEntity
  8
Default
 62
7
100
AcDbSpline
 70
8
 71
3
 72
8
 73
4
 74
0
 40
0
 40
0
 40
0
 40
0
 40
1
 40
1
 40
1
 40
1
 10
1768.825600
 20
445.884372
 30
0.0
 10
1853.380800
 20
428.027940
 30
0.0
 10
1938.692960
 20
413.835956
 30
0.0
 10
2024.723520
 20
405.033788
 30
0.0
  0
SPLINE
  5
56f
100
AcDbEntity
  8
Default
 62
7
100
AcDbSpline
 70
8
 71
3
 72
8
 73
4
 74
0
 40
0
 40
0
 40
0
 40
0
 40
1
 40
1
 40
1
 40
1
 10
2038.157440
 20
2.274884
 30
0.0
 10
2037.443120
 20
35.071044
 30
0.0
 10
2036.725120
 20
67.864076
 30
0.0
 10
2035.902400
 20
100.655660
 30
0.0
  0
SPLINE
  5
570
100
AcDbEntity
  8
Default
 62
7
100
AcDbSpline
 70
8
 71
3
 72
8
 73
4
 74
0
 40
0
 40
0
 40
0
 40
0
 40
1
 40
1
 40
1
 40
1
 10
2035.902400
 20
100.655660
 30
0.0
 10
2035.487200
 20
117.206660
 30
0.0
 10
2035.046640
 20
133.757092
 30
0.0
 10
2034.575680
 20
150.307380
 30
0.0
  0
SPLINE
  5
571
100
AcDbEntity
  8
Default
 62
7
100
AcDbSpline
 70
8
 71
3
 72
8
 73
4
 74
0
 40
0
 40
0
 40
0
 40
0
 40
1
 40
1
 40
1
 40
1
 10
2034.575680
 20
150.307380
 30
0.0
 10
2034.100960
 20
166.993268
 30
0.0
 10
2033.594560
 20
183.678556
 30
0.0
 10
2033.054160
 20
200.363756
 30
0.0
  0
SPLINE
  5
572
100
AcDbEntity
  8
Default
 62
7
100
AcDbSpline
 70
8
 71
3
 72
8
 73
4
 74
0
 40
0
 40
0
 40
0
 40
0
 40
1
 40
1
 40
1
 40
1
 10
2033.054160
 20
200.363756
 30
0.0
 10
2032.508960
 20
217.197036
 30
0.0
 10
2031.929280
 20
234.029548
 30
0.0
 10
2031.314320
 20
250.861924
 30
0.0
  0
SPLINE
  5
573
100
AcDbEntity
  8
Default
 62
7
100
AcDbSpline
 70
8
 71
3
 72
8
 73
4
 74
0
 40
0
 40
0
 40
0
 40
0
 40
1
 40
1
 40
1
 40
1
 10
2031.314320
 20
250.861924
 30
0.0
 10
2030.693840
 20
267.847012
 30
0.0
 10
2030.037440
 20
284.831028
 30
0.0
 10
2029.345760
 20
301.814708
 30
0.0
  0
SPLINE
  5
574
100
AcDbEntity
  8
Default
 62
7
100
AcDbSpline
 70
8
 71
3
 72
8
 73
4
 74
0
 40
0
 40
0
 40
0
 40
0
 40
1
 40
1
 40
1
 40
1
 10
2029.345760
 20
301.814708
 30
0.0
 10
2028.648000
 20
318.948956
 30
0.0
 10
2027.914400
 20
336.081740
 30
0.0
 10
2027.146880
 20
353.213884
 30
0.0
  0
SPLINE
  5
575
100
AcDbEntity
  8
Default
 62
7
100
AcDbSpline
 70
8
 71
3
 72
8
 73
4
 74
0
 40
0
 40
0
 40
0
 40
0
 40
1
 40
1
 40
1
 40
1
 10
2027.146880
 20
353.213884
 30
0.0
 10
2026.372960
 20
370.488780
 30
0.0
 10
2025.564480
 20
387.761796
 30
0.0
 10
2024.723520
 20
405.033788
 30
0.0
  0
SPLINE
  5
576
100
AcDbEntity
  8
Default
 62
7
100
AcDbSpline
 70
8
 71
3
 72
8
 73
4
 74
0
 40
0
 40
0
 40
0
 40
0
 40
1
 40
1
 40
1
 40
1
 10
1768.825600
 20
445.884372
 30
0.0
 10
1772.612720
 20
413.630500
 30
0.0
 10
1776.158960
 20
381.368716
 30
0.0
 10
1779.446240
 20
348.904476
 30
0.0
  0
SPLINE
  5
577
100
AcDbEntity
  8
Default
 62
7
100
AcDbSpline
 70
8
 71
3
 72
8
 73
4
 74
0
 40
0
 40
0
 40
0
 40
0
 40
1
 40
1
 40
1
 40
1
 10
1779.446240
 20
348.904476
 30
0.0
 10
1785.340640
 20
290.692236
 30
0.0
 10
1790.177920
 20
234.099868
 30
0.0
 10
1794.220640
 20
175.745492
 30
0.0
  0
SPLINE
  5
578
100
AcDbEntity
  8
Default
 62
7
100
AcDbSpline
 70
8
 71
3
 72
8
 73
4
 74
0
 40
0
 40
0
 40
0
 40
0
 40
1
 40
1
 40
1
 40
1
 10
1794.220640
 20
175.745492
 30
0.0
 10
1796.222160
 20
146.854396
 30
0.0
 10
1797.994640
 20
117.947156
 30
0.0
 10
1799.601120
 20
89.035092
 30
0.0
  0
SPLINE
  5
579
100
AcDbEntity
  8
Default
 62
7
100
AcDbSpline
 70
8
 71
3
 72
8
 73
4
 74
0
 40
0
 40
0
 40
0
 40
0
 40
1
 40
1
 40
1
 40
1
 10
1799.601120
 20
89.035092
 30
0.0
 10
1801.207760
 20
60.121636
 30
0.0
 10
1802.646880
 20
31.198964
 30
0.0
 10
1804.081360
 20
2.274884
 30
0.0
  0
SPLINE
  5
57a
100
AcDbEntity
  8
Default
 62
7
100
AcDbSpline
 70
8
 71
3
 72
8
 73
4
 74
0
 40
0
 40
0
 40
0
 40
0
 40
1
 40
1
 40
1
 40
1
 10
2038.157440
 20
2.274884
 30
0.0
 10
1960.132080
 20
2.274884
 30
0.0
 10
1882.106720
 20
2.274884
 30
0.0
 10
1804.081360
 20
2.274884
 30
0.0
  0
SPLINE
  5
57b
100
AcDbEntity
  8
Default
 62
7
100
AcDbSpline
 70
8
 71
3
 72
8
 73
4
 74
0
 40
0
 40
0
 40
0
 40
0
 40
1
 40
1
 40
1
 40
1
 10
2638.781360
 20
2.274884
 30
0.0
 10
2560.756000
 20
2.274884
 30
0.0
 10
2482.730640
 20
2.274884
 30
0.0
 10
2404.705280
 20
2.274884
 30
0.0
  0
SPLINE
  5
57c
100
AcDbEntity
  8
Default
 62
7
100
AcDbSpline
 70
8
 71
3
 72
8
 73
4
 74
0
 40
0
 40
0
 40
0
 40
0
 40
1
 40
1
 40
1
 40
1
 10
2674.039200
 20
445.901788
 30
0.0
 10
2631.703200
 20
436.967732
 30
0.0
 10
2589.231040
 20
428.962556
 30
0.0
 10
2546.510560
 20
422.076908
 30
0.0
  0
SPLINE
  5
57d
100
AcDbEntity
  8
Default
 62
7
100
AcDbSpline
 70
8
 71
3
 72
8
 73
4
 74
0
 40
0
 40
0
 40
0
 40
0
 40
1
 40
1
 40
1
 40
1
 10
2546.510560
 20
422.076908
 30
0.0
 10
2535.850080
 20
420.358660
 30
0.0
 10
2525.179440
 20
418.711364
 30
0.0
 10
2514.496640
 20
417.137588
 30
0.0
  0
SPLINE
  5
57e
100
AcDbEntity
  8
Default
 62
7
100
AcDbSpline
 70
8
 71
3
 72
8
 73
4
 74
0
 40
0
 40
0
 40
0
 40
0
 40
1
 40
1
 40
1
 40
1
 10
2514.496640
 20
417.137588
 30
0.0
 10
2503.814080
 20
415.563844
 30
0.0
 10
2493.121840
 20
414.064204
 30
0.0
 10
2482.418080
 20
412.641820
 30
0.0
  0
SPLINE
  5
57f
100
AcDbEntity
  8
Default
 62
7
100
AcDbSpline
 70
8
 71
3
 72
8
 73
4
 74
0
 40
0
 40
0
 40
0
 40
0
 40
1
 40
1
 40
1
 40
1
 10
2482.418080
 20
412.641820
 30
0.0
 10
2461.027440
 20
409.799332
 30
0.0
 10
2439.607600
 20
407.267812
 30
0.0
 10
2418.140960
 20
405.069868
 30
0.0
  0
SPLINE
  5
580
100
AcDbEntity
  8
Default
 62
7
100
AcDbSpline
 70
8
 71
3
 72
8
 73
4
 74
0
 40
0
 40
0
 40
0
 40
0
 40
1
 40
1
 40
1
 40
1
 10
2404.705280
 20
2.274884
 30
0.0
 10
2405.419600
 20
35.073604
 30
0.0
 10
2406.137520
 20
67.869060
 30
0.0
 10
2406.960480
 20
100.663052
 30
0.0
  0
SPLINE
  5
581
100
AcDbEntity
  8
Default
 62
7
100
AcDbSpline
 70
8
 71
3
 72
8
 73
4
 74
0
 40
0
 40
0
 40
0
 40
0
 40
1
 40
1
 40
1
 40
1
 10
2406.960480
 20
100.663052
 30
0.0
 10
2407.794640
 20
133.904332
 30
0.0
 10
2408.732560
 20
167.142548
 30
0.0
 10
2409.809120
 20
200.381260
 30
0.0
  0
SPLINE
  5
582
100
AcDbEntity
  8
Default
 62
7
100
AcDbSpline
 70
8
 71
3
 72
8
 73
4
 74
0
 40
0
 40
0
 40
0
 40
0
 40
1
 40
1
 40
1
 40
1
 10
2409.809120
 20
200.381260
 30
0.0
 10
2410.904640
 20
234.204076
 30
0.0
 10
2412.140640
 20
268.021988
 30
0.0
 10
2413.518000
 20
301.840348
 30
0.0
  0
SPLINE
  5
583
100
AcDbEntity
  8
Default
 62
7
100
AcDbSpline
 70
8
 71
3
 72
8
 73
4
 74
0
 40
0
 40
0
 40
0
 40
0
 40
1
 40
1
 40
1
 40
1
 10
2413.518000
 20
301.840348
 30
0.0
 10
2414.919680
 20
336.256260
 30
0.0
 10
2416.465680
 20
370.663852
 30
0.0
 10
2418.140960
 20
405.069868
 30
0.0
  0
SPLINE
  5
584
100
AcDbEntity
  8
Default
 62
7
100
AcDbSpline
 70
8
 71
3
 72
8
 73
4
 74
0
 40
0
 40
0
 40
0
 40
0
 40
1
 40
1
 40
1
 40
1
 10
2674.039200
 20
445.901788
 30
0.0
 10
2670.251280
 20
413.642092
 30
0.0
 10
2666.704320
 20
381.374572
 30
0.0
 10
2663.416480
 20
348.904476
 30
0.0
  0
SPLINE
  5
585
100
AcDbEntity
  8
Default
 62
7
100
AcDbSpline
 70
8
 71
3
 72
8
 73
4
 74
0
 40
0
 40
0
 40
0
 40
0
 40
1
 40
1
 40
1
 40
1
 10
2663.416480
 20
348.904476
 30
0.0
 10
2657.522080
 20
290.692236
 30
0.0
 10
2652.684800
 20
234.099868
 30
0.0
 10
2648.642080
 20
175.745492
 30
0.0
  0
SPLINE
  5
586
100
AcDbEntity
  8
Default
 62
7
100
AcDbSpline
 70
8
 71
3
 72
8
 73
4
 74
0
 40
0
 40
0
 40
0
 40
0
 40
1
 40
1
 40
1
 40
1
 10
2648.642080
 20
175.745492
 30
0.0
 10
2646.640560
 20
146.854396
 30
0.0
 10
2644.868080
 20
117.947156
 30
0.0
 10
2643.261600
 20
89.035092
 30
0.0
  0
SPLINE
  5
587
100
AcDbEntity
  8
Default
 62
7
100
AcDbSpline
 70
8
 71
3
 72
8
 73
4
 74
0
 40
0
 40
0
 40
0
 40
0
 40
1
 40
1
 40
1
 40
1
 10
2643.261600
 20
89.035092
 30
0.0
 10
2641.654960
 20
60.121636
 30
0.0
 10
2640.215840
 20
31.198964
 30
0.0
 10
2638.781360
 20
2.274884
 30
0.0
  0
SPLINE
  5
588
100
AcDbEntity
  8
Default
 62
7
100
AcDbSpline
 70
8
 71
3
 72
8
 73
4
 74
0
 40
0
 40
0
 40
0
 40
0
 40
1
 40
1
 40
1
 40
1
 10
2761.546320
 20
2766.030244
 30
0.0
 10
2771.835440
 20
2738.911924
 30
0.0
 10
2781.232640
 20
2711.630964
 30
0.0
 10
2789.802800
 20
2683.767764
 30
0.0
  0
SPLINE
  5
589
100
AcDbEntity
  8
Default
 62
7
100
AcDbSpline
 70
8
 71
3
 72
8
 73
4
 74
0
 40
0
 40
0
 40
0
 40
0
 40
1
 40
1
 40
1
 40
1
 10
2789.802800
 20
2683.767764
 30
0.0
 10
2798.364320
 20
2655.932244
 30
0.0
 10
2805.982320
 20
2627.903684
 30
0.0
 10
2812.778240
 20
2599.457524
 30
0.0
  0
SPLINE
  5
58a
100
AcDbEntity
  8
Default
 62
7
100
AcDbSpline
 70
8
 71
3
 72
8
 73
4
 74
0
 40
0
 40
0
 40
0
 40
0
 40
1
 40
1
 40
1
 40
1
 10
2812.778240
 20
2599.457524
 30
0.0
 10
2821.580880
 20
2562.611604
 30
0.0
 10
2828.920640
 20
2525.417284
 30
0.0
 10
2835.046240
 20
2487.930884
 30
0.0
  0
SPLINE
  5
58b
100
AcDbEntity
  8
Default
 62
7
100
AcDbSpline
 70
8
 71
3
 72
8
 73
4
 74
0
 40
0
 40
0
 40
0
 40
0
 40
1
 40
1
 40
1
 40
1
 10
2761.546320
 20
2766.030244
 30
0.0
 10
2660.569600
 20
2766.030244
 30
0.0
 10
2559.592800
 20
2766.030244
 30
0.0
 10
2458.616000
 20
2766.030244
 30
0.0
  0
SPLINE
  5
58c
100
AcDbEntity
  8
Default
 62
7
100
AcDbSpline
 70
8
 71
3
 72
8
 73
4
 74
0
 40
0
 40
0
 40
0
 40
0
 40
1
 40
1
 40
1
 40
1
 10
2835.046240
 20
2487.930884
 30
0.0
 10
2735.652080
 20
2461.818164
 30
0.0
 10
2633.932080
 20
2439.321444
 30
0.0
 10
2532.270880
 20
2423.557684
 30
0.0
  0
SPLINE
  5
58d
100
AcDbEntity
  8
Default
 62
7
100
AcDbSpline
 70
8
 71
3
 72
8
 73
4
 74
0
 40
0
 40
0
 40
0
 40
0
 40
1
 40
1
 40
1
 40
1
 10
2532.270880
 20
2423.557684
 30
0.0
 10
2480.870480
 20
2415.587444
 30
0.0
 10
2429.365680
 20
2409.313764
 30
0.0
 10
2377.515520
 20
2405.051124
 30
0.0
  0
SPLINE
  5
58e
100
AcDbEntity
  8
Default
 62
7
100
AcDbSpline
 70
8
 71
3
 72
8
 73
4
 74
0
 40
0
 40
0
 40
0
 40
0
 40
1
 40
1
 40
1
 40
1
 10
2377.515520
 20
2405.051124
 30
0.0
 10
2325.532800
 20
2400.777604
 30
0.0
 10
2273.594320
 20
2398.566804
 30
0.0
 10
2221.431360
 20
2398.560404
 30
0.0
  0
SPLINE
  5
58f
100
AcDbEntity
  8
Default
 62
7
100
AcDbSpline
 70
8
 71
3
 72
8
 73
4
 74
0
 40
0
 40
0
 40
0
 40
0
 40
1
 40
1
 40
1
 40
1
 10
2490.892480
 20
2487.930804
 30
0.0
 10
2489.999600
 20
2500.374644
 30
0.0
 10
2489.046720
 20
2512.804244
 30
0.0
 10
2488.028880
 20
2525.221764
 30
0.0
  0
SPLINE
  5
590
100
AcDbEntity
  8
Default
 62
7
100
AcDbSpline
 70
8
 71
3
 72
8
 73
4
 74
0
 40
0
 40
0
 40
0
 40
0
 40
1
 40
1
 40
1
 40
1
 10
2488.028880
 20
2525.221764
 30
0.0
 10
2487.526320
 20
2531.353764
 30
0.0
 10
2487.007920
 20
2537.482004
 30
0.0
 10
2486.473120
 20
2543.606724
 30
0.0
  0
SPLINE
  5
591
100
AcDbEntity
  8
Default
 62
7
100
AcDbSpline
 70
8
 71
3
 72
8
 73
4
 74
0
 40
0
 40
0
 40
0
 40
0
 40
1
 40
1
 40
1
 40
1
 10
2486.473120
 20
2543.606724
 30
0.0
 10
2485.942800
 20
2549.680164
 30
0.0
 10
2485.396320
 20
2555.749604
 30
0.0
 10
2484.833200
 20
2561.815284
 30
0.0
  0
SPLINE
  5
592
100
AcDbEntity
  8
Default
 62
7
100
AcDbSpline
 70
8
 71
3
 72
8
 73
4
 74
0
 40
0
 40
0
 40
0
 40
0
 40
1
 40
1
 40
1
 40
1
 10
2484.833200
 20
2561.815284
 30
0.0
 10
2484.274800
 20
2567.829124
 30
0.0
 10
2483.700080
 20
2573.838644
 30
0.0
 10
2483.108400
 20
2579.844324
 30
0.0
  0
SPLINE
  5
593
100
AcDbEntity
  8
Default
 62
7
100
AcDbSpline
 70
8
 71
3
 72
8
 73
4
 74
0
 40
0
 40
0
 40
0
 40
0
 40
1
 40
1
 40
1
 40
1
 10
2483.108400
 20
2579.844324
 30
0.0
 10
2482.521840
 20
2585.798004
 30
0.0
 10
2481.918720
 20
2591.747284
 30
0.0
 10
2481.298400
 20
2597.692404
 30
0.0
  0
SPLINE
  5
594
100
AcDbEntity
  8
Default
 62
7
100
AcDbSpline
 70
8
 71
3
 72
8
 73
4
 74
0
 40
0
 40
0
 40
0
 40
0
 40
1
 40
1
 40
1
 40
1
 10
2481.298400
 20
2597.692404
 30
0.0
 10
2480.683520
 20
2603.585444
 30
0.0
 10
2480.051840
 20
2609.473844
 30
0.0
 10
2479.402800
 20
2615.357764
 30
0.0
  0
SPLINE
  5
595
100
AcDbEntity
  8
Default
 62
7
100
AcDbSpline
 70
8
 71
3
 72
8
 73
4
 74
0
 40
0
 40
0
 40
0
 40
0
 40
1
 40
1
 40
1
 40
1
 10
2479.402800
 20
2615.357764
 30
0.0
 10
2478.759520
 20
2621.189844
 30
0.0
 10
2478.099280
 20
2627.017044
 30
0.0
 10
2477.421520
 20
2632.839524
 30
0.0
  0
SPLINE
  5
596
100
AcDbEntity
  8
Default
 62
7
100
AcDbSpline
 70
8
 71
3
 72
8
 73
4
 74
0
 40
0
 40
0
 40
0
 40
0
 40
1
 40
1
 40
1
 40
1
 10
2477.421520
 20
2632.839524
 30
0.0
 10
2476.749840
 20
2638.610244
 30
0.0
 10
2476.061120
 20
2644.375844
 30
0.0
 10
2475.354960
 20
2650.136564
 30
0.0
  0
SPLINE
  5
597
100
AcDbEntity
  8
Default
 62
7
100
AcDbSpline
 70
8
 71
3
 72
8
 73
4
 74
0
 40
0
 40
0
 40
0
 40
0
 40
1
 40
1
 40
1
 40
1
 10
2475.354960
 20
2650.136564
 30
0.0
 10
2474.655120
 20
2655.845684
 30
0.0
 10
2473.938160
 20
2661.549524
 30
0.0
 10
2473.203840
 20
2667.248324
 30
0.0
  0
SPLINE
  5
598
100
AcDbEntity
  8
Default
 62
7
100
AcDbSpline
 70
8
 71
3
 72
8
 73
4
 74
0
 40
0
 40
0
 40
0
 40
0
 40
1
 40
1
 40
1
 40
1
 10
2473.203840
 20
2667.248324
 30
0.0
 10
2472.476080
 20
2672.895764
 30
0.0
 10
2471.731360
 20
2678.537684
 30
0.0
 10
2470.969200
 20
2684.174484
 30
0.0
  0
SPLINE
  5
599
100
AcDbEntity
  8
Default
 62
7
100
AcDbSpline
 70
8
 71
3
 72
8
 73
4
 74
0
 40
0
 40
0
 40
0
 40
0
 40
1
 40
1
 40
1
 40
1
 10
2470.969200
 20
2684.174484
 30
0.0
 10
2470.213920
 20
2689.760244
 30
0.0
 10
2469.441600
 20
2695.340324
 30
0.0
 10
2468.652080
 20
2700.915044
 30
0.0
  0
SPLINE
  5
59a
100
AcDbEntity
  8
Default
 62
7
100
AcDbSpline
 70
8
 71
3
 72
8
 73
4
 74
0
 40
0
 40
0
 40
0
 40
0
 40
1
 40
1
 40
1
 40
1
 10
2468.652080
 20
2700.915044
 30
0.0
 10
2467.094320
 20
2711.913684
 30
0.0
 10
2465.470320
 20
2722.888004
 30
0.0
 10
2463.780640
 20
2733.840724
 30
0.0
  0
SPLINE
  5
59b
100
AcDbEntity
  8
Default
 62
7
100
AcDbSpline
 70
8
 71
3
 72
8
 73
4
 74
0
 40
0
 40
0
 40
0
 40
0
 40
1
 40
1
 40
1
 40
1
 10
2463.780640
 20
2733.840724
 30
0.0
 10
2462.121520
 20
2744.594964
 30
0.0
 10
2460.399760
 20
2755.324084
 30
0.0
 10
2458.616000
 20
2766.030244
 30
0.0
  0
SPLINE
  5
59c
100
AcDbEntity
  8
Default
 62
7
100
AcDbSpline
 70
8
 71
3
 72
8
 73
4
 74
0
 40
0
 40
0
 40
0
 40
0
 40
1
 40
1
 40
1
 40
1
 10
2490.892480
 20
2487.930804
 30
0.0
 10
2450.934080
 20
2464.025444
 30
0.0
 10
2408.055040
 20
2441.906084
 30
0.0
 10
2364.136480
 20
2425.791364
 30
0.0
  0
SPLINE
  5
59d
100
AcDbEntity
  8
Default
 62
7
100
AcDbSpline
 70
8
 71
3
 72
8
 73
4
 74
0
 40
0
 40
0
 40
0
 40
0
 40
1
 40
1
 40
1
 40
1
 10
2364.136480
 20
2425.791364
 30
0.0
 10
2341.426000
 20
2417.458404
 30
0.0
 10
2318.178400
 20
2410.633044
 30
0.0
 10
2294.418400
 20
2405.909044
 30
0.0
  0
SPLINE
  5
59e
100
AcDbEntity
  8
Default
 62
7
100
AcDbSpline
 70
8
 71
3
 72
8
 73
4
 74
0
 40
0
 40
0
 40
0
 40
0
 40
1
 40
1
 40
1
 40
1
 10
2294.418400
 20
2405.909044
 30
0.0
 10
2270.216400
 20
2401.097204
 30
0.0
 10
2246.128880
 20
2398.567284
 30
0.0
 10
2221.431360
 20
2398.560404
 30
0.0
  0
SPLINE
  5
59f
100
AcDbEntity
  8
Default
 62
7
100
AcDbSpline
 70
8
 71
3
 72
8
 73
4
 74
0
 40
0
 40
0
 40
0
 40
0
 40
1
 40
1
 40
1
 40
1
 10
1681.316400
 20
2766.030244
 30
0.0
 10
1671.027280
 20
2738.911924
 30
0.0
 10
1661.630080
 20
2711.630964
 30
0.0
 10
1653.060000
 20
2683.767764
 30
0.0
  0
SPLINE
  5
5a0
100
AcDbEntity
  8
Default
 62
7
100
AcDbSpline
 70
8
 71
3
 72
8
 73
4
 74
0
 40
0
 40
0
 40
0
 40
0
 40
1
 40
1
 40
1
 40
1
 10
1653.060000
 20
2683.767764
 30
0.0
 10
1644.498400
 20
2655.932244
 30
0.0
 10
1636.880400
 20
2627.903684
 30
0.0
 10
1630.084480
 20
2599.457524
 30
0.0
  0
SPLINE
  5
5a1
100
AcDbEntity
  8
Default
 62
7
100
AcDbSpline
 70
8
 71
3
 72
8
 73
4
 74
0
 40
0
 40
0
 40
0
 40
0
 40
1
 40
1
 40
1
 40
1
 10
1630.084480
 20
2599.457524
 30
0.0
 10
1621.281840
 20
2562.611604
 30
0.0
 10
1613.942080
 20
2525.417284
 30
0.0
 10
1607.816560
 20
2487.930884
 30
0.0
  0
SPLINE
  5
5a2
100
AcDbEntity
  8
Default
 62
7
100
AcDbSpline
 70
8
 71
3
 72
8
 73
4
 74
0
 40
0
 40
0
 40
0
 40
0
 40
1
 40
1
 40
1
 40
1
 10
2221.431360
 20
2398.560404
 30
0.0
 10
2169.268080
 20
2398.552404
 30
0.0
 10
2117.329040
 20
2400.752564
 30
0.0
 10
2065.345280
 20
2405.019524
 30
0.0
  0
SPLINE
  5
5a3
100
AcDbEntity
  8
Default
 62
7
100
AcDbSpline
 70
8
 71
3
 72
8
 73
4
 74
0
 40
0
 40
0
 40
0
 40
0
 40
1
 40
1
 40
1
 40
1
 10
2065.345280
 20
2405.019524
 30
0.0
 10
2013.494720
 20
2409.275524
 30
0.0
 10
1961.990560
 20
2415.548244
 30
0.0
 10
1910.590960
 20
2423.522324
 30
0.0
  0
SPLINE
  5
5a4
100
AcDbEntity
  8
Default
 62
7
100
AcDbSpline
 70
8
 71
3
 72
8
 73
4
 74
0
 40
0
 40
0
 40
0
 40
0
 40
1
 40
1
 40
1
 40
1
 10
1910.590960
 20
2423.522324
 30
0.0
 10
1808.927520
 20
2439.294244
 30
0.0
 10
1707.212320
 20
2461.816564
 30
0.0
 10
1607.816560
 20
2487.930884
 30
0.0
  0
SPLINE
  5
5a5
100
AcDbEntity
  8
Default
 62
7
100
AcDbSpline
 70
8
 71
3
 72
8
 73
4
 74
0
 40
0
 40
0
 40
0
 40
0
 40
1
 40
1
 40
1
 40
1
 10
2221.431360
 20
2398.560404
 30
0.0
 10
2196.731600
 20
2398.552404
 30
0.0
 10
2172.641920
 20
2401.070964
 30
0.0
 10
2148.436160
 20
2405.877684
 30
0.0
  0
SPLINE
  5
5a6
100
AcDbEntity
  8
Default
 62
7
100
AcDbSpline
 70
8
 71
3
 72
8
 73
4
 74
0
 40
0
 40
0
 40
0
 40
0
 40
1
 40
1
 40
1
 40
1
 10
2148.436160
 20
2405.877684
 30
0.0
 10
2124.671840
 20
2410.596724
 30
0.0
 10
2101.425600
 20
2417.422804
 30
0.0
 10
2078.714000
 20
2425.761604
 30
0.0
  0
SPLINE
  5
5a7
100
AcDbEntity
  8
Default
 62
7
100
AcDbSpline
 70
8
 71
3
 72
8
 73
4
 74
0
 40
0
 40
0
 40
0
 40
0
 40
1
 40
1
 40
1
 40
1
 10
2078.714000
 20
2425.761604
 30
0.0
 10
2034.802480
 20
2441.884164
 30
0.0
 10
1991.923280
 20
2464.027604
 30
0.0
 10
1951.970240
 20
2487.930804
 30
0.0
  0
SPLINE
  5
5a8
100
AcDbEntity
  8
Default
 62
7
100
AcDbSpline
 70
8
 71
3
 72
8
 73
4
 74
0
 40
0
 40
0
 40
0
 40
0
 40
1
 40
1
 40
1
 40
1
 10
1951.970240
 20
2487.930804
 30
0.0
 10
1954.647680
 20
2525.243684
 30
0.0
 10
1957.863600
 20
2562.423844
 30
0.0
 10
1961.748880
 20
2599.457524
 30
0.0
  0
SPLINE
  5
5a9
100
AcDbEntity
  8
Default
 62
7
100
AcDbSpline
 70
8
 71
3
 72
8
 73
4
 74
0
 40
0
 40
0
 40
0
 40
0
 40
1
 40
1
 40
1
 40
1
 10
1961.748880
 20
2599.457524
 30
0.0
 10
1964.733280
 20
2627.903684
 30
0.0
 10
1968.078560
 20
2655.932244
 30
0.0
 10
1971.838320
 20
2683.767764
 30
0.0
  0
SPLINE
  5
5aa
100
AcDbEntity
  8
Default
 62
7
100
AcDbSpline
 70
8
 71
3
 72
8
 73
4
 74
0
 40
0
 40
0
 40
0
 40
0
 40
1
 40
1
 40
1
 40
1
 10
1971.838320
 20
2683.767764
 30
0.0
 10
1975.601760
 20
2711.630964
 30
0.0
 10
1979.728400
 20
2738.911924
 30
0.0
 10
1984.246720
 20
2766.030244
 30
0.0
  0
SPLINE
  5
5ab
100
AcDbEntity
  8
Default
 62
7
100
AcDbSpline
 70
8
 71
3
 72
8
 73
4
 74
0
 40
0
 40
0
 40
0
 40
0
 40
1
 40
1
 40
1
 40
1
 10
1984.246720
 20
2766.030244
 30
0.0
 10
1883.269920
 20
2766.030244
 30
0.0
 10
1782.293120
 20
2766.030244
 30
0.0
 10
1681.316400
 20
2766.030244
 30
0.0
  0
SPLINE
  5
5ac
100
AcDbEntity
  8
Default
 62
7
100
AcDbSpline
 70
8
 71
3
 72
8
 73
4
 74
0
 40
0
 40
0
 40
0
 40
0
 40
1
 40
1
 40
1
 40
1
 10
2491.819200
 20
1611.801116
 30
0.0
 10
2494.391760
 20
1669.838404
 30
0.0
 10
2496.583040
 20
1727.022004
 30
0.0
 10
2498.346400
 20
1783.443604
 30
0.0
  0
SPLINE
  5
5ad
100
AcDbEntity
  8
Default
 62
7
100
AcDbSpline
 70
8
 71
3
 72
8
 73
4
 74
0
 40
0
 40
0
 40
0
 40
0
 40
1
 40
1
 40
1
 40
1
 10
2498.346400
 20
1783.443604
 30
0.0
 10
2500.109840
 20
1839.867364
 30
0.0
 10
2501.445120
 20
1895.533364
 30
0.0
 10
2502.305520
 20
1950.442404
 30
0.0
  0
SPLINE
  5
5ae
100
AcDbEntity
  8
Default
 62
7
100
AcDbSpline
 70
8
 71
3
 72
8
 73
4
 74
0
 40
0
 40
0
 40
0
 40
0
 40
1
 40
1
 40
1
 40
1
 10
2502.305520
 20
1950.442404
 30
0.0
 10
2563.059280
 20
1957.756324
 30
0.0
 10
2623.401280
 20
1967.154244
 30
0.0
 10
2683.574720
 20
1978.216564
 30
0.0
  0
SPLINE
  5
5af
100
AcDbEntity
  8
Default
 62
7
100
AcDbSpline
 70
8
 71
3
 72
8
 73
4
 74
0
 40
0
 40
0
 40
0
 40
0
 40
1
 40
1
 40
1
 40
1
 10
2683.574720
 20
1978.216564
 30
0.0
 10
2743.667920
 20
1989.264164
 30
0.0
 10
2803.366000
 20
2001.926244
 30
0.0
 10
2862.851920
 20
2015.850164
 30
0.0
  0
SPLINE
  5
5b0
100
AcDbEntity
  8
Default
 62
7
100
AcDbSpline
 70
8
 71
3
 72
8
 73
4
 74
0
 40
0
 40
0
 40
0
 40
0
 40
1
 40
1
 40
1
 40
1
 10
2221.431360
 20
1521.875700
 30
0.0
 10
2326.321520
 20
1521.889300
 30
0.0
 10
2428.490080
 20
1530.790484
 30
0.0
 10
2532.027120
 20
1546.835212
 30
0.0
  0
SPLINE
  5
5b1
100
AcDbEntity
  8
Default
 62
7
100
AcDbSpline
 70
8
 71
3
 72
8
 73
4
 74
0
 40
0
 40
0
 40
0
 40
0
 40
1
 40
1
 40
1
 40
1
 10
2532.027120
 20
1546.835212
 30
0.0
 10
2634.484560
 20
1562.712652
 30
0.0
 10
2737.000000
 20
1585.428164
 30
0.0
 10
2837.156480
 20
1611.801076
 30
0.0
  0
SPLINE
  5
5b2
100
AcDbEntity
  8
Default
 62
7
100
AcDbSpline
 70
8
 71
3
 72
8
 73
4
 74
0
 40
0
 40
0
 40
0
 40
0
 40
1
 40
1
 40
1
 40
1
 10
2491.819200
 20
1611.801116
 30
0.0
 10
2451.049120
 20
1587.354412
 30
0.0
 10
2407.170720
 20
1564.715020
 30
0.0
 10
2362.266640
 20
1548.424452
 30
0.0
  0
SPLINE
  5
5b3
100
AcDbEntity
  8
Default
 62
7
100
AcDbSpline
 70
8
 71
3
 72
8
 73
4
 74
0
 40
0
 40
0
 40
0
 40
0
 40
1
 40
1
 40
1
 40
1
 10
2362.266640
 20
1548.424452
 30
0.0
 10
2316.754880
 20
1531.913364
 30
0.0
 10
2270.270720
 20
1521.889244
 30
0.0
 10
2221.431360
 20
1521.875700
 30
0.0
  0
SPLINE
  5
5b4
100
AcDbEntity
  8
Default
 62
7
100
AcDbSpline
 70
8
 71
3
 72
8
 73
4
 74
0
 40
0
 40
0
 40
0
 40
0
 40
1
 40
1
 40
1
 40
1
 10
2862.851920
 20
2015.850164
 30
0.0
 10
2862.093040
 20
1977.172004
 30
0.0
 10
2860.759440
 20
1938.504804
 30
0.0
 10
2858.941040
 20
1899.952004
 30
0.0
  0
SPLINE
  5
5b5
100
AcDbEntity
  8
Default
 62
7
100
AcDbSpline
 70
8
 71
3
 72
8
 73
4
 74
0
 40
0
 40
0
 40
0
 40
0
 40
1
 40
1
 40
1
 40
1
 10
2858.941040
 20
1899.952004
 30
0.0
 10
2856.196160
 20
1841.757764
 30
0.0
 10
2852.330000
 20
1783.533284
 30
0.0
 10
2847.582880
 20
1725.571924
 30
0.0
  0
SPLINE
  5
5b6
100
AcDbEntity
  8
Default
 62
7
100
AcDbSpline
 70
8
 71
3
 72
8
 73
4
 74
0
 40
0
 40
0
 40
0
 40
0
 40
1
 40
1
 40
1
 40
1
 10
2847.582880
 20
1725.571924
 30
0.0
 10
2844.475680
 20
1687.632724
 30
0.0
 10
2840.980400
 20
1649.685684
 30
0.0
 10
2837.156480
 20
1611.801076
 30
0.0
  0
SPLINE
  5
5b7
100
AcDbEntity
  8
Default
 62
7
100
AcDbSpline
 70
8
 71
3
 72
8
 73
4
 74
0
 40
0
 40
0
 40
0
 40
0
 40
1
 40
1
 40
1
 40
1
 10
2339.517040
 20
1525.611628
 30
0.0
 10
2317.440480
 20
1525.611628
 30
0.0
 10
2295.363840
 20
1525.611628
 30
0.0
 10
2273.287280
 20
1525.611628
 30
0.0
  0
SPLINE
  5
5b8
100
AcDbEntity
  8
Default
 62
7
100
AcDbSpline
 70
8
 71
3
 72
8
 73
4
 74
0
 40
0
 40
0
 40
0
 40
0
 40
1
 40
1
 40
1
 40
1
 10
1605.706240
 20
1611.801052
 30
0.0
 10
1705.864960
 20
1585.426868
 30
0.0
 10
1808.375520
 20
1562.685372
 30
0.0
 10
1910.835600
 20
1546.799700
 30
0.0
  0
SPLINE
  5
5b9
100
AcDbEntity
  8
Default
 62
7
100
AcDbSpline
 70
8
 71
3
 72
8
 73
4
 74
0
 40
0
 40
0
 40
0
 40
0
 40
1
 40
1
 40
1
 40
1
 10
1910.835600
 20
1546.799700
 30
0.0
 10
2014.396960
 20
1530.743316
 30
0.0
 10
2116.516080
 20
1521.862932
 30
0.0
 10
2221.431360
 20
1521.875700
 30
0.0
  0
SPLINE
  5
5ba
100
AcDbEntity
  8
Default
 62
7
100
AcDbSpline
 70
8
 71
3
 72
8
 73
4
 74
0
 40
0
 40
0
 40
0
 40
0
 40
1
 40
1
 40
1
 40
1
 10
1580.010800
 20
2015.849364
 30
0.0
 10
1639.497040
 20
2001.922564
 30
0.0
 10
1699.194480
 20
1989.251284
 30
0.0
 10
1759.287280
 20
1978.195204
 30
0.0
  0
SPLINE
  5
5bb
100
AcDbEntity
  8
Default
 62
7
100
AcDbSpline
 70
8
 71
3
 72
8
 73
4
 74
0
 40
0
 40
0
 40
0
 40
0
 40
1
 40
1
 40
1
 40
1
 10
1759.287280
 20
1978.195204
 30
0.0
 10
1819.460640
 20
1967.124404
 30
0.0
 10
1879.802480
 20
1957.719204
 30
0.0
 10
1940.557760
 20
1950.404564
 30
0.0
  0
SPLINE
  5
5bc
100
AcDbEntity
  8
Default
 62
7
100
AcDbSpline
 70
8
 71
3
 72
8
 73
4
 74
0
 40
0
 40
0
 40
0
 40
0
 40
1
 40
1
 40
1
 40
1
 10
1951.043520
 20
1611.801116
 30
0.0
 10
1948.471280
 20
1669.831764
 30
0.0
 10
1946.280160
 20
1727.008884
 30
0.0
 10
1944.516960
 20
1783.424164
 30
0.0
  0
SPLINE
  5
5bd
100
AcDbEntity
  8
Default
 62
7
100
AcDbSpline
 70
8
 71
3
 72
8
 73
4
 74
0
 40
0
 40
0
 40
0
 40
0
 40
1
 40
1
 40
1
 40
1
 10
1944.516960
 20
1783.424164
 30
0.0
 10
1942.753680
 20
1839.841604
 30
0.0
 10
1941.418320
 20
1895.501524
 30
0.0
 10
1940.557760
 20
1950.404564
 30
0.0
  0
SPLINE
  5
5be
100
AcDbEntity
  8
Default
 62
7
100
AcDbSpline
 70
8
 71
3
 72
8
 73
4
 74
0
 40
0
 40
0
 40
0
 40
0
 40
1
 40
1
 40
1
 40
1
 10
2221.431360
 20
1521.875700
 30
0.0
 10
2172.575120
 20
1521.862100
 30
0.0
 10
2126.114080
 20
1531.866604
 30
0.0
 10
2080.589040
 20
1548.392316
 30
0.0
  0
SPLINE
  5
5bf
100
AcDbEntity
  8
Default
 62
7
100
AcDbSpline
 70
8
 71
3
 72
8
 73
4
 74
0
 40
0
 40
0
 40
0
 40
0
 40
1
 40
1
 40
1
 40
1
 10
2080.589040
 20
1548.392316
 30
0.0
 10
2035.690400
 20
1564.690596
 30
0.0
 10
1991.809600
 20
1587.356156
 30
0.0
 10
1951.043520
 20
1611.801116
 30
0.0
  0
SPLINE
  5
5c0
100
AcDbEntity
  8
Default
 62
7
100
AcDbSpline
 70
8
 71
3
 72
8
 73
4
 74
0
 40
0
 40
0
 40
0
 40
0
 40
1
 40
1
 40
1
 40
1
 10
1580.010800
 20
2015.849364
 30
0.0
 10
1580.769680
 20
1977.171444
 30
0.0
 10
1582.103280
 20
1938.504564
 30
0.0
 10
1583.921680
 20
1899.952004
 30
0.0
  0
SPLINE
  5
5c1
100
AcDbEntity
  8
Default
 62
7
100
AcDbSpline
 70
8
 71
3
 72
8
 73
4
 74
0
 40
0
 40
0
 40
0
 40
0
 40
1
 40
1
 40
1
 40
1
 10
1583.921680
 20
1899.952004
 30
0.0
 10
1586.666560
 20
1841.757764
 30
0.0
 10
1590.532720
 20
1783.533284
 30
0.0
 10
1595.279840
 20
1725.571924
 30
0.0
  0
SPLINE
  5
5c2
100
AcDbEntity
  8
Default
 62
7
100
AcDbSpline
 70
8
 71
3
 72
8
 73
4
 74
0
 40
0
 40
0
 40
0
 40
0
 40
1
 40
1
 40
1
 40
1
 10
1595.279840
 20
1725.571924
 30
0.0
 10
1598.387040
 20
1687.632724
 30
0.0
 10
1601.882320
 20
1649.685684
 30
0.0
 10
1605.706240
 20
1611.801052
 30
0.0
  0
SPLINE
  5
5c3
100
AcDbEntity
  8
Default
 62
7
100
AcDbSpline
 70
8
 71
3
 72
8
 73
4
 74
0
 40
0
 40
0
 40
0
 40
0
 40
1
 40
1
 40
1
 40
1
 10
2169.393360
 20
1525.611628
 30
0.0
 10
2147.239200
 20
1525.611628
 30
0.0
 10
2125.085040
 20
1525.611628
 30
0.0
 10
2102.930960
 20
1525.611628
 30
0.0
  0
SPLINE
  5
5c4
100
AcDbEntity
  8
Default
 62
7
100
AcDbSpline
 70
8
 71
3
 72
8
 73
4
 74
0
 40
0
 40
0
 40
0
 40
0
 40
1
 40
1
 40
1
 40
1
 10
2221.431360
 20
2398.560404
 30
0.0
 10
2169.268080
 20
2398.552404
 30
0.0
 10
2117.329040
 20
2400.752564
 30
0.0
 10
2065.345280
 20
2405.019524
 30
0.0
  0
SPLINE
  5
5c5
100
AcDbEntity
  8
Default
 62
7
100
AcDbSpline
 70
8
 71
3
 72
8
 73
4
 74
0
 40
0
 40
0
 40
0
 40
0
 40
1
 40
1
 40
1
 40
1
 10
2065.345280
 20
2405.019524
 30
0.0
 10
2013.494720
 20
2409.275524
 30
0.0
 10
1961.990560
 20
2415.548244
 30
0.0
 10
1910.590960
 20
2423.522324
 30
0.0
  0
SPLINE
  5
5c6
100
AcDbEntity
  8
Default
 62
7
100
AcDbSpline
 70
8
 71
3
 72
8
 73
4
 74
0
 40
0
 40
0
 40
0
 40
0
 40
1
 40
1
 40
1
 40
1
 10
1910.590960
 20
2423.522324
 30
0.0
 10
1808.927520
 20
2439.294244
 30
0.0
 10
1707.212320
 20
2461.816564
 30
0.0
 10
1607.816560
 20
2487.930884
 30
0.0
  0
SPLINE
  5
5c7
100
AcDbEntity
  8
Default
 62
7
100
AcDbSpline
 70
8
 71
3
 72
8
 73
4
 74
0
 40
0
 40
0
 40
0
 40
0
 40
1
 40
1
 40
1
 40
1
 10
2835.046240
 20
2487.930884
 30
0.0
 10
2735.652080
 20
2461.818164
 30
0.0
 10
2633.932080
 20
2439.321444
 30
0.0
 10
2532.270880
 20
2423.557684
 30
0.0
  0
SPLINE
  5
5c8
100
AcDbEntity
  8
Default
 62
7
100
AcDbSpline
 70
8
 71
3
 72
8
 73
4
 74
0
 40
0
 40
0
 40
0
 40
0
 40
1
 40
1
 40
1
 40
1
 10
2532.270880
 20
2423.557684
 30
0.0
 10
2480.870480
 20
2415.587444
 30
0.0
 10
2429.365680
 20
2409.313764
 30
0.0
 10
2377.515520
 20
2405.051124
 30
0.0
  0
SPLINE
  5
5c9
100
AcDbEntity
  8
Default
 62
7
100
AcDbSpline
 70
8
 71
3
 72
8
 73
4
 74
0
 40
0
 40
0
 40
0
 40
0
 40
1
 40
1
 40
1
 40
1
 10
2377.515520
 20
2405.051124
 30
0.0
 10
2325.532800
 20
2400.777604
 30
0.0
 10
2273.594320
 20
2398.566804
 30
0.0
 10
2221.431360
 20
2398.560404
 30
0.0
  0
SPLINE
  5
5ca
100
AcDbEntity
  8
Default
 62
7
100
AcDbSpline
 70
8
 71
3
 72
8
 73
4
 74
0
 40
0
 40
0
 40
0
 40
0
 40
1
 40
1
 40
1
 40
1
 10
2497.845200
 20
2366.240644
 30
0.0
 10
2474.970720
 20
2363.158404
 30
0.0
 10
2452.064000
 20
2360.413844
 30
0.0
 10
2429.105360
 20
2358.033524
 30
0.0
  0
SPLINE
  5
5cb
100
AcDbEntity
  8
Default
 62
7
100
AcDbSpline
 70
8
 71
3
 72
8
 73
4
 74
0
 40
0
 40
0
 40
0
 40
0
 40
1
 40
1
 40
1
 40
1
 10
2429.105360
 20
2358.033524
 30
0.0
 10
2417.616320
 20
2356.842404
 30
0.0
 10
2406.119680
 20
2355.742964
 30
0.0
 10
2394.612800
 20
2354.738164
 30
0.0
  0
SPLINE
  5
5cc
100
AcDbEntity
  8
Default
 62
7
100
AcDbSpline
 70
8
 71
3
 72
8
 73
4
 74
0
 40
0
 40
0
 40
0
 40
0
 40
1
 40
1
 40
1
 40
1
 10
2394.612800
 20
2354.738164
 30
0.0
 10
2388.863200
 20
2354.236164
 30
0.0
 10
2383.111840
 20
2353.757764
 30
0.0
 10
2377.358240
 20
2353.303444
 30
0.0
  0
SPLINE
  5
5cd
100
AcDbEntity
  8
Default
 62
7
100
AcDbSpline
 70
8
 71
3
 72
8
 73
4
 74
0
 40
0
 40
0
 40
0
 40
0
 40
1
 40
1
 40
1
 40
1
 10
2377.358240
 20
2353.303444
 30
0.0
 10
2371.591600
 20
2352.848084
 30
0.0
 10
2365.823280
 20
2352.416884
 30
0.0
 10
2360.052960
 20
2352.010084
 30
0.0
  0
SPLINE
  5
5ce
100
AcDbEntity
  8
Default
 62
7
100
AcDbSpline
 70
8
 71
3
 72
8
 73
4
 74
0
 40
0
 40
0
 40
0
 40
0
 40
1
 40
1
 40
1
 40
1
 10
2360.052960
 20
2352.010084
 30
0.0
 10
2313.875200
 20
2348.755044
 30
0.0
 10
2267.726160
 20
2347.080404
 30
0.0
 10
2221.431360
 20
2347.074884
 30
0.0
  0
SPLINE
  5
5cf
100
AcDbEntity
  8
Default
 62
7
100
AcDbSpline
 70
8
 71
3
 72
8
 73
4
 74
0
 40
0
 40
0
 40
0
 40
0
 40
1
 40
1
 40
1
 40
1
 10
2221.431360
 20
2347.074884
 30
0.0
 10
2175.141360
 20
2347.066884
 30
0.0
 10
2128.996800
 20
2348.732724
 30
0.0
 10
2082.823200
 20
2351.980244
 30
0.0
  0
SPLINE
  5
5d0
100
AcDbEntity
  8
Default
 62
7
100
AcDbSpline
 70
8
 71
3
 72
8
 73
4
 74
0
 40
0
 40
0
 40
0
 40
0
 40
1
 40
1
 40
1
 40
1
 10
2082.823200
 20
2351.980244
 30
0.0
 10
2077.049840
 20
2352.386324
 30
0.0
 10
2071.278480
 20
2352.816884
 30
0.0
 10
2065.508800
 20
2353.271764
 30
0.0
  0
SPLINE
  5
5d1
100
AcDbEntity
  8
Default
 62
7
100
AcDbSpline
 70
8
 71
3
 72
8
 73
4
 74
0
 40
0
 40
0
 40
0
 40
0
 40
1
 40
1
 40
1
 40
1
 10
2065.508800
 20
2353.271764
 30
0.0
 10
2059.752240
 20
2353.725604
 30
0.0
 10
2053.997840
 20
2354.203524
 30
0.0
 10
2048.245280
 20
2354.705204
 30
0.0
  0
SPLINE
  5
5d2
100
AcDbEntity
  8
Default
 62
7
100
AcDbSpline
 70
8
 71
3
 72
8
 73
4
 74
0
 40
0
 40
0
 40
0
 40
0
 40
1
 40
1
 40
1
 40
1
 10
2048.245280
 20
2354.705204
 30
0.0
 10
2036.747120
 20
2355.708004
 30
0.0
 10
2025.259280
 20
2356.805524
 30
0.0
 10
2013.779040
 20
2357.994964
 30
0.0
  0
SPLINE
  5
5d3
100
AcDbEntity
  8
Default
 62
7
100
AcDbSpline
 70
8
 71
3
 72
8
 73
4
 74
0
 40
0
 40
0
 40
0
 40
0
 40
1
 40
1
 40
1
 40
1
 10
2013.779040
 20
2357.994964
 30
0.0
 10
1990.812480
 20
2360.374404
 30
0.0
 10
1967.898000
 20
2363.119364
 30
0.0
 10
1945.015920
 20
2366.203284
 30
0.0
  0
SPLINE
  5
5d4
100
AcDbEntity
  8
Default
 62
7
100
AcDbSpline
 70
8
 71
3
 72
8
 73
4
 74
0
 40
0
 40
0
 40
0
 40
0
 40
1
 40
1
 40
1
 40
1
 10
1945.015920
 20
2366.203284
 30
0.0
 10
1886.677360
 20
2374.064004
 30
0.0
 10
1828.809600
 20
2384.082724
 30
0.0
 10
1771.135520
 20
2395.797284
 30
0.0
  0
SPLINE
  5
5d5
100
AcDbEntity
  8
Default
 62
7
100
AcDbSpline
 70
8
 71
3
 72
8
 73
4
 74
0
 40
0
 40
0
 40
0
 40
0
 40
1
 40
1
 40
1
 40
1
 10
1771.135520
 20
2395.797284
 30
0.0
 10
1742.399200
 20
2401.634164
 30
0.0
 10
1713.761200
 20
2407.881604
 30
0.0
 10
1685.194880
 20
2414.492724
 30
0.0
  0
SPLINE
  5
5d6
100
AcDbEntity
  8
Default
 62
7
100
AcDbSpline
 70
8
 71
3
 72
8
 73
4
 74
0
 40
0
 40
0
 40
0
 40
0
 40
1
 40
1
 40
1
 40
1
 10
1685.194880
 20
2414.492724
 30
0.0
 10
1656.714240
 20
2421.084004
 30
0.0
 10
1628.328000
 20
2428.031764
 30
0.0
 10
1600.012160
 20
2435.290084
 30
0.0
  0
SPLINE
  5
5d7
100
AcDbEntity
  8
Default
 62
7
100
AcDbSpline
 70
8
 71
3
 72
8
 73
4
 74
0
 40
0
 40
0
 40
0
 40
0
 40
1
 40
1
 40
1
 40
1
 10
2497.845200
 20
2366.240644
 30
0.0
 10
2613.733120
 20
2381.852564
 30
0.0
 10
2729.728080
 20
2406.294964
 30
0.0
 10
2842.850560
 20
2435.290164
 30
0.0
  0
SPLINE
  5
5d8
100
AcDbEntity
  8
Default
 62
7
100
AcDbSpline
 70
8
 71
3
 72
8
 73
4
 74
0
 40
0
 40
0
 40
0
 40
0
 40
1
 40
1
 40
1
 40
1
 10
2835.046240
 20
2487.930884
 30
0.0
 10
2837.903440
 20
2470.445684
 30
0.0
 10
2840.496480
 20
2452.896884
 30
0.0
 10
2842.850560
 20
2435.290164
 30
0.0
  0
SPLINE
  5
5d9
100
AcDbEntity
  8
Default
 62
7
100
AcDbSpline
 70
8
 71
3
 72
8
 73
4
 74
0
 40
0
 40
0
 40
0
 40
0
 40
1
 40
1
 40
1
 40
1
 10
1607.816560
 20
2487.930884
 30
0.0
 10
1604.959280
 20
2470.445604
 30
0.0
 10
1602.366240
 20
2452.896804
 30
0.0
 10
1600.012160
 20
2435.290084
 30
0.0
  0
SPLINE
  5
5da
100
AcDbEntity
  8
Default
 62
7
100
AcDbSpline
 70
8
 71
3
 72
8
 73
4
 74
0
 40
0
 40
0
 40
0
 40
0
 40
1
 40
1
 40
1
 40
1
 10
1674.520720
 20
1091.092676
 30
0.0
 10
1763.967360
 20
1069.372012
 30
0.0
 10
1854.996560
 20
1051.021124
 30
0.0
 10
1946.238320
 20
1038.304044
 30
0.0
  0
SPLINE
  5
5db
100
AcDbEntity
  8
Default
 62
7
100
AcDbSpline
 70
8
 71
3
 72
8
 73
4
 74
0
 40
0
 40
0
 40
0
 40
0
 40
1
 40
1
 40
1
 40
1
 10
1946.238320
 20
1038.304044
 30
0.0
 10
2037.996800
 20
1025.514940
 30
0.0
 10
2128.720960
 20
1018.582436
 30
0.0
 10
2221.431360
 20
1018.593732
 30
0.0
  0
SPLINE
  5
5dc
100
AcDbEntity
  8
Default
 62
7
100
AcDbSpline
 70
8
 71
3
 72
8
 73
4
 74
0
 40
0
 40
0
 40
0
 40
0
 40
1
 40
1
 40
1
 40
1
 10
2221.431360
 20
1018.593732
 30
0.0
 10
2314.123360
 20
1018.605092
 30
0.0
 10
2404.881280
 20
1025.557660
 30
0.0
 10
2496.621200
 20
1038.341052
 30
0.0
  0
SPLINE
  5
5dd
100
AcDbEntity
  8
Default
 62
7
100
AcDbSpline
 70
8
 71
3
 72
8
 73
4
 74
0
 40
0
 40
0
 40
0
 40
0
 40
1
 40
1
 40
1
 40
1
 10
2496.621200
 20
1038.341052
 30
0.0
 10
2587.858960
 20
1051.054460
 30
0.0
 10
2678.897280
 20
1069.385772
 30
0.0
 10
2768.342720
 20
1091.096868
 30
0.0
  0
SPLINE
  5
5de
100
AcDbEntity
  8
Default
 62
7
100
AcDbSpline
 70
8
 71
3
 72
8
 73
4
 74
0
 40
0
 40
0
 40
0
 40
0
 40
1
 40
1
 40
1
 40
1
 10
2454.123920
 20
981.347756
 30
0.0
 10
2556.973200
 20
993.659396
 30
0.0
 10
2659.483040
 20
1013.461164
 30
0.0
 10
2760.085200
 20
1037.617988
 30
0.0
  0
SPLINE
  5
5df
100
AcDbEntity
  8
Default
 62
7
100
AcDbSpline
 70
8
 71
3
 72
8
 73
4
 74
0
 40
0
 40
0
 40
0
 40
0
 40
1
 40
1
 40
1
 40
1
 10
1682.778320
 20
1037.612868
 30
0.0
 10
1783.389760
 20
1013.442588
 30
0.0
 10
1885.878080
 20
993.620476
 30
0.0
 10
1988.741440
 20
981.309772
 30
0.0
  0
SPLINE
  5
5e0
100
AcDbEntity
  8
Default
 62
7
100
AcDbSpline
 70
8
 71
3
 72
8
 73
4
 74
0
 40
0
 40
0
 40
0
 40
0
 40
1
 40
1
 40
1
 40
1
 10
2221.431360
 20
967.108172
 30
0.0
 10
2182.546400
 20
967.103372
 30
0.0
 10
2143.755680
 20
968.326756
 30
0.0
 10
2104.946080
 20
970.720492
 30
0.0
  0
SPLINE
  5
5e1
100
AcDbEntity
  8
Default
 62
7
100
AcDbSpline
 70
8
 71
3
 72
8
 73
4
 74
0
 40
0
 40
0
 40
0
 40
0
 40
1
 40
1
 40
1
 40
1
 10
2104.946080
 20
970.720492
 30
0.0
 10
2085.529920
 20
971.918068
 30
0.0
 10
2066.142640
 20
973.407484
 30
0.0
 10
2046.770640
 20
975.178612
 30
0.0
  0
SPLINE
  5
5e2
100
AcDbEntity
  8
Default
 62
7
100
AcDbSpline
 70
8
 71
3
 72
8
 73
4
 74
0
 40
0
 40
0
 40
0
 40
0
 40
1
 40
1
 40
1
 40
1
 10
2046.770640
 20
975.178612
 30
0.0
 10
2027.396720
 20
976.949908
 30
0.0
 10
2008.058080
 20
978.999604
 30
0.0
 10
1988.741440
 20
981.309772
 30
0.0
  0
SPLINE
  5
5e3
100
AcDbEntity
  8
Default
 62
7
100
AcDbSpline
 70
8
 71
3
 72
8
 73
4
 74
0
 40
0
 40
0
 40
0
 40
0
 40
1
 40
1
 40
1
 40
1
 10
2454.123920
 20
981.347756
 30
0.0
 10
2434.804160
 20
979.036588
 30
0.0
 10
2415.462320
 20
976.985372
 30
0.0
 10
2396.085280
 20
975.211860
 30
0.0
  0
SPLINE
  5
5e4
100
AcDbEntity
  8
Default
 62
7
100
AcDbSpline
 70
8
 71
3
 72
8
 73
4
 74
0
 40
0
 40
0
 40
0
 40
0
 40
1
 40
1
 40
1
 40
1
 10
2396.085280
 20
975.211860
 30
0.0
 10
2376.724400
 20
973.439820
 30
0.0
 10
2357.348240
 20
971.948340
 30
0.0
 10
2337.943200
 20
970.747748
 30
0.0
  0
SPLINE
  5
5e5
100
AcDbEntity
  8
Default
 62
7
100
AcDbSpline
 70
8
 71
3
 72
8
 73
4
 74
0
 40
0
 40
0
 40
0
 40
0
 40
1
 40
1
 40
1
 40
1
 10
2337.943200
 20
970.747748
 30
0.0
 10
2299.125040
 20
968.346076
 30
0.0
 10
2260.325440
 20
967.112892
 30
0.0
 10
2221.431360
 20
967.108172
 30
0.0
  0
SPLINE
  5
5e6
100
AcDbEntity
  8
Default
 62
7
100
AcDbSpline
 70
8
 71
3
 72
8
 73
4
 74
0
 40
0
 40
0
 40
0
 40
0
 40
1
 40
1
 40
1
 40
1
 10
2768.342720
 20
1091.096868
 30
0.0
 10
2765.607200
 20
1073.270892
 30
0.0
 10
2762.852560
 20
1055.444828
 30
0.0
 10
2760.085200
 20
1037.617988
 30
0.0
  0
SPLINE
  5
5e7
100
AcDbEntity
  8
Default
 62
7
100
AcDbSpline
 70
8
 71
3
 72
8
 73
4
 74
0
 40
0
 40
0
 40
0
 40
0
 40
1
 40
1
 40
1
 40
1
 10
1674.520720
 20
1091.092676
 30
0.0
 10
1677.256240
 20
1073.266380
 30
0.0
 10
1680.010960
 20
1055.440020
 30
0.0
 10
1682.778320
 20
1037.612868
 30
0.0
  0
SPLINE
  5
5e8
100
AcDbEntity
  8
Default
 62
7
100
AcDbSpline
 70
8
 71
3
 72
8
 73
4
 74
0
 40
0
 40
0
 40
0
 40
0
 40
1
 40
1
 40
1
 40
1
 10
1605.706240
 20
1611.801052
 30
0.0
 10
1705.864960
 20
1585.426868
 30
0.0
 10
1808.375520
 20
1562.685372
 30
0.0
 10
1910.835600
 20
1546.799700
 30
0.0
  0
SPLINE
  5
5e9
100
AcDbEntity
  8
Default
 62
7
100
AcDbSpline
 70
8
 71
3
 72
8
 73
4
 74
0
 40
0
 40
0
 40
0
 40
0
 40
1
 40
1
 40
1
 40
1
 10
1910.835600
 20
1546.799700
 30
0.0
 10
2014.396960
 20
1530.743316
 30
0.0
 10
2116.516080
 20
1521.862932
 30
0.0
 10
2221.431360
 20
1521.875700
 30
0.0
  0
SPLINE
  5
5ea
100
AcDbEntity
  8
Default
 62
7
100
AcDbSpline
 70
8
 71
3
 72
8
 73
4
 74
0
 40
0
 40
0
 40
0
 40
0
 40
1
 40
1
 40
1
 40
1
 10
2221.431360
 20
1521.875700
 30
0.0
 10
2326.321520
 20
1521.889300
 30
0.0
 10
2428.490080
 20
1530.790484
 30
0.0
 10
2532.027120
 20
1546.835212
 30
0.0
  0
SPLINE
  5
5eb
100
AcDbEntity
  8
Default
 62
7
100
AcDbSpline
 70
8
 71
3
 72
8
 73
4
 74
0
 40
0
 40
0
 40
0
 40
0
 40
1
 40
1
 40
1
 40
1
 10
2532.027120
 20
1546.835212
 30
0.0
 10
2634.484560
 20
1562.712652
 30
0.0
 10
2737.000000
 20
1585.428164
 30
0.0
 10
2837.156480
 20
1611.801076
 30
0.0
  0
SPLINE
  5
5ec
100
AcDbEntity
  8
Default
 62
7
100
AcDbSpline
 70
8
 71
3
 72
8
 73
4
 74
0
 40
0
 40
0
 40
0
 40
0
 40
1
 40
1
 40
1
 40
1
 10
1611.263440
 20
1558.856628
 30
0.0
 10
1724.531920
 20
1529.208932
 30
0.0
 10
1840.769520
 20
1504.257884
 30
0.0
 10
1956.994400
 20
1488.627580
 30
0.0
  0
SPLINE
  5
5ed
100
AcDbEntity
  8
Default
 62
7
100
AcDbSpline
 70
8
 71
3
 72
8
 73
4
 74
0
 40
0
 40
0
 40
0
 40
0
 40
1
 40
1
 40
1
 40
1
 10
2485.870320
 20
1488.665588
 30
0.0
 10
2602.085680
 20
1504.292532
 30
0.0
 10
2718.337440
 20
1529.212652
 30
0.0
 10
2831.599280
 20
1558.856692
 30
0.0
  0
SPLINE
  5
5ee
100
AcDbEntity
  8
Default
 62
7
100
AcDbSpline
 70
8
 71
3
 72
8
 73
4
 74
0
 40
0
 40
0
 40
0
 40
0
 40
1
 40
1
 40
1
 40
1
 10
2221.431360
 20
1470.390148
 30
0.0
 10
2177.189440
 20
1470.385348
 30
0.0
 10
2133.086400
 20
1471.968276
 30
0.0
 10
2088.955520
 20
1475.054884
 30
0.0
  0
SPLINE
  5
5ef
100
AcDbEntity
  8
Default
 62
7
100
AcDbSpline
 70
8
 71
3
 72
8
 73
4
 74
0
 40
0
 40
0
 40
0
 40
0
 40
1
 40
1
 40
1
 40
1
 10
2088.955520
 20
1475.054884
 30
0.0
 10
2077.920480
 20
1475.826700
 30
0.0
 10
2066.894000
 20
1476.692044
 30
0.0
 10
2055.873600
 20
1477.649156
 30
0.0
  0
SPLINE
  5
5f0
100
AcDbEntity
  8
Default
 62
7
100
AcDbSpline
 70
8
 71
3
 72
8
 73
4
 74
0
 40
0
 40
0
 40
0
 40
0
 40
1
 40
1
 40
1
 40
1
 10
2055.873600
 20
1477.649156
 30
0.0
 10
2044.863280
 20
1478.605380
 30
0.0
 10
2033.862800
 20
1479.652660
 30
0.0
 10
2022.869600
 20
1480.787812
 30
0.0
  0
SPLINE
  5
5f1
100
AcDbEntity
  8
Default
 62
7
100
AcDbSpline
 70
8
 71
3
 72
8
 73
4
 74
0
 40
0
 40
0
 40
0
 40
0
 40
1
 40
1
 40
1
 40
1
 10
2022.869600
 20
1480.787812
 30
0.0
 10
2000.867440
 20
1483.059740
 30
0.0
 10
1978.915360
 20
1485.681404
 30
0.0
 10
1956.994400
 20
1488.627580
 30
0.0
  0
SPLINE
  5
5f2
100
AcDbEntity
  8
Default
 62
7
100
AcDbSpline
 70
8
 71
3
 72
8
 73
4
 74
0
 40
0
 40
0
 40
0
 40
0
 40
1
 40
1
 40
1
 40
1
 10
2485.870320
 20
1488.665588
 30
0.0
 10
2463.944480
 20
1485.719068
 30
0.0
 10
2441.987440
 20
1483.096324
 30
0.0
 10
2419.980560
 20
1480.822508
 30
0.0
  0
SPLINE
  5
5f3
100
AcDbEntity
  8
Default
 62
7
100
AcDbSpline
 70
8
 71
3
 72
8
 73
4
 74
0
 40
0
 40
0
 40
0
 40
0
 40
1
 40
1
 40
1
 40
1
 10
2419.980560
 20
1480.822508
 30
0.0
 10
2408.989600
 20
1479.686876
 30
0.0
 10
2397.991280
 20
1478.638852
 30
0.0
 10
2386.983200
 20
1477.681556
 30
0.0
  0
SPLINE
  5
5f4
100
AcDbEntity
  8
Default
 62
7
100
AcDbSpline
 70
8
 71
3
 72
8
 73
4
 74
0
 40
0
 40
0
 40
0
 40
0
 40
1
 40
1
 40
1
 40
1
 10
2386.983200
 20
1477.681556
 30
0.0
 10
2375.971920
 20
1476.723996
 30
0.0
 10
2364.954560
 20
1475.857796
 30
0.0
 10
2353.928560
 20
1475.084732
 30
0.0
  0
SPLINE
  5
5f5
100
AcDbEntity
  8
Default
 62
7
100
AcDbSpline
 70
8
 71
3
 72
8
 73
4
 74
0
 40
0
 40
0
 40
0
 40
0
 40
1
 40
1
 40
1
 40
1
 10
2353.928560
 20
1475.084732
 30
0.0
 10
2309.790960
 20
1471.990132
 30
0.0
 10
2265.680720
 20
1470.395548
 30
0.0
 10
2221.431360
 20
1470.390148
 30
0.0
  0
SPLINE
  5
5f6
100
AcDbEntity
  8
Default
 62
7
100
AcDbSpline
 70
8
 71
3
 72
8
 73
4
 74
0
 40
0
 40
0
 40
0
 40
0
 40
1
 40
1
 40
1
 40
1
 10
2837.156480
 20
1611.801076
 30
0.0
 10
2835.373520
 20
1594.136988
 30
0.0
 10
2833.519120
 20
1576.486492
 30
0.0
 10
2831.599280
 20
1558.856692
 30
0.0
  0
SPLINE
  5
5f7
100
AcDbEntity
  8
Default
 62
7
100
AcDbSpline
 70
8
 71
3
 72
8
 73
4
 74
0
 40
0
 40
0
 40
0
 40
0
 40
1
 40
1
 40
1
 40
1
 10
1605.706240
 20
1611.801052
 30
0.0
 10
1607.489200
 20
1594.136964
 30
0.0
 10
1609.343600
 20
1576.486444
 30
0.0
 10
1611.263440
 20
1558.856628
 30
0.0
  0
SPLINE
  5
5f8
100
AcDbEntity
  8
Default
 62
7
100
AcDbSpline
 70
8
 71
3
 72
8
 73
4
 74
0
 40
0
 40
0
 40
0
 40
0
 40
1
 40
1
 40
1
 40
1
 10
2693.379280
 20
1525.611628
 30
0.0
 10
2575.425200
 20
1525.611628
 30
0.0
 10
2457.471120
 20
1525.611628
 30
0.0
 10
2339.517040
 20
1525.611628
 30
0.0
  0
SPLINE
  5
5f9
100
AcDbEntity
  8
Default
 62
7
100
AcDbSpline
 70
8
 71
3
 72
8
 73
4
 74
0
 40
0
 40
0
 40
0
 40
0
 40
1
 40
1
 40
1
 40
1
 10
2102.930960
 20
1525.611628
 30
0.0
 10
1985.093760
 20
1525.611628
 30
0.0
 10
1867.256560
 20
1525.611628
 30
0.0
 10
1749.419280
 20
1525.611628
 30
0.0
  0
SPLINE
  5
5fa
100
AcDbEntity
  8
Default
 62
7
100
AcDbSpline
 70
8
 71
3
 72
8
 73
4
 74
0
 40
0
 40
0
 40
0
 40
0
 40
1
 40
1
 40
1
 40
1
 10
2221.431360
 20
1984.570404
 30
0.0
 10
2330.529600
 20
1984.581604
 30
0.0
 10
2437.088640
 20
1992.677764
 30
0.0
 10
2545.105760
 20
2007.429684
 30
0.0
  0
SPLINE
  5
5fb
100
AcDbEntity
  8
Default
 62
7
100
AcDbSpline
 70
8
 71
3
 72
8
 73
4
 74
0
 40
0
 40
0
 40
0
 40
0
 40
1
 40
1
 40
1
 40
1
 10
2545.105760
 20
2007.429684
 30
0.0
 10
2651.888880
 20
2022.013124
 30
0.0
 10
2758.652240
 20
2042.928484
 30
0.0
 10
2863.515760
 20
2067.491204
 30
0.0
  0
SPLINE
  5
5fc
100
AcDbEntity
  8
Default
 62
7
100
AcDbSpline
 70
8
 71
3
 72
8
 73
4
 74
0
 40
0
 40
0
 40
0
 40
0
 40
1
 40
1
 40
1
 40
1
 10
1579.346960
 20
2067.490404
 30
0.0
 10
1684.212960
 20
2042.922324
 30
0.0
 10
1790.965120
 20
2021.983924
 30
0.0
 10
1897.752160
 20
2007.393844
 30
0.0
  0
SPLINE
  5
5fd
100
AcDbEntity
  8
Default
 62
7
100
AcDbSpline
 70
8
 71
3
 72
8
 73
4
 74
0
 40
0
 40
0
 40
0
 40
0
 40
1
 40
1
 40
1
 40
1
 10
1897.752160
 20
2007.393844
 30
0.0
 10
2005.794400
 20
1992.632404
 30
0.0
 10
2112.307680
 20
1984.558244
 30
0.0
 10
2221.431360
 20
1984.570404
 30
0.0
  0
SPLINE
  5
5fe
100
AcDbEntity
  8
Default
 62
7
100
AcDbSpline
 70
8
 71
3
 72
8
 73
4
 74
0
 40
0
 40
0
 40
0
 40
0
 40
1
 40
1
 40
1
 40
1
 10
1580.010800
 20
2015.849364
 30
0.0
 10
1639.497040
 20
2001.922564
 30
0.0
 10
1699.194480
 20
1989.251284
 30
0.0
 10
1759.287280
 20
1978.195204
 30
0.0
  0
SPLINE
  5
5ff
100
AcDbEntity
  8
Default
 62
7
100
AcDbSpline
 70
8
 71
3
 72
8
 73
4
 74
0
 40
0
 40
0
 40
0
 40
0
 40
1
 40
1
 40
1
 40
1
 10
1759.287280
 20
1978.195204
 30
0.0
 10
1819.460640
 20
1967.124404
 30
0.0
 10
1879.802480
 20
1957.719204
 30
0.0
 10
1940.557760
 20
1950.404564
 30
0.0
  0
SPLINE
  5
600
100
AcDbEntity
  8
Default
 62
7
100
AcDbSpline
 70
8
 71
3
 72
8
 73
4
 74
0
 40
0
 40
0
 40
0
 40
0
 40
1
 40
1
 40
1
 40
1
 10
2502.305520
 20
1950.442404
 30
0.0
 10
2563.059280
 20
1957.756324
 30
0.0
 10
2623.401280
 20
1967.154244
 30
0.0
 10
2683.574720
 20
1978.216564
 30
0.0
  0
SPLINE
  5
601
100
AcDbEntity
  8
Default
 62
7
100
AcDbSpline
 70
8
 71
3
 72
8
 73
4
 74
0
 40
0
 40
0
 40
0
 40
0
 40
1
 40
1
 40
1
 40
1
 10
2683.574720
 20
1978.216564
 30
0.0
 10
2743.667920
 20
1989.264164
 30
0.0
 10
2803.366000
 20
2001.926244
 30
0.0
 10
2862.851920
 20
2015.850164
 30
0.0
  0
SPLINE
  5
602
100
AcDbEntity
  8
Default
 62
7
100
AcDbSpline
 70
8
 71
3
 72
8
 73
4
 74
0
 40
0
 40
0
 40
0
 40
0
 40
1
 40
1
 40
1
 40
1
 10
2221.431360
 20
1933.084884
 30
0.0
 10
2127.019520
 20
1933.073684
 30
0.0
 10
2034.251680
 20
1939.126804
 30
0.0
 10
1940.557760
 20
1950.404564
 30
0.0
  0
SPLINE
  5
603
100
AcDbEntity
  8
Default
 62
7
100
AcDbSpline
 70
8
 71
3
 72
8
 73
4
 74
0
 40
0
 40
0
 40
0
 40
0
 40
1
 40
1
 40
1
 40
1
 10
2502.305520
 20
1950.442404
 30
0.0
 10
2408.394160
 20
1939.139284
 30
0.0
 10
2315.548640
 20
1933.095364
 30
0.0
 10
2221.431360
 20
1933.084884
 30
0.0
  0
SPLINE
  5
604
100
AcDbEntity
  8
Default
 62
7
100
AcDbSpline
 70
8
 71
3
 72
8
 73
4
 74
0
 40
0
 40
0
 40
0
 40
0
 40
1
 40
1
 40
1
 40
1
 10
2863.515760
 20
2067.491204
 30
0.0
 10
2863.413680
 20
2050.281444
 30
0.0
 10
2863.189680
 20
2033.064724
 30
0.0
 10
2862.851920
 20
2015.850164
 30
0.0
  0
SPLINE
  5
605
100
AcDbEntity
  8
Default
 62
7
100
AcDbSpline
 70
8
 71
3
 72
8
 73
4
 74
0
 40
0
 40
0
 40
0
 40
0
 40
1
 40
1
 40
1
 40
1
 10
1579.346960
 20
2067.490404
 30
0.0
 10
1579.449280
 20
2050.280644
 30
0.0
 10
1579.673040
 20
2033.063924
 30
0.0
 10
1580.010800
 20
2015.849364
 30
0.0
  0
SPLINE
  5
606
100
AcDbEntity
  8
Default
 62
7
100
AcDbSpline
 70
8
 71
3
 72
8
 73
4
 74
0
 40
0
 40
0
 40
0
 40
0
 40
1
 40
1
 40
1
 40
1
 10
2221.431280
 20
446.313420
 30
0.0
 10
2298.873840
 20
446.322460
 30
0.0
 10
2375.155680
 20
451.177268
 30
0.0
 10
2452.031920
 20
460.303620
 30
0.0
  0
SPLINE
  5
607
100
AcDbEntity
  8
Default
 62
7
100
AcDbSpline
 70
8
 71
3
 72
8
 73
4
 74
0
 40
0
 40
0
 40
0
 40
0
 40
1
 40
1
 40
1
 40
1
 10
2452.031920
 20
460.303620
 30
0.0
 10
2528.722320
 20
469.407916
 30
0.0
 10
2604.960400
 20
482.644348
 30
0.0
 10
2680.453920
 20
498.748716
 30
0.0
  0
SPLINE
  5
608
100
AcDbEntity
  8
Default
 62
7
100
AcDbSpline
 70
8
 71
3
 72
8
 73
4
 74
0
 40
0
 40
0
 40
0
 40
0
 40
1
 40
1
 40
1
 40
1
 10
1762.410800
 20
498.732300
 30
0.0
 10
1837.909760
 20
482.615212
 30
0.0
 10
1914.130160
 20
469.369500
 30
0.0
 10
1990.829120
 20
460.266204
 30
0.0
  0
SPLINE
  5
609
100
AcDbEntity
  8
Default
 62
7
100
AcDbSpline
 70
8
 71
3
 72
8
 73
4
 74
0
 40
0
 40
0
 40
0
 40
0
 40
1
 40
1
 40
1
 40
1
 10
1990.829120
 20
460.266204
 30
0.0
 10
2067.716480
 20
451.140548
 30
0.0
 10
2143.978320
 20
446.304012
 30
0.0
 10
2221.431280
 20
446.313420
 30
0.0
  0
SPLINE
  5
60a
100
AcDbEntity
  8
Default
 62
7
100
AcDbSpline
 70
8
 71
3
 72
8
 73
4
 74
0
 40
0
 40
0
 40
0
 40
0
 40
1
 40
1
 40
1
 40
1
 10
1768.825600
 20
445.884372
 30
0.0
 10
1853.380800
 20
428.027940
 30
0.0
 10
1938.692960
 20
413.835956
 30
0.0
 10
2024.723520
 20
405.033788
 30
0.0
  0
SPLINE
  5
60b
100
AcDbEntity
  8
Default
 62
7
100
AcDbSpline
 70
8
 71
3
 72
8
 73
4
 74
0
 40
0
 40
0
 40
0
 40
0
 40
1
 40
1
 40
1
 40
1
 10
2674.039200
 20
445.901788
 30
0.0
 10
2631.703200
 20
436.967732
 30
0.0
 10
2589.231040
 20
428.962556
 30
0.0
 10
2546.510560
 20
422.076908
 30
0.0
  0
SPLINE
  5
60c
100
AcDbEntity
  8
Default
 62
7
100
AcDbSpline
 70
8
 71
3
 72
8
 73
4
 74
0
 40
0
 40
0
 40
0
 40
0
 40
1
 40
1
 40
1
 40
1
 10
2546.510560
 20
422.076908
 30
0.0
 10
2535.850080
 20
420.358660
 30
0.0
 10
2525.179440
 20
418.711364
 30
0.0
 10
2514.496640
 20
417.137588
 30
0.0
  0
SPLINE
  5
60d
100
AcDbEntity
  8
Default
 62
7
100
AcDbSpline
 70
8
 71
3
 72
8
 73
4
 74
0
 40
0
 40
0
 40
0
 40
0
 40
1
 40
1
 40
1
 40
1
 10
2514.496640
 20
417.137588
 30
0.0
 10
2503.814080
 20
415.563844
 30
0.0
 10
2493.121840
 20
414.064204
 30
0.0
 10
2482.418080
 20
412.641820
 30
0.0
  0
SPLINE
  5
60e
100
AcDbEntity
  8
Default
 62
7
100
AcDbSpline
 70
8
 71
3
 72
8
 73
4
 74
0
 40
0
 40
0
 40
0
 40
0
 40
1
 40
1
 40
1
 40
1
 10
2482.418080
 20
412.641820
 30
0.0
 10
2461.027440
 20
409.799332
 30
0.0
 10
2439.607600
 20
407.267812
 30
0.0
 10
2418.140960
 20
405.069868
 30
0.0
  0
SPLINE
  5
60f
100
AcDbEntity
  8
Default
 62
7
100
AcDbSpline
 70
8
 71
3
 72
8
 73
4
 74
0
 40
0
 40
0
 40
0
 40
0
 40
1
 40
1
 40
1
 40
1
 10
2418.140960
 20
405.069868
 30
0.0
 10
2401.795120
 20
403.397068
 30
0.0
 10
2385.435600
 20
401.916996
 30
0.0
 10
2369.053920
 20
400.641564
 30
0.0
  0
SPLINE
  5
610
100
AcDbEntity
  8
Default
 62
7
100
AcDbSpline
 70
8
 71
3
 72
8
 73
4
 74
0
 40
0
 40
0
 40
0
 40
0
 40
1
 40
1
 40
1
 40
1
 10
2369.053920
 20
400.641564
 30
0.0
 10
2352.676960
 20
399.366516
 30
0.0
 10
2336.290640
 20
398.295972
 30
0.0
 10
2319.886640
 20
397.434876
 30
0.0
  0
SPLINE
  5
611
100
AcDbEntity
  8
Default
 62
7
100
AcDbSpline
 70
8
 71
3
 72
8
 73
4
 74
0
 40
0
 40
0
 40
0
 40
0
 40
1
 40
1
 40
1
 40
1
 10
2319.886640
 20
397.434876
 30
0.0
 10
2287.079760
 20
395.712748
 30
0.0
 10
2254.284080
 20
394.831876
 30
0.0
 10
2221.431360
 20
394.827868
 30
0.0
  0
SPLINE
  5
612
100
AcDbEntity
  8
Default
 62
7
100
AcDbSpline
 70
8
 71
3
 72
8
 73
4
 74
0
 40
0
 40
0
 40
0
 40
0
 40
1
 40
1
 40
1
 40
1
 10
2221.431360
 20
394.827868
 30
0.0
 10
2188.587600
 20
394.823068
 30
0.0
 10
2155.800800
 20
395.696396
 30
0.0
 10
2123.002480
 20
397.411228
 30
0.0
  0
SPLINE
  5
613
100
AcDbEntity
  8
Default
 62
7
100
AcDbSpline
 70
8
 71
3
 72
8
 73
4
 74
0
 40
0
 40
0
 40
0
 40
0
 40
1
 40
1
 40
1
 40
1
 10
2123.002480
 20
397.411228
 30
0.0
 10
2106.594640
 20
398.269076
 30
0.0
 10
2090.204400
 20
399.336852
 30
0.0
 10
2073.823600
 20
400.609796
 30
0.0
  0
SPLINE
  5
614
100
AcDbEntity
  8
Default
 62
7
100
AcDbSpline
 70
8
 71
3
 72
8
 73
4
 74
0
 40
0
 40
0
 40
0
 40
0
 40
1
 40
1
 40
1
 40
1
 10
2073.823600
 20
400.609796
 30
0.0
 10
2057.437520
 20
401.883140
 30
0.0
 10
2041.073680
 20
403.361804
 30
0.0
 10
2024.723520
 20
405.033788
 30
0.0
  0
SPLINE
  5
615
100
AcDbEntity
  8
Default
 62
7
100
AcDbSpline
 70
8
 71
3
 72
8
 73
4
 74
0
 40
0
 40
0
 40
0
 40
0
 40
1
 40
1
 40
1
 40
1
 10
2680.453920
 20
498.748716
 30
0.0
 10
2678.245920
 20
481.114300
 30
0.0
 10
2676.106640
 20
463.509220
 30
0.0
 10
2674.039200
 20
445.901788
 30
0.0
  0
SPLINE
  5
616
100
AcDbEntity
  8
Default
 62
7
100
AcDbSpline
 70
8
 71
3
 72
8
 73
4
 74
0
 40
0
 40
0
 40
0
 40
0
 40
1
 40
1
 40
1
 40
1
 10
1762.410800
 20
498.732300
 30
0.0
 10
1764.618880
 20
481.097564
 30
0.0
 10
1766.758160
 20
463.492148
 30
0.0
 10
1768.825600
 20
445.884372
 30
0.0
  0
LWPOLYLINE
  5
617
100
AcDbEntity
  8
Default
 62
7
100
AcDbPolyline
 90
2
 70
0
 10
2378.343440
 20
2405.119364
 30
0.0
 10
2378.343440
 20
2405.119364
 30
0.0
  0
LWPOLYLINE
  5
618
100
AcDbEntity
  8
Default
 62
7
100
AcDbPolyline
 90
2
 70
0
 10
2534.264800
 20
2423.867764
 30
0.0
 10
2534.264800
 20
2423.867764
 30
0.0
  0
ENDSEC
  0
SECTION
  2
OBJECTS
  0
DICTIONARY
  5
C
330
0
100
AcDbDictionary
  3
ACAD_GROUP
350
D
  3
ACAD_MLINESTYLE
350
17
  0
DICTIONARY
  5
D
330
C
100
AcDbDictionary
  0
DICTIONARY
  5
1A
330
C
100
AcDbDictionary
  0
DICTIONARY
  5
17
330
C
100
AcDbDictionary
  3
STANDARD
350
18
  0
DICTIONARY
  5
19
330
C
100
AcDbDictionary
  0
ENDSEC
  0
EOF
