  0
SECTION
  2
HEADER
  9
$ACADVER
  1
AC1014
  9
$HANDSEED
  5
FFFF
  9
$MEASUREMENT
 70
     1
  0
ENDSEC
  0
SECTION
  2
TABLES
  0
TABLE
  2
VPORT
  5
8
330
0
100
AcDbSymbolTable
 70
     4
  0
VPORT
  5
2E
330
8
100
AcDbSymbolTableRecord
100
AcDbViewportTableRecord
  2
*ACTIVE
 70
     0
 10
0.0
 20
0.0
 11
1.0
 21
1.0
 12
210.0
 22
148.5
 13
0.0
 23
0.0
 14
10.0
 24
10.0
 15
10.0
 25
10.0
 16
0.0
 26
0.0
 36
1.0
 17
0.0
 27
0.0
 37
0.0
 40
341.0
 41
1.24
 42
50.0
 43
0.0
 44
0.0
 50
0.0
 51
0.0
 71
     0
 72
   100
 73
     1
 74
     3
 75
     0
 76
     0
 77
     0
 78
     0
  0
ENDTAB
  0
TABLE
  2
LTYPE
  5
5
330
0
100
AcDbSymbolTable
 70
     1
  0
LTYPE
  5
14
330
5
100
AcDbSymbolTableRecord
100
AcDbLinetypeTableRecord
  2
BYBLOCK
 70
     0
  3

 72
    65
 73
     0
 40
0.0
  0
LTYPE
  5
15
330
5
100
AcDbSymbolTableRecord
100
AcDbLinetypeTableRecord
  2
BYLAYER
 70
     0
  3

 72
    65
 73
     0
 40
0.0
  0
LTYPE
  5
16
330
5
100
AcDbSymbolTableRecord
100
AcDbLinetypeTableRecord
  2
CONTINUOUS
 70
     0
  3
Solid line
 72
    65
 73
     0
 40
0.0
  0
ENDTAB
  0
TABLE
  2
LAYER
  5
2
100
AcDbSymbolTable
 70
1
  0
LAYER
  5
50
100
AcDbSymbolTableRecord
100
AcDbLayerTableRecord
  2
0
 70
0
  6
CONTINUOUS
  0
ENDTAB
  0
TABLE
  2
STYLE
  5
3
330
0
100
AcDbSymbolTable
 70
     1
  0
STYLE
  5
11
330
3
100
AcDbSymbolTableRecord
100
AcDbTextStyleTableRecord
  2
STANDARD
 70
     0
 40
0.0
 41
1.0
 50
0.0
 71
     0
 42
2.5
  3
txt
  4

  0
ENDTAB
  0
TABLE
  2
VIEW
  5
6
330
0
100
AcDbSymbolTable
 70
     0
  0
ENDTAB
  0
TABLE
  2
UCS
  5
7
330
0
100
AcDbSymbolTable
 70
     0
  0
ENDTAB
  0
TABLE
  2
APPID
  5
9
330
0
100
AcDbSymbolTable
 70
     2
  0
APPID
  5
12
330
9
100
AcDbSymbolTableRecord
100
AcDbRegAppTableRecord
  2
ACAD
 70
     0
  0
ENDTAB
  0
TABLE
  2
DIMSTYLE
  5
A
330
0
100
AcDbSymbolTable
 70
     1
  0
DIMSTYLE
105
27
330
A
100
AcDbSymbolTableRecord
100
AcDbDimStyleTableRecord
  2
ISO-25
 70
     0
  3

  4

  5

  6

  7

 40
1.0
 41
2.5
 42
0.625
 43
3.75
 44
1.25
 45
0.0
 46
0.0
 47
0.0
 48
0.0
140
2.5
141
2.5
142
0.0
143
0.03937007874016
144
1.0
145
0.0
146
1.0
147
0.625
 71
     0
 72
     0
 73
     0
 74
     0
 75
     0
 76
     0
 77
     1
 78
     8
170
     0
171
     3
172
     1
173
     0
174
     0
175
     0
176
     0
177
     0
178
     0
270
     2
271
     2
272
     2
273
     2
274
     3
340
11
275
     0
280
     0
281
     0
282
     0
283
     0
284
     8
285
     0
286
     0
287
     3
288
     0
  0
ENDTAB
  0
TABLE
  2
BLOCK_RECORD
  5
1
330
0
100
AcDbSymbolTable
 70
     1
  0
BLOCK_RECORD
  5
1F
330
1
100
AcDbSymbolTableRecord
100
AcDbBlockTableRecord
  2
*MODEL_SPACE
  0
BLOCK_RECORD
  5
1B
330
1
100
AcDbSymbolTableRecord
100
AcDbBlockTableRecord
  2
*PAPER_SPACE
  0
ENDTAB
  0
ENDSEC
  0
SECTION
  2
BLOCKS
  0
BLOCK
  5
20
330
1F
100
AcDbEntity
  8
0
100
AcDbBlockBegin
  2
*MODEL_SPACE
 70
     0
 10
0.0
 20
0.0
 30
0.0
  3
*MODEL_SPACE
  1

  0
ENDBLK
  5
21
330
1F
100
AcDbEntity
  8
0
100
AcDbBlockEnd
  0
BLOCK
  5
1C
330
1B
100
AcDbEntity
 67
     1
  8
0
100
AcDbBlockBegin
  2
*PAPER_SPACE
  1

  0
ENDBLK
  5
1D
330
1B
100
AcDbEntity
 67
     1
  8
0
100
AcDbBlockEnd
  0
ENDSEC
  0
SECTION
  2
ENTITIES
  0
SPLINE
  5
100
100
AcDbEntity
  8
0
 62
1
100
AcDbSpline
 70
8
 71
3
 72
8
 73
4
 74
0
 40
0
 40
0
 40
0
 40
0
 40
1
 40
1
 40
1
 40
1
 10
635.654560
 20
32.352000
 30
0.0
 10
633.201920
 20
33.386080
 30
0.0
 10
631.385280
 20
36.117760
 30
0.0
 10
612.423920
 20
67.283600
 30
0.0
  0
SPLINE
  5
101
100
AcDbEntity
  8
0
 62
1
100
AcDbSpline
 70
8
 71
3
 72
8
 73
4
 74
0
 40
0
 40
0
 40
0
 40
0
 40
1
 40
1
 40
1
 40
1
 10
612.423920
 20
67.283600
 30
0.0
 10
605.548080
 20
78.585040
 30
0.0
 10
599.195600
 20
87.971680
 30
0.0
 10
598.307120
 20
88.142800
 30
0.0
  0
SPLINE
  5
102
100
AcDbEntity
  8
0
 62
1
100
AcDbSpline
 70
8
 71
3
 72
8
 73
4
 74
0
 40
0
 40
0
 40
0
 40
0
 40
1
 40
1
 40
1
 40
1
 10
598.307120
 20
88.142800
 30
0.0
 10
597.223360
 20
88.351440
 30
0.0
 10
595.210080
 20
86.052240
 30
0.0
 10
592.189040
 20
81.156160
 30
0.0
  0
SPLINE
  5
103
100
AcDbEntity
  8
0
 62
1
100
AcDbSpline
 70
8
 71
3
 72
8
 73
4
 74
0
 40
0
 40
0
 40
0
 40
0
 40
1
 40
1
 40
1
 40
1
 10
592.189040
 20
81.156160
 30
0.0
 10
589.712560
 20
77.142480
 30
0.0
 10
582.184080
 20
64.970960
 30
0.0
 10
575.459120
 20
54.108480
 30
0.0
  0
SPLINE
  5
104
100
AcDbEntity
  8
0
 62
1
100
AcDbSpline
 70
8
 71
3
 72
8
 73
4
 74
0
 40
0
 40
0
 40
0
 40
0
 40
1
 40
1
 40
1
 40
1
 10
548.796560
 20
34.358480
 30
0.0
 10
533.381600
 20
34.358480
 30
0.0
 10
528.537280
 20
35.412400
 30
0.0
 10
526.505840
 20
39.208080
 30
0.0
  0
SPLINE
  5
105
100
AcDbEntity
  8
0
 62
1
100
AcDbSpline
 70
8
 71
3
 72
8
 73
4
 74
0
 40
0
 40
0
 40
0
 40
0
 40
1
 40
1
 40
1
 40
1
 10
526.505840
 20
39.208080
 30
0.0
 10
525.763280
 20
40.595680
 30
0.0
 10
525.425360
 20
61.812640
 30
0.0
 10
525.425360
 20
107.054800
 30
0.0
  0
LWPOLYLINE
  5
106
100
AcDbEntity
  8
0
 62
1
100
AcDbPolyline
 90
3
 70
1
 10
575.459120
 20
54.108480
 30
0.0
 10
563.232000
 20
34.358480
 30
0.0
 10
548.796560
 20
34.358480
 30
0.0
  0
SPLINE
  5
107
100
AcDbEntity
  8
0
 62
1
100
AcDbSpline
 70
8
 71
3
 72
8
 73
4
 74
0
 40
0
 40
0
 40
0
 40
0
 40
1
 40
1
 40
1
 40
1
 10
543.101600
 20
203.870480
 30
0.0
 10
558.487600
 20
230.843600
 30
0.0
 10
560.870240
 20
235.602480
 30
0.0
 10
561.491680
 20
240.601200
 30
0.0
  0
SPLINE
  5
108
100
AcDbEntity
  8
0
 62
1
100
AcDbSpline
 70
8
 71
3
 72
8
 73
4
 74
0
 40
0
 40
0
 40
0
 40
0
 40
1
 40
1
 40
1
 40
1
 10
561.491680
 20
240.601200
 30
0.0
 10
561.884400
 20
243.759680
 30
0.0
 10
562.367600
 20
266.977760
 30
0.0
 10
562.565520
 20
292.197040
 30
0.0
  0
SPLINE
  5
109
100
AcDbEntity
  8
0
 62
1
100
AcDbSpline
 70
8
 71
3
 72
8
 73
4
 74
0
 40
0
 40
0
 40
0
 40
0
 40
1
 40
1
 40
1
 40
1
 10
562.565520
 20
292.197040
 30
0.0
 10
562.856160
 20
329.234800
 30
0.0
 10
562.670320
 20
338.357600
 30
0.0
 10
561.598560
 20
339.649360
 30
0.0
  0
SPLINE
  5
10a
100
AcDbEntity
  8
0
 62
1
100
AcDbSpline
 70
8
 71
3
 72
8
 73
4
 74
0
 40
0
 40
0
 40
0
 40
0
 40
1
 40
1
 40
1
 40
1
 10
561.598560
 20
339.649360
 30
0.0
 10
560.090320
 20
341.467200
 30
0.0
 10
557.981120
 20
342.819040
 30
0.0
 10
532.503360
 20
358.297280
 30
0.0
  0
SPLINE
  5
10b
100
AcDbEntity
  8
0
 62
1
100
AcDbSpline
 70
8
 71
3
 72
8
 73
4
 74
0
 40
0
 40
0
 40
0
 40
0
 40
1
 40
1
 40
1
 40
1
 10
532.503360
 20
358.297280
 30
0.0
 10
519.541520
 20
366.171840
 30
0.0
 10
513.465520
 20
369.332320
 30
0.0
 10
512.003360
 20
368.960560
 30
0.0
  0
SPLINE
  5
10c
100
AcDbEntity
  8
0
 62
1
100
AcDbSpline
 70
8
 71
3
 72
8
 73
4
 74
0
 40
0
 40
0
 40
0
 40
0
 40
1
 40
1
 40
1
 40
1
 10
512.003360
 20
368.960560
 30
0.0
 10
509.946480
 20
368.437440
 30
0.0
 10
484.901040
 20
354.723040
 30
0.0
 10
470.425360
 20
346.193120
 30
0.0
  0
LWPOLYLINE
  5
10d
100
AcDbEntity
  8
0
 62
1
100
AcDbPolyline
 90
3
 70
1
 10
525.425360
 20
107.054800
 30
0.0
 10
525.425360
 20
172.882480
 30
0.0
 10
543.101600
 20
203.870480
 30
0.0
  0
SPLINE
  5
10e
100
AcDbEntity
  8
0
 62
1
100
AcDbSpline
 70
8
 71
3
 72
8
 73
4
 74
0
 40
0
 40
0
 40
0
 40
0
 40
1
 40
1
 40
1
 40
1
 10
462.315520
 20
320.816080
 30
0.0
 10
461.980080
 20
309.289440
 30
0.0
 10
461.642560
 20
297.923040
 30
0.0
 10
461.565520
 20
295.557440
 30
0.0
  0
SPLINE
  5
10f
100
AcDbEntity
  8
0
 62
1
100
AcDbSpline
 70
8
 71
3
 72
8
 73
4
 74
0
 40
0
 40
0
 40
0
 40
0
 40
1
 40
1
 40
1
 40
1
 10
461.565520
 20
295.557440
 30
0.0
 10
461.436720
 20
291.605120
 30
0.0
 10
461.130080
 20
291.133040
 30
0.0
 10
457.782960
 20
289.734560
 30
0.0
  0
SPLINE
  5
110
100
AcDbEntity
  8
0
 62
1
100
AcDbSpline
 70
8
 71
3
 72
8
 73
4
 74
0
 40
0
 40
0
 40
0
 40
0
 40
1
 40
1
 40
1
 40
1
 10
457.782960
 20
289.734560
 30
0.0
 10
454.268240
 20
288.266000
 30
0.0
 10
453.877440
 20
288.327360
 30
0.0
 10
446.636320
 20
291.484480
 30
0.0
  0
SPLINE
  5
111
100
AcDbEntity
  8
0
 62
1
100
AcDbSpline
 70
8
 71
3
 72
8
 73
4
 74
0
 40
0
 40
0
 40
0
 40
0
 40
1
 40
1
 40
1
 40
1
 10
446.636320
 20
291.484480
 30
0.0
 10
442.178720
 20
293.428080
 30
0.0
 10
437.060240
 20
296.663600
 30
0.0
 10
434.028720
 20
299.454160
 30
0.0
  0
LWPOLYLINE
  5
112
100
AcDbEntity
  8
0
 62
1
100
AcDbPolyline
 90
3
 70
1
 10
470.425360
 20
346.193120
 30
0.0
 10
462.925360
 20
341.773680
 30
0.0
 10
462.315520
 20
320.816080
 30
0.0
  0
SPLINE
  5
113
100
AcDbEntity
  8
0
 62
1
100
AcDbSpline
 70
8
 71
3
 72
8
 73
4
 74
0
 40
0
 40
0
 40
0
 40
0
 40
1
 40
1
 40
1
 40
1
 10
428.989360
 20
333.005200
 30
0.0
 10
429.024560
 20
348.874480
 30
0.0
 10
429.412480
 20
373.431440
 30
0.0
 10
429.851360
 20
387.576080
 30
0.0
  0
LWPOLYLINE
  5
114
100
AcDbEntity
  8
0
 62
1
100
AcDbPolyline
 90
3
 70
1
 10
434.028720
 20
299.454160
 30
0.0
 10
428.925360
 20
304.151920
 30
0.0
 10
428.989360
 20
333.005200
 30
0.0
  0
SPLINE
  5
115
100
AcDbEntity
  8
0
 62
1
100
AcDbSpline
 70
8
 71
3
 72
8
 73
4
 74
0
 40
0
 40
0
 40
0
 40
0
 40
1
 40
1
 40
1
 40
1
 10
435.552960
 20
416.440328
 30
0.0
 10
445.959920
 20
423.118464
 30
0.0
 10
452.860000
 20
434.631040
 30
0.0
 10
452.585440
 20
444.858488
 30
0.0
  0
SPLINE
  5
116
100
AcDbEntity
  8
0
 62
1
100
AcDbSpline
 70
8
 71
3
 72
8
 73
4
 74
0
 40
0
 40
0
 40
0
 40
0
 40
1
 40
1
 40
1
 40
1
 10
452.585440
 20
444.858488
 30
0.0
 10
452.372960
 20
452.773488
 30
0.0
 10
446.618160
 20
463.148936
 30
0.0
 10
438.243840
 20
470.715400
 30
0.0
  0
LWPOLYLINE
  5
117
100
AcDbEntity
  8
0
 62
1
100
AcDbPolyline
 90
3
 70
1
 10
429.851360
 20
387.576080
 30
0.0
 10
430.649360
 20
413.293696
 30
0.0
 10
435.552960
 20
416.440328
 30
0.0
  0
SPLINE
  5
118
100
AcDbEntity
  8
0
 62
1
100
AcDbSpline
 70
8
 71
3
 72
8
 73
4
 74
0
 40
0
 40
0
 40
0
 40
0
 40
1
 40
1
 40
1
 40
1
 10
431.452800
 20
484.358488
 30
0.0
 10
431.460800
 20
492.857056
 30
0.0
 10
431.656880
 20
493.338256
 30
0.0
 10
436.295360
 20
496.143248
 30
0.0
  0
SPLINE
  5
119
100
AcDbEntity
  8
0
 62
1
100
AcDbSpline
 70
8
 71
3
 72
8
 73
4
 74
0
 40
0
 40
0
 40
0
 40
0
 40
1
 40
1
 40
1
 40
1
 10
436.295360
 20
496.143248
 30
0.0
 10
440.216480
 20
498.514448
 30
0.0
 10
446.684800
 20
506.053896
 30
0.0
 10
449.752560
 20
511.828776
 30
0.0
  0
SPLINE
  5
11a
100
AcDbEntity
  8
0
 62
1
100
AcDbSpline
 70
8
 71
3
 72
8
 73
4
 74
0
 40
0
 40
0
 40
0
 40
0
 40
1
 40
1
 40
1
 40
1
 10
449.752560
 20
511.828776
 30
0.0
 10
451.426320
 20
514.979608
 30
0.0
 10
451.892880
 20
517.603280
 30
0.0
 10
451.891920
 20
523.858488
 30
0.0
  0
SPLINE
  5
11b
100
AcDbEntity
  8
0
 62
1
100
AcDbSpline
 70
8
 71
3
 72
8
 73
4
 74
0
 40
0
 40
0
 40
0
 40
0
 40
1
 40
1
 40
1
 40
1
 10
451.891920
 20
523.858488
 30
0.0
 10
451.891920
 20
534.896488
 30
0.0
 10
448.895600
 20
540.939760
 30
0.0
 10
438.897120
 20
550.082696
 30
0.0
  0
LWPOLYLINE
  5
11c
100
AcDbEntity
  8
0
 62
1
100
AcDbPolyline
 90
3
 70
1
 10
438.243840
 20
470.715400
 30
0.0
 10
431.444800
 20
476.858488
 30
0.0
 10
431.452800
 20
484.358488
 30
0.0
  0
SPLINE
  5
11d
100
AcDbEntity
  8
0
 62
1
100
AcDbSpline
 70
8
 71
3
 72
8
 73
4
 74
0
 40
0
 40
0
 40
0
 40
0
 40
1
 40
1
 40
1
 40
1
 10
432.103520
 20
564.120008
 30
0.0
 10
432.767760
 20
571.946856
 30
0.0
 10
432.395760
 20
571.336760
 30
0.0
 10
442.202400
 20
580.683872
 30
0.0
  0
SPLINE
  5
11e
100
AcDbEntity
  8
0
 62
1
100
AcDbSpline
 70
8
 71
3
 72
8
 73
4
 74
0
 40
0
 40
0
 40
0
 40
0
 40
1
 40
1
 40
1
 40
1
 10
442.202400
 20
580.683872
 30
0.0
 10
449.312640
 20
587.460896
 30
0.0
 10
452.426400
 20
594.446816
 30
0.0
 10
452.432720
 20
603.635832
 30
0.0
  0
SPLINE
  5
11f
100
AcDbEntity
  8
0
 62
1
100
AcDbSpline
 70
8
 71
3
 72
8
 73
4
 74
0
 40
0
 40
0
 40
0
 40
0
 40
1
 40
1
 40
1
 40
1
 10
452.432720
 20
603.635832
 30
0.0
 10
452.440720
 20
614.935280
 30
0.0
 10
450.369040
 20
619.373016
 30
0.0
 10
440.678320
 20
628.818120
 30
0.0
  0
LWPOLYLINE
  5
120
100
AcDbEntity
  8
0
 62
1
100
AcDbPolyline
 90
3
 70
1
 10
438.897120
 20
550.082696
 30
0.0
 10
431.487200
 20
556.858488
 30
0.0
 10
432.103520
 20
564.120008
 30
0.0
  0
SPLINE
  5
121
100
AcDbEntity
  8
0
 62
1
100
AcDbSpline
 70
8
 71
3
 72
8
 73
4
 74
0
 40
0
 40
0
 40
0
 40
0
 40
1
 40
1
 40
1
 40
1
 10
432.428320
 20
642.459264
 30
0.0
 10
432.427600
 20
650.108368
 30
0.0
 10
433.916640
 20
653.904128
 30
0.0
 10
437.500400
 20
655.388576
 30
0.0
  0
SPLINE
  5
122
100
AcDbEntity
  8
0
 62
1
100
AcDbSpline
 70
8
 71
3
 72
8
 73
4
 74
0
 40
0
 40
0
 40
0
 40
0
 40
1
 40
1
 40
1
 40
1
 10
437.500400
 20
655.388576
 30
0.0
 10
446.065520
 20
658.936376
 30
0.0
 10
452.474080
 20
669.586824
 30
0.0
 10
453.203120
 20
681.485120
 30
0.0
  0
SPLINE
  5
123
100
AcDbEntity
  8
0
 62
1
100
AcDbSpline
 70
8
 71
3
 72
8
 73
4
 74
0
 40
0
 40
0
 40
0
 40
0
 40
1
 40
1
 40
1
 40
1
 10
453.203120
 20
681.485120
 30
0.0
 10
453.951520
 20
693.704688
 30
0.0
 10
452.042880
 20
698.045512
 30
0.0
 10
441.386880
 20
708.358488
 30
0.0
  0
LWPOLYLINE
  5
124
100
AcDbEntity
  8
0
 62
1
100
AcDbPolyline
 90
3
 70
1
 10
440.678320
 20
628.818120
 30
0.0
 10
432.428800
 20
636.858488
 30
0.0
 10
432.428320
 20
642.459264
 30
0.0
  0
SPLINE
  5
125
100
AcDbEntity
  8
0
 62
1
100
AcDbSpline
 70
8
 71
3
 72
8
 73
4
 74
0
 40
0
 40
0
 40
0
 40
0
 40
1
 40
1
 40
1
 40
1
 10
453.451200
 20
791.858488
 30
0.0
 10
464.314080
 20
802.858488
 30
0.0
 10
473.505040
 20
812.861840
 30
0.0
 10
473.875600
 20
814.088160
 30
0.0
  0
SPLINE
  5
126
100
AcDbEntity
  8
0
 62
1
100
AcDbSpline
 70
8
 71
3
 72
8
 73
4
 74
0
 40
0
 40
0
 40
0
 40
0
 40
1
 40
1
 40
1
 40
1
 10
473.875600
 20
814.088160
 30
0.0
 10
474.246080
 20
815.314480
 30
0.0
 10
474.071840
 20
822.626976
 30
0.0
 10
473.488320
 20
830.338160
 30
0.0
  0
SPLINE
  5
127
100
AcDbEntity
  8
0
 62
1
100
AcDbSpline
 70
8
 71
3
 72
8
 73
4
 74
0
 40
0
 40
0
 40
0
 40
0
 40
1
 40
1
 40
1
 40
1
 10
473.488320
 20
830.338160
 30
0.0
 10
472.904800
 20
838.049336
 30
0.0
 10
471.943120
 20
850.770992
 30
0.0
 10
471.351200
 20
858.608488
 30
0.0
  0
SPLINE
  5
128
100
AcDbEntity
  8
0
 62
1
100
AcDbSpline
 70
8
 71
3
 72
8
 73
4
 74
0
 40
0
 40
0
 40
0
 40
0
 40
1
 40
1
 40
1
 40
1
 10
471.351200
 20
858.608488
 30
0.0
 10
470.155360
 20
874.442416
 30
0.0
 10
468.814240
 20
878.589976
 30
0.0
 10
464.101840
 20
881.026848
 30
0.0
  0
SPLINE
  5
129
100
AcDbEntity
  8
0
 62
1
100
AcDbSpline
 70
8
 71
3
 72
8
 73
4
 74
0
 40
0
 40
0
 40
0
 40
0
 40
1
 40
1
 40
1
 40
1
 10
464.101840
 20
881.026848
 30
0.0
 10
461.301440
 20
882.474960
 30
0.0
 10
459.994640
 20
882.458248
 30
0.0
 10
448.473840
 20
880.827008
 30
0.0
  0
SPLINE
  5
12a
100
AcDbEntity
  8
0
 62
1
100
AcDbSpline
 70
8
 71
3
 72
8
 73
4
 74
0
 40
0
 40
0
 40
0
 40
0
 40
1
 40
1
 40
1
 40
1
 10
448.473840
 20
880.827008
 30
0.0
 10
433.679040
 20
878.732208
 30
0.0
 10
429.377280
 20
879.215736
 30
0.0
 10
426.468720
 20
883.300416
 30
0.0
  0
SPLINE
  5
12b
100
AcDbEntity
  8
0
 62
1
100
AcDbSpline
 70
8
 71
3
 72
8
 73
4
 74
0
 40
0
 40
0
 40
0
 40
0
 40
1
 40
1
 40
1
 40
1
 10
426.468720
 20
883.300416
 30
0.0
 10
423.906880
 20
886.898200
 30
0.0
 10
423.910640
 20
887.072760
 30
0.0
 10
426.918960
 20
904.458960
 30
0.0
  0
SPLINE
  5
12c
100
AcDbEntity
  8
0
 62
1
100
AcDbSpline
 70
8
 71
3
 72
8
 73
4
 74
0
 40
0
 40
0
 40
0
 40
0
 40
1
 40
1
 40
1
 40
1
 10
426.918960
 20
904.458960
 30
0.0
 10
430.861360
 20
927.243688
 30
0.0
 10
430.463760
 20
932.431712
 30
0.0
 10
422.864960
 20
957.358488
 30
0.0
  0
SPLINE
  5
12d
100
AcDbEntity
  8
0
 62
1
100
AcDbSpline
 70
8
 71
3
 72
8
 73
4
 74
0
 40
0
 40
0
 40
0
 40
0
 40
1
 40
1
 40
1
 40
1
 10
422.864960
 20
957.358488
 30
0.0
 10
420.601360
 20
964.784040
 30
0.0
 10
420.273920
 20
967.639280
 30
0.0
 10
420.274560
 20
979.946336
 30
0.0
  0
SPLINE
  5
12e
100
AcDbEntity
  8
0
 62
1
100
AcDbSpline
 70
8
 71
3
 72
8
 73
4
 74
0
 40
0
 40
0
 40
0
 40
0
 40
1
 40
1
 40
1
 40
1
 10
420.274560
 20
979.946336
 30
0.0
 10
420.275360
 20
995.951248
 30
0.0
 10
421.917360
 20
1004.665696
 30
0.0
 10
427.858720
 20
1020.199728
 30
0.0
  0
SPLINE
  5
12f
100
AcDbEntity
  8
0
 62
1
100
AcDbSpline
 70
8
 71
3
 72
8
 73
4
 74
0
 40
0
 40
0
 40
0
 40
0
 40
1
 40
1
 40
1
 40
1
 10
427.858720
 20
1020.199728
 30
0.0
 10
435.063520
 20
1039.036968
 30
0.0
 10
445.744080
 20
1054.751176
 30
0.0
 10
461.570320
 20
1069.799296
 30
0.0
  0
SPLINE
  5
130
100
AcDbEntity
  8
0
 62
1
100
AcDbSpline
 70
8
 71
3
 72
8
 73
4
 74
0
 40
0
 40
0
 40
0
 40
0
 40
1
 40
1
 40
1
 40
1
 10
461.570320
 20
1069.799296
 30
0.0
 10
499.189840
 20
1105.568840
 30
0.0
 10
550.382720
 20
1117.138024
 30
0.0
 10
600.427760
 20
1101.179872
 30
0.0
  0
SPLINE
  5
131
100
AcDbEntity
  8
0
 62
1
100
AcDbSpline
 70
8
 71
3
 72
8
 73
4
 74
0
 40
0
 40
0
 40
0
 40
0
 40
1
 40
1
 40
1
 40
1
 10
600.427760
 20
1101.179872
 30
0.0
 10
611.372400
 20
1097.689904
 30
0.0
 10
631.761920
 20
1087.436384
 30
0.0
 10
641.319760
 20
1080.616040
 30
0.0
  0
SPLINE
  5
132
100
AcDbEntity
  8
0
 62
1
100
AcDbSpline
 70
8
 71
3
 72
8
 73
4
 74
0
 40
0
 40
0
 40
0
 40
0
 40
1
 40
1
 40
1
 40
1
 10
641.319760
 20
1080.616040
 30
0.0
 10
661.129920
 20
1066.479776
 30
0.0
 10
680.672960
 20
1039.817896
 30
0.0
 10
689.289600
 20
1015.172232
 30
0.0
  0
SPLINE
  5
133
100
AcDbEntity
  8
0
 62
1
100
AcDbSpline
 70
8
 71
3
 72
8
 73
4
 74
0
 40
0
 40
0
 40
0
 40
0
 40
1
 40
1
 40
1
 40
1
 10
689.289600
 20
1015.172232
 30
0.0
 10
697.516960
 20
991.640168
 30
0.0
 10
697.525440
 20
971.183376
 30
0.0
 10
689.320000
 20
942.358488
 30
0.0
  0
SPLINE
  5
134
100
AcDbEntity
  8
0
 62
1
100
AcDbSpline
 70
8
 71
3
 72
8
 73
4
 74
0
 40
0
 40
0
 40
0
 40
0
 40
1
 40
1
 40
1
 40
1
 10
689.320000
 20
942.358488
 30
0.0
 10
686.516000
 20
932.508672
 30
0.0
 10
686.271360
 20
909.875296
 30
0.0
 10
688.876800
 20
901.358488
 30
0.0
  0
SPLINE
  5
135
100
AcDbEntity
  8
0
 62
1
100
AcDbSpline
 70
8
 71
3
 72
8
 73
4
 74
0
 40
0
 40
0
 40
0
 40
0
 40
1
 40
1
 40
1
 40
1
 10
688.876800
 20
901.358488
 30
0.0
 10
689.802240
 20
898.333488
 30
0.0
 10
690.808880
 20
893.272056
 30
0.0
 10
691.113760
 20
890.110856
 30
0.0
  0
SPLINE
  5
136
100
AcDbEntity
  8
0
 62
1
100
AcDbSpline
 70
8
 71
3
 72
8
 73
4
 74
0
 40
0
 40
0
 40
0
 40
0
 40
1
 40
1
 40
1
 40
1
 10
691.113760
 20
890.110856
 30
0.0
 10
691.659600
 20
884.452312
 30
0.0
 10
691.606160
 20
884.301200
 30
0.0
 10
687.665840
 20
880.360856
 30
0.0
  0
SPLINE
  5
137
100
AcDbEntity
  8
0
 62
1
100
AcDbSpline
 70
8
 71
3
 72
8
 73
4
 74
0
 40
0
 40
0
 40
0
 40
0
 40
1
 40
1
 40
1
 40
1
 10
687.665840
 20
880.360856
 30
0.0
 10
682.975600
 20
875.670664
 30
0.0
 10
682.476560
 20
875.618336
 30
0.0
 10
665.056720
 20
877.990208
 30
0.0
  0
SPLINE
  5
138
100
AcDbEntity
  8
0
 62
1
100
AcDbSpline
 70
8
 71
3
 72
8
 73
4
 74
0
 40
0
 40
0
 40
0
 40
0
 40
1
 40
1
 40
1
 40
1
 10
665.056720
 20
877.990208
 30
0.0
 10
653.790320
 20
879.524248
 30
0.0
 10
652.880960
 20
879.518608
 30
0.0
 10
649.868080
 20
877.896104
 30
0.0
  0
SPLINE
  5
139
100
AcDbEntity
  8
0
 62
1
100
AcDbSpline
 70
8
 71
3
 72
8
 73
4
 74
0
 40
0
 40
0
 40
0
 40
0
 40
1
 40
1
 40
1
 40
1
 10
649.868080
 20
877.896104
 30
0.0
 10
644.304480
 20
874.899880
 30
0.0
 10
643.956560
 20
873.138104
 30
0.0
 10
640.996960
 20
832.974488
 30
0.0
  0
SPLINE
  5
13a
100
AcDbEntity
  8
0
 62
1
100
AcDbSpline
 70
8
 71
3
 72
8
 73
4
 74
0
 40
0
 40
0
 40
0
 40
0
 40
1
 40
1
 40
1
 40
1
 10
640.996960
 20
832.974488
 30
0.0
 10
639.845760
 20
817.351328
 30
0.0
 10
639.788560
 20
812.479080
 30
0.0
 10
640.730000
 20
810.237320
 30
0.0
  0
SPLINE
  5
13b
100
AcDbEntity
  8
0
 62
1
100
AcDbSpline
 70
8
 71
3
 72
8
 73
4
 74
0
 40
0
 40
0
 40
0
 40
0
 40
1
 40
1
 40
1
 40
1
 10
640.730000
 20
810.237320
 30
0.0
 10
641.388960
 20
808.668088
 30
0.0
 10
649.803120
 20
799.005544
 30
0.0
 10
659.428160
 20
788.765000
 30
0.0
  0
SPLINE
  5
13c
100
AcDbEntity
  8
0
 62
1
100
AcDbSpline
 70
8
 71
3
 72
8
 73
4
 74
0
 40
0
 40
0
 40
0
 40
0
 40
1
 40
1
 40
1
 40
1
 10
659.428160
 20
788.765000
 30
0.0
 10
669.053120
 20
778.524456
 30
0.0
 10
677.309200
 20
769.480824
 30
0.0
 10
677.774960
 20
768.668040
 30
0.0
  0
SPLINE
  5
13d
100
AcDbEntity
  8
0
 62
1
100
AcDbSpline
 70
8
 71
3
 72
8
 73
4
 74
0
 40
0
 40
0
 40
0
 40
0
 40
1
 40
1
 40
1
 40
1
 10
677.774960
 20
768.668040
 30
0.0
 10
678.240640
 20
767.855256
 30
0.0
 10
678.294720
 20
754.705936
 30
0.0
 10
677.895120
 20
739.447328
 30
0.0
  0
LWPOLYLINE
  5
13e
100
AcDbEntity
  8
0
 62
1
100
AcDbPolyline
 90
5
 70
1
 10
441.386880
 20
708.358488
 30
0.0
 10
432.604080
 20
716.858488
 30
0.0
 10
433.152320
 20
744.358488
 30
0.0
 10
433.700560
 20
771.858488
 30
0.0
 10
453.451200
 20
791.858488
 30
0.0
  0
SPLINE
  5
13f
100
AcDbEntity
  8
0
 62
1
100
AcDbSpline
 70
8
 71
3
 72
8
 73
4
 74
0
 40
0
 40
0
 40
0
 40
0
 40
1
 40
1
 40
1
 40
1
 10
672.850000
 20
708.972328
 30
0.0
 10
659.304400
 20
700.402760
 30
0.0
 10
653.606560
 20
683.672384
 30
0.0
 10
659.294640
 20
669.170248
 30
0.0
  0
SPLINE
  5
140
100
AcDbEntity
  8
0
 62
1
100
AcDbSpline
 70
8
 71
3
 72
8
 73
4
 74
0
 40
0
 40
0
 40
0
 40
0
 40
1
 40
1
 40
1
 40
1
 10
659.294640
 20
669.170248
 30
0.0
 10
661.451760
 20
663.670464
 30
0.0
 10
666.737360
 20
657.288248
 30
0.0
 10
674.178160
 20
651.198736
 30
0.0
  0
SPLINE
  5
141
100
AcDbEntity
  8
0
 62
1
100
AcDbSpline
 70
8
 71
3
 72
8
 73
4
 74
0
 40
0
 40
0
 40
0
 40
0
 40
1
 40
1
 40
1
 40
1
 10
674.178160
 20
651.198736
 30
0.0
 10
677.199920
 20
648.725760
 30
0.0
 10
677.421120
 20
648.128816
 30
0.0
 10
677.328480
 20
642.698736
 30
0.0
  0
SPLINE
  5
142
100
AcDbEntity
  8
0
 62
1
100
AcDbSpline
 70
8
 71
3
 72
8
 73
4
 74
0
 40
0
 40
0
 40
0
 40
0
 40
1
 40
1
 40
1
 40
1
 10
677.328480
 20
642.698736
 30
0.0
 10
677.180560
 20
634.030760
 30
0.0
 10
676.529200
 20
632.737568
 30
0.0
 10
669.428160
 20
627.012344
 30
0.0
  0
SPLINE
  5
143
100
AcDbEntity
  8
0
 62
1
100
AcDbSpline
 70
8
 71
3
 72
8
 73
4
 74
0
 40
0
 40
0
 40
0
 40
0
 40
1
 40
1
 40
1
 40
1
 10
669.428160
 20
627.012344
 30
0.0
 10
650.656400
 20
611.877624
 30
0.0
 10
652.043840
 20
586.984840
 30
0.0
 10
672.447360
 20
572.845216
 30
0.0
  0
LWPOLYLINE
  5
144
100
AcDbEntity
  8
0
 62
1
100
AcDbPolyline
 90
3
 70
1
 10
677.895120
 20
739.447328
 30
0.0
 10
677.168480
 20
711.704408
 30
0.0
 10
672.850000
 20
708.972328
 30
0.0
  0
SPLINE
  5
145
100
AcDbEntity
  8
0
 62
1
100
AcDbSpline
 70
8
 71
3
 72
8
 73
4
 74
0
 40
0
 40
0
 40
0
 40
0
 40
1
 40
1
 40
1
 40
1
 10
669.605440
 20
548.515696
 30
0.0
 10
655.610800
 20
538.761328
 30
0.0
 10
651.381920
 20
523.680064
 30
0.0
 10
658.119600
 20
507.554488
 30
0.0
  0
SPLINE
  5
146
100
AcDbEntity
  8
0
 62
1
100
AcDbSpline
 70
8
 71
3
 72
8
 73
4
 74
0
 40
0
 40
0
 40
0
 40
0
 40
1
 40
1
 40
1
 40
1
 10
658.119600
 20
507.554488
 30
0.0
 10
660.221520
 20
502.524016
 30
0.0
 10
664.173520
 20
497.846888
 30
0.0
 10
670.178160
 20
493.283560
 30
0.0
  0
LWPOLYLINE
  5
147
100
AcDbEntity
  8
0
 62
1
100
AcDbPolyline
 90
5
 70
1
 10
672.447360
 20
572.845216
 30
0.0
 10
676.501280
 20
570.035808
 30
0.0
 10
676.214720
 20
561.479248
 30
0.0
 10
675.928160
 20
552.922688
 30
0.0
 10
669.605440
 20
548.515696
 30
0.0
  0
SPLINE
  5
148
100
AcDbEntity
  8
0
 62
1
100
AcDbSpline
 70
8
 71
3
 72
8
 73
4
 74
0
 40
0
 40
0
 40
0
 40
0
 40
1
 40
1
 40
1
 40
1
 10
675.428160
 20
482.250448
 30
0.0
 10
675.428160
 20
475.854760
 30
0.0
 10
675.185520
 20
475.007256
 30
0.0
 10
672.789280
 20
473.032840
 30
0.0
  0
SPLINE
  5
149
100
AcDbEntity
  8
0
 62
1
100
AcDbSpline
 70
8
 71
3
 72
8
 73
4
 74
0
 40
0
 40
0
 40
0
 40
0
 40
1
 40
1
 40
1
 40
1
 10
672.789280
 20
473.032840
 30
0.0
 10
658.238880
 20
461.043840
 30
0.0
 10
654.079200
 20
454.005800
 30
0.0
 10
654.066960
 20
441.355296
 30
0.0
  0
SPLINE
  5
14a
100
AcDbEntity
  8
0
 62
1
100
AcDbSpline
 70
8
 71
3
 72
8
 73
4
 74
0
 40
0
 40
0
 40
0
 40
0
 40
1
 40
1
 40
1
 40
1
 10
654.066960
 20
441.355296
 30
0.0
 10
654.058960
 20
434.600024
 30
0.0
 10
654.437200
 20
433.133720
 30
0.0
 10
657.846560
 20
426.645696
 30
0.0
  0
SPLINE
  5
14b
100
AcDbEntity
  8
0
 62
1
100
AcDbSpline
 70
8
 71
3
 72
8
 73
4
 74
0
 40
0
 40
0
 40
0
 40
0
 40
1
 40
1
 40
1
 40
1
 10
657.846560
 20
426.645696
 30
0.0
 10
661.553280
 20
419.591864
 30
0.0
 10
664.767120
 20
416.282768
 30
0.0
 10
671.056960
 20
413.043704
 30
0.0
  0
SPLINE
  5
14c
100
AcDbEntity
  8
0
 62
1
100
AcDbSpline
 70
8
 71
3
 72
8
 73
4
 74
0
 40
0
 40
0
 40
0
 40
0
 40
1
 40
1
 40
1
 40
1
 10
671.056960
 20
413.043704
 30
0.0
 10
672.777840
 20
412.157528
 30
0.0
 10
674.412560
 20
410.841536
 30
0.0
 10
674.689680
 20
410.119280
 30
0.0
  0
SPLINE
  5
14d
100
AcDbEntity
  8
0
 62
1
100
AcDbSpline
 70
8
 71
3
 72
8
 73
4
 74
0
 40
0
 40
0
 40
0
 40
0
 40
1
 40
1
 40
1
 40
1
 10
674.689680
 20
410.119280
 30
0.0
 10
674.966880
 20
409.397024
 30
0.0
 10
674.812320
 20
377.767920
 30
0.0
 10
674.346240
 20
339.832320
 30
0.0
  0
SPLINE
  5
14e
100
AcDbEntity
  8
0
 62
1
100
AcDbSpline
 70
8
 71
3
 72
8
 73
4
 74
0
 40
0
 40
0
 40
0
 40
0
 40
1
 40
1
 40
1
 40
1
 10
674.346240
 20
339.832320
 30
0.0
 10
673.880160
 20
301.896720
 30
0.0
 10
673.023200
 20
219.122960
 30
0.0
 10
672.441840
 20
155.890560
 30
0.0
  0
LWPOLYLINE
  5
14f
100
AcDbEntity
  8
0
 62
1
100
AcDbPolyline
 90
3
 70
1
 10
670.178160
 20
493.283560
 30
0.0
 10
675.428160
 20
489.293720
 30
0.0
 10
675.428160
 20
482.250448
 30
0.0
  0
SPLINE
  5
150
100
AcDbEntity
  8
0
 62
1
100
AcDbSpline
 70
8
 71
3
 72
8
 73
4
 74
0
 40
0
 40
0
 40
0
 40
0
 40
1
 40
1
 40
1
 40
1
 10
668.741520
 20
38.163680
 30
0.0
 10
665.516960
 20
34.798000
 30
0.0
 10
662.174160
 20
33.723280
 30
0.0
 10
652.428160
 20
32.918960
 30
0.0
  0
SPLINE
  5
151
100
AcDbEntity
  8
0
 62
1
100
AcDbSpline
 70
8
 71
3
 72
8
 73
4
 74
0
 40
0
 40
0
 40
0
 40
0
 40
1
 40
1
 40
1
 40
1
 10
652.428160
 20
32.918960
 30
0.0
 10
648.303120
 20
32.578560
 30
0.0
 10
643.353120
 20
32.096400
 30
0.0
 10
641.428160
 20
31.847360
 30
0.0
  0
SPLINE
  5
152
100
AcDbEntity
  8
0
 62
1
100
AcDbSpline
 70
8
 71
3
 72
8
 73
4
 74
0
 40
0
 40
0
 40
0
 40
0
 40
1
 40
1
 40
1
 40
1
 10
641.428160
 20
31.847360
 30
0.0
 10
639.503120
 20
31.598400
 30
0.0
 10
636.906240
 20
31.824960
 30
0.0
 10
635.657280
 20
32.352000
 30
0.0
  0
LWPOLYLINE
  5
153
100
AcDbEntity
  8
0
 62
1
100
AcDbPolyline
 90
3
 70
1
 10
672.441840
 20
155.890560
 30
0.0
 10
671.384800
 20
40.922720
 30
0.0
 10
668.741520
 20
38.163680
 30
0.0
  0
SPLINE
  5
154
100
AcDbEntity
  8
0
 62
1
100
AcDbSpline
 70
8
 71
3
 72
8
 73
4
 74
0
 40
0
 40
0
 40
0
 40
0
 40
1
 40
1
 40
1
 40
1
 10
656.822880
 20
36.020400
 30
0.0
 10
661.197760
 20
36.487600
 30
0.0
 10
663.464720
 20
37.322480
 30
0.0
 10
665.603920
 20
39.254240
 30
0.0
  0
LWPOLYLINE
  5
155
100
AcDbEntity
  8
0
 62
1
100
AcDbPolyline
 90
2
 70
1
 10
635.657280
 20
32.352000
 30
0.0
 10
635.654560
 20
32.352000
 30
0.0
  0
SPLINE
  5
156
100
AcDbEntity
  8
0
 62
1
100
AcDbSpline
 70
8
 71
3
 72
8
 73
4
 74
0
 40
0
 40
0
 40
0
 40
0
 40
1
 40
1
 40
1
 40
1
 10
669.443840
 20
117.358480
 30
0.0
 10
669.969840
 20
158.883440
 30
0.0
 10
670.408080
 20
200.733440
 30
0.0
 10
670.417680
 20
210.358480
 30
0.0
  0
SPLINE
  5
157
100
AcDbEntity
  8
0
 62
1
100
AcDbSpline
 70
8
 71
3
 72
8
 73
4
 74
0
 40
0
 40
0
 40
0
 40
0
 40
1
 40
1
 40
1
 40
1
 10
670.417680
 20
210.358480
 30
0.0
 10
670.427280
 20
219.983440
 30
0.0
 10
670.843200
 20
267.170080
 30
0.0
 10
671.341920
 20
315.217600
 30
0.0
  0
SPLINE
  5
158
100
AcDbEntity
  8
0
 62
1
100
AcDbSpline
 70
8
 71
3
 72
8
 73
4
 74
0
 40
0
 40
0
 40
0
 40
0
 40
1
 40
1
 40
1
 40
1
 10
671.341920
 20
315.217600
 30
0.0
 10
672.168640
 20
394.856880
 30
0.0
 10
672.104880
 20
402.964816
 30
0.0
 10
670.620880
 20
406.968808
 30
0.0
  0
SPLINE
  5
159
100
AcDbEntity
  8
0
 62
1
100
AcDbSpline
 70
8
 71
3
 72
8
 73
4
 74
0
 40
0
 40
0
 40
0
 40
0
 40
1
 40
1
 40
1
 40
1
 10
670.620880
 20
406.968808
 30
0.0
 10
669.725600
 20
409.384464
 30
0.0
 10
668.278560
 20
411.587688
 30
0.0
 10
667.405280
 20
411.864856
 30
0.0
  0
SPLINE
  5
15a
100
AcDbEntity
  8
0
 62
1
100
AcDbSpline
 70
8
 71
3
 72
8
 73
4
 74
0
 40
0
 40
0
 40
0
 40
0
 40
1
 40
1
 40
1
 40
1
 10
667.405280
 20
411.864856
 30
0.0
 10
664.073120
 20
412.922456
 30
0.0
 10
657.742800
 20
420.271376
 30
0.0
 10
654.513360
 20
426.831280
 30
0.0
  0
SPLINE
  5
15b
100
AcDbEntity
  8
0
 62
1
100
AcDbSpline
 70
8
 71
3
 72
8
 73
4
 74
0
 40
0
 40
0
 40
0
 40
0
 40
1
 40
1
 40
1
 40
1
 10
654.513360
 20
426.831280
 30
0.0
 10
651.245600
 20
433.469064
 30
0.0
 10
651.165440
 20
433.926440
 30
0.0
 10
651.699520
 20
442.878360
 30
0.0
  0
SPLINE
  5
15c
100
AcDbEntity
  8
0
 62
1
100
AcDbSpline
 70
8
 71
3
 72
8
 73
4
 74
0
 40
0
 40
0
 40
0
 40
0
 40
1
 40
1
 40
1
 40
1
 10
651.699520
 20
442.878360
 30
0.0
 10
652.457120
 20
455.576696
 30
0.0
 10
656.494720
 20
463.408448
 30
0.0
 10
666.275360
 20
471.151240
 30
0.0
  0
SPLINE
  5
15d
100
AcDbEntity
  8
0
 62
1
100
AcDbSpline
 70
8
 71
3
 72
8
 73
4
 74
0
 40
0
 40
0
 40
0
 40
0
 40
1
 40
1
 40
1
 40
1
 10
666.275360
 20
471.151240
 30
0.0
 10
669.540320
 20
473.735920
 30
0.0
 10
670.861440
 20
475.464096
 30
0.0
 10
670.638160
 20
476.858488
 30
0.0
  0
SPLINE
  5
15e
100
AcDbEntity
  8
0
 62
1
100
AcDbSpline
 70
8
 71
3
 72
8
 73
4
 74
0
 40
0
 40
0
 40
0
 40
0
 40
1
 40
1
 40
1
 40
1
 10
670.638160
 20
476.858488
 30
0.0
 10
670.371600
 20
478.522760
 30
0.0
 10
670.498160
 20
478.606688
 30
0.0
 10
671.391920
 20
477.358488
 30
0.0
  0
SPLINE
  5
15f
100
AcDbEntity
  8
0
 62
1
100
AcDbSpline
 70
8
 71
3
 72
8
 73
4
 74
0
 40
0
 40
0
 40
0
 40
0
 40
1
 40
1
 40
1
 40
1
 10
671.391920
 20
477.358488
 30
0.0
 10
672.196560
 20
476.234752
 30
0.0
 10
672.419680
 20
477.426888
 30
0.0
 10
672.281520
 20
482.110968
 30
0.0
  0
SPLINE
  5
160
100
AcDbEntity
  8
0
 62
1
100
AcDbSpline
 70
8
 71
3
 72
8
 73
4
 74
0
 40
0
 40
0
 40
0
 40
0
 40
1
 40
1
 40
1
 40
1
 10
672.281520
 20
482.110968
 30
0.0
 10
672.180000
 20
485.549824
 30
0.0
 10
671.918720
 20
488.185144
 30
0.0
 10
671.700800
 20
487.967232
 30
0.0
  0
SPLINE
  5
161
100
AcDbEntity
  8
0
 62
1
100
AcDbSpline
 70
8
 71
3
 72
8
 73
4
 74
0
 40
0
 40
0
 40
0
 40
0
 40
1
 40
1
 40
1
 40
1
 10
671.700800
 20
487.967232
 30
0.0
 10
670.601840
 20
486.868256
 30
0.0
 10
657.876800
 20
501.433096
 30
0.0
 10
655.632640
 20
506.358488
 30
0.0
  0
SPLINE
  5
162
100
AcDbEntity
  8
0
 62
1
100
AcDbSpline
 70
8
 71
3
 72
8
 73
4
 74
0
 40
0
 40
0
 40
0
 40
0
 40
1
 40
1
 40
1
 40
1
 10
655.632640
 20
506.358488
 30
0.0
 10
652.625120
 20
512.959456
 30
0.0
 10
651.498480
 20
525.911960
 30
0.0
 10
653.403760
 20
531.983400
 30
0.0
  0
SPLINE
  5
163
100
AcDbEntity
  8
0
 62
1
100
AcDbSpline
 70
8
 71
3
 72
8
 73
4
 74
0
 40
0
 40
0
 40
0
 40
0
 40
1
 40
1
 40
1
 40
1
 10
653.403760
 20
531.983400
 30
0.0
 10
655.118480
 20
537.447680
 30
0.0
 10
659.969120
 20
544.336952
 30
0.0
 10
664.581280
 20
547.858488
 30
0.0
  0
SPLINE
  5
164
100
AcDbEntity
  8
0
 62
1
100
AcDbSpline
 70
8
 71
3
 72
8
 73
4
 74
0
 40
0
 40
0
 40
0
 40
0
 40
1
 40
1
 40
1
 40
1
 10
664.581280
 20
547.858488
 30
0.0
 10
674.238320
 20
555.231944
 30
0.0
 10
673.866080
 20
554.736048
 30
0.0
 10
673.553920
 20
559.812304
 30
0.0
  0
SPLINE
  5
165
100
AcDbEntity
  8
0
 62
1
100
AcDbSpline
 70
8
 71
3
 72
8
 73
4
 74
0
 40
0
 40
0
 40
0
 40
0
 40
1
 40
1
 40
1
 40
1
 10
673.553920
 20
559.812304
 30
0.0
 10
673.141600
 20
566.516736
 30
0.0
 10
671.590160
 20
569.505704
 30
0.0
 10
665.838320
 20
574.677120
 30
0.0
  0
SPLINE
  5
166
100
AcDbEntity
  8
0
 62
1
100
AcDbSpline
 70
8
 71
3
 72
8
 73
4
 74
0
 40
0
 40
0
 40
0
 40
0
 40
1
 40
1
 40
1
 40
1
 10
665.838320
 20
574.677120
 30
0.0
 10
654.914240
 20
584.498808
 30
0.0
 10
650.794560
 20
599.012432
 30
0.0
 10
655.305200
 20
611.785088
 30
0.0
  0
SPLINE
  5
167
100
AcDbEntity
  8
0
 62
1
100
AcDbSpline
 70
8
 71
3
 72
8
 73
4
 74
0
 40
0
 40
0
 40
0
 40
0
 40
1
 40
1
 40
1
 40
1
 10
655.305200
 20
611.785088
 30
0.0
 10
658.098800
 20
619.695640
 30
0.0
 10
661.686880
 20
624.656720
 30
0.0
 10
667.832080
 20
629.105336
 30
0.0
  0
SPLINE
  5
168
100
AcDbEntity
  8
0
 62
1
100
AcDbSpline
 70
8
 71
3
 72
8
 73
4
 74
0
 40
0
 40
0
 40
0
 40
0
 40
1
 40
1
 40
1
 40
1
 10
667.832080
 20
629.105336
 30
0.0
 10
674.144960
 20
633.675400
 30
0.0
 10
674.391200
 20
634.025528
 30
0.0
 10
674.410080
 20
638.459264
 30
0.0
  0
SPLINE
  5
169
100
AcDbEntity
  8
0
 62
1
100
AcDbSpline
 70
8
 71
3
 72
8
 73
4
 74
0
 40
0
 40
0
 40
0
 40
0
 40
1
 40
1
 40
1
 40
1
 10
674.410080
 20
638.459264
 30
0.0
 10
674.436480
 20
644.595600
 30
0.0
 10
672.389040
 20
648.641176
 30
0.0
 10
666.251520
 20
654.582640
 30
0.0
  0
SPLINE
  5
16a
100
AcDbEntity
  8
0
 62
1
100
AcDbSpline
 70
8
 71
3
 72
8
 73
4
 74
0
 40
0
 40
0
 40
0
 40
0
 40
1
 40
1
 40
1
 40
1
 10
666.251520
 20
654.582640
 30
0.0
 10
658.656960
 20
661.934480
 30
0.0
 10
655.127920
 20
669.293960
 30
0.0
 10
654.610640
 20
678.858488
 30
0.0
  0
SPLINE
  5
16b
100
AcDbEntity
  8
0
 62
1
100
AcDbSpline
 70
8
 71
3
 72
8
 73
4
 74
0
 40
0
 40
0
 40
0
 40
0
 40
1
 40
1
 40
1
 40
1
 10
654.610640
 20
678.858488
 30
0.0
 10
653.954480
 20
690.990216
 30
0.0
 10
659.622640
 20
702.746232
 30
0.0
 10
669.728960
 20
710.214616
 30
0.0
  0
LWPOLYLINE
  5
16c
100
AcDbEntity
  8
0
 62
1
100
AcDbPolyline
 90
3
 70
1
 10
665.603920
 20
39.254240
 30
0.0
 10
668.487520
 20
41.858480
 30
0.0
 10
669.443840
 20
117.358480
 30
0.0
  0
SPLINE
  5
16d
100
AcDbEntity
  8
0
 62
1
100
AcDbSpline
 70
8
 71
3
 72
8
 73
4
 74
0
 40
0
 40
0
 40
0
 40
0
 40
1
 40
1
 40
1
 40
1
 10
675.216000
 20
737.956600
 30
0.0
 10
675.433520
 20
755.845680
 30
0.0
 10
675.168800
 20
762.940984
 30
0.0
 10
674.163760
 20
766.161616
 30
0.0
  0
SPLINE
  5
16e
100
AcDbEntity
  8
0
 62
1
100
AcDbSpline
 70
8
 71
3
 72
8
 73
4
 74
0
 40
0
 40
0
 40
0
 40
0
 40
1
 40
1
 40
1
 40
1
 10
674.163760
 20
766.161616
 30
0.0
 10
673.126000
 20
769.487024
 30
0.0
 10
669.015920
 20
774.541176
 30
0.0
 10
656.074560
 20
788.405848
 30
0.0
  0
SPLINE
  5
16f
100
AcDbEntity
  8
0
 62
1
100
AcDbSpline
 70
8
 71
3
 72
8
 73
4
 74
0
 40
0
 40
0
 40
0
 40
0
 40
1
 40
1
 40
1
 40
1
 10
656.074560
 20
788.405848
 30
0.0
 10
646.864000
 20
798.273448
 30
0.0
 10
638.724320
 20
807.812040
 30
0.0
 10
637.986240
 20
809.602720
 30
0.0
  0
SPLINE
  5
170
100
AcDbEntity
  8
0
 62
1
100
AcDbSpline
 70
8
 71
3
 72
8
 73
4
 74
0
 40
0
 40
0
 40
0
 40
0
 40
1
 40
1
 40
1
 40
1
 10
637.986240
 20
809.602720
 30
0.0
 10
636.863600
 20
812.326496
 30
0.0
 10
636.863840
 20
815.472856
 30
0.0
 10
637.986240
 20
828.858488
 30
0.0
  0
SPLINE
  5
171
100
AcDbEntity
  8
0
 62
1
100
AcDbSpline
 70
8
 71
3
 72
8
 73
4
 74
0
 40
0
 40
0
 40
0
 40
0
 40
1
 40
1
 40
1
 40
1
 10
637.986240
 20
828.858488
 30
0.0
 10
638.725280
 20
837.658488
 30
0.0
 10
639.795920
 20
850.598168
 30
0.0
 10
640.365360
 20
857.613328
 30
0.0
  0
SPLINE
  5
172
100
AcDbEntity
  8
0
 62
1
100
AcDbSpline
 70
8
 71
3
 72
8
 73
4
 74
0
 40
0
 40
0
 40
0
 40
0
 40
1
 40
1
 40
1
 40
1
 10
640.365360
 20
857.613328
 30
0.0
 10
641.512560
 20
871.745640
 30
0.0
 10
642.804960
 20
875.940136
 30
0.0
 10
647.038080
 20
879.269928
 30
0.0
  0
SPLINE
  5
173
100
AcDbEntity
  8
0
 62
1
100
AcDbSpline
 70
8
 71
3
 72
8
 73
4
 74
0
 40
0
 40
0
 40
0
 40
0
 40
1
 40
1
 40
1
 40
1
 10
647.038080
 20
879.269928
 30
0.0
 10
649.637120
 20
881.314296
 30
0.0
 10
650.776160
 20
881.487440
 30
0.0
 10
659.656080
 20
881.187824
 30
0.0
  0
SPLINE
  5
174
100
AcDbEntity
  8
0
 62
1
100
AcDbSpline
 70
8
 71
3
 72
8
 73
4
 74
0
 40
0
 40
0
 40
0
 40
0
 40
1
 40
1
 40
1
 40
1
 10
659.656080
 20
881.187824
 30
0.0
 10
665.024720
 20
881.006688
 30
0.0
 10
669.418640
 20
880.582944
 30
0.0
 10
669.420400
 20
880.246168
 30
0.0
  0
SPLINE
  5
175
100
AcDbEntity
  8
0
 62
1
100
AcDbSpline
 70
8
 71
3
 72
8
 73
4
 74
0
 40
0
 40
0
 40
0
 40
0
 40
1
 40
1
 40
1
 40
1
 10
669.420400
 20
880.246168
 30
0.0
 10
669.420400
 20
879.909400
 30
0.0
 10
671.910560
 20
879.341544
 30
0.0
 10
674.950240
 20
878.984296
 30
0.0
  0
SPLINE
  5
176
100
AcDbEntity
  8
0
 62
1
100
AcDbSpline
 70
8
 71
3
 72
8
 73
4
 74
0
 40
0
 40
0
 40
0
 40
0
 40
1
 40
1
 40
1
 40
1
 10
674.950240
 20
878.984296
 30
0.0
 10
681.944480
 20
878.162256
 30
0.0
 10
685.973040
 20
880.036024
 30
0.0
 10
688.086560
 20
885.094296
 30
0.0
  0
SPLINE
  5
177
100
AcDbEntity
  8
0
 62
1
100
AcDbSpline
 70
8
 71
3
 72
8
 73
4
 74
0
 40
0
 40
0
 40
0
 40
0
 40
1
 40
1
 40
1
 40
1
 10
688.086560
 20
885.094296
 30
0.0
 10
689.696960
 20
888.948648
 30
0.0
 10
689.666080
 20
889.258384
 30
0.0
 10
686.628080
 20
899.708504
 30
0.0
  0
SPLINE
  5
178
100
AcDbEntity
  8
0
 62
1
100
AcDbSpline
 70
8
 71
3
 72
8
 73
4
 74
0
 40
0
 40
0
 40
0
 40
0
 40
1
 40
1
 40
1
 40
1
 10
686.628080
 20
899.708504
 30
0.0
 10
684.020160
 20
908.679184
 30
0.0
 10
683.626960
 20
929.112080
 30
0.0
 10
685.875680
 20
938.808416
 30
0.0
  0
SPLINE
  5
179
100
AcDbEntity
  8
0
 62
1
100
AcDbSpline
 70
8
 71
3
 72
8
 73
4
 74
0
 40
0
 40
0
 40
0
 40
0
 40
1
 40
1
 40
1
 40
1
 10
685.875680
 20
938.808416
 30
0.0
 10
687.724560
 20
946.780584
 30
0.0
 10
687.717200
 20
946.658016
 30
0.0
 10
686.293840
 20
945.778304
 30
0.0
  0
SPLINE
  5
17a
100
AcDbEntity
  8
0
 62
1
100
AcDbSpline
 70
8
 71
3
 72
8
 73
4
 74
0
 40
0
 40
0
 40
0
 40
0
 40
1
 40
1
 40
1
 40
1
 10
686.293840
 20
945.778304
 30
0.0
 10
685.601920
 20
945.350688
 30
0.0
 10
685.359680
 20
945.618480
 30
0.0
 10
685.668800
 20
946.469288
 30
0.0
  0
SPLINE
  5
17b
100
AcDbEntity
  8
0
 62
1
100
AcDbSpline
 70
8
 71
3
 72
8
 73
4
 74
0
 40
0
 40
0
 40
0
 40
0
 40
1
 40
1
 40
1
 40
1
 10
685.668800
 20
946.469288
 30
0.0
 10
685.946400
 20
947.233344
 30
0.0
 10
686.613280
 20
947.768168
 30
0.0
 10
687.150640
 20
947.657784
 30
0.0
  0
SPLINE
  5
17c
100
AcDbEntity
  8
0
 62
1
100
AcDbSpline
 70
8
 71
3
 72
8
 73
4
 74
0
 40
0
 40
0
 40
0
 40
0
 40
1
 40
1
 40
1
 40
1
 10
687.150640
 20
947.657784
 30
0.0
 10
687.688080
 20
947.547400
 30
0.0
 10
688.692880
 20
950.022400
 30
0.0
 10
689.383520
 20
953.157784
 30
0.0
  0
SPLINE
  5
17d
100
AcDbEntity
  8
0
 62
1
100
AcDbSpline
 70
8
 71
3
 72
8
 73
4
 74
0
 40
0
 40
0
 40
0
 40
0
 40
1
 40
1
 40
1
 40
1
 10
689.383520
 20
953.157784
 30
0.0
 10
690.074240
 20
956.293168
 30
0.0
 10
691.079600
 20
960.208488
 30
0.0
 10
691.617760
 20
961.858488
 30
0.0
  0
SPLINE
  5
17e
100
AcDbEntity
  8
0
 62
1
100
AcDbSpline
 70
8
 71
3
 72
8
 73
4
 74
0
 40
0
 40
0
 40
0
 40
0
 40
1
 40
1
 40
1
 40
1
 10
691.617760
 20
961.858488
 30
0.0
 10
693.196960
 20
966.700368
 30
0.0
 10
693.761680
 20
985.266680
 30
0.0
 10
692.563280
 20
992.941520
 30
0.0
  0
SPLINE
  5
17f
100
AcDbEntity
  8
0
 62
1
100
AcDbSpline
 70
8
 71
3
 72
8
 73
4
 74
0
 40
0
 40
0
 40
0
 40
0
 40
1
 40
1
 40
1
 40
1
 10
692.563280
 20
992.941520
 30
0.0
 10
691.252400
 20
1001.336344
 30
0.0
 10
688.446800
 20
1010.490880
 30
0.0
 10
687.385840
 20
1009.835168
 30
0.0
  0
SPLINE
  5
180
100
AcDbEntity
  8
0
 62
1
100
AcDbSpline
 70
8
 71
3
 72
8
 73
4
 74
0
 40
0
 40
0
 40
0
 40
0
 40
1
 40
1
 40
1
 40
1
 10
687.385840
 20
1009.835168
 30
0.0
 10
686.596480
 20
1009.347328
 30
0.0
 10
685.412640
 20
1011.691376
 30
0.0
 10
685.438880
 20
1013.690280
 30
0.0
  0
SPLINE
  5
181
100
AcDbEntity
  8
0
 62
1
100
AcDbSpline
 70
8
 71
3
 72
8
 73
4
 74
0
 40
0
 40
0
 40
0
 40
0
 40
1
 40
1
 40
1
 40
1
 10
685.438880
 20
1013.690280
 30
0.0
 10
685.447680
 20
1014.360520
 30
0.0
 10
685.867360
 20
1014.219080
 30
0.0
 10
686.423520
 20
1013.358488
 30
0.0
  0
SPLINE
  5
182
100
AcDbEntity
  8
0
 62
1
100
AcDbSpline
 70
8
 71
3
 72
8
 73
4
 74
0
 40
0
 40
0
 40
0
 40
0
 40
1
 40
1
 40
1
 40
1
 10
686.423520
 20
1013.358488
 30
0.0
 10
686.956720
 20
1012.533488
 30
0.0
 10
687.399840
 20
1012.184280
 30
0.0
 10
687.408240
 20
1012.582456
 30
0.0
  0
SPLINE
  5
183
100
AcDbEntity
  8
0
 62
1
100
AcDbSpline
 70
8
 71
3
 72
8
 73
4
 74
0
 40
0
 40
0
 40
0
 40
0
 40
1
 40
1
 40
1
 40
1
 10
687.408240
 20
1012.582456
 30
0.0
 10
687.429840
 20
1013.587512
 30
0.0
 10
681.678400
 20
1027.965024
 30
0.0
 10
679.809360
 20
1031.579376
 30
0.0
  0
SPLINE
  5
184
100
AcDbEntity
  8
0
 62
1
100
AcDbSpline
 70
8
 71
3
 72
8
 73
4
 74
0
 40
0
 40
0
 40
0
 40
0
 40
1
 40
1
 40
1
 40
1
 10
679.809360
 20
1031.579376
 30
0.0
 10
677.443200
 20
1036.154944
 30
0.0
 10
677.170080
 20
1034.258816
 30
0.0
 10
679.500480
 20
1029.435408
 30
0.0
  0
SPLINE
  5
185
100
AcDbEntity
  8
0
 62
1
100
AcDbSpline
 70
8
 71
3
 72
8
 73
4
 74
0
 40
0
 40
0
 40
0
 40
0
 40
1
 40
1
 40
1
 40
1
 10
679.500480
 20
1029.435408
 30
0.0
 10
680.635200
 20
1027.086800
 30
0.0
 10
681.402400
 20
1025.003984
 30
0.0
 10
681.205360
 20
1024.806944
 30
0.0
  0
SPLINE
  5
186
100
AcDbEntity
  8
0
 62
1
100
AcDbSpline
 70
8
 71
3
 72
8
 73
4
 74
0
 40
0
 40
0
 40
0
 40
0
 40
1
 40
1
 40
1
 40
1
 10
681.205360
 20
1024.806944
 30
0.0
 10
681.008320
 20
1024.609896
 30
0.0
 10
679.654640
 20
1026.912736
 30
0.0
 10
678.197200
 20
1029.924360
 30
0.0
  0
SPLINE
  5
187
100
AcDbEntity
  8
0
 62
1
100
AcDbSpline
 70
8
 71
3
 72
8
 73
4
 74
0
 40
0
 40
0
 40
0
 40
0
 40
1
 40
1
 40
1
 40
1
 10
678.197200
 20
1029.924360
 30
0.0
 10
676.739760
 20
1032.935976
 30
0.0
 10
675.969440
 20
1035.139128
 30
0.0
 10
676.485440
 20
1034.820248
 30
0.0
  0
SPLINE
  5
188
100
AcDbEntity
  8
0
 62
1
100
AcDbSpline
 70
8
 71
3
 72
8
 73
4
 74
0
 40
0
 40
0
 40
0
 40
0
 40
1
 40
1
 40
1
 40
1
 10
676.485440
 20
1034.820248
 30
0.0
 10
677.714960
 20
1034.060336
 30
0.0
 10
677.674080
 20
1035.021912
 30
0.0
 10
676.373360
 20
1037.452240
 30
0.0
  0
SPLINE
  5
189
100
AcDbEntity
  8
0
 62
1
100
AcDbSpline
 70
8
 71
3
 72
8
 73
4
 74
0
 40
0
 40
0
 40
0
 40
0
 40
1
 40
1
 40
1
 40
1
 10
676.373360
 20
1037.452240
 30
0.0
 10
675.795760
 20
1038.531488
 30
0.0
 10
674.826240
 20
1039.107368
 30
0.0
 10
674.218880
 20
1038.731992
 30
0.0
  0
SPLINE
  5
18a
100
AcDbEntity
  8
0
 62
1
100
AcDbSpline
 70
8
 71
3
 72
8
 73
4
 74
0
 40
0
 40
0
 40
0
 40
0
 40
1
 40
1
 40
1
 40
1
 10
674.218880
 20
1038.731992
 30
0.0
 10
673.562240
 20
1038.326168
 30
0.0
 10
673.396880
 20
1038.506296
 30
0.0
 10
673.810960
 20
1039.176288
 30
0.0
  0
SPLINE
  5
18b
100
AcDbEntity
  8
0
 62
1
100
AcDbSpline
 70
8
 71
3
 72
8
 73
4
 74
0
 40
0
 40
0
 40
0
 40
0
 40
1
 40
1
 40
1
 40
1
 10
673.810960
 20
1039.176288
 30
0.0
 10
676.016240
 20
1042.744584
 30
0.0
 10
650.187840
 20
1071.758136
 30
0.0
 10
637.223600
 20
1080.275568
 30
0.0
  0
SPLINE
  5
18c
100
AcDbEntity
  8
0
 62
1
100
AcDbSpline
 70
8
 71
3
 72
8
 73
4
 74
0
 40
0
 40
0
 40
0
 40
0
 40
1
 40
1
 40
1
 40
1
 10
637.223600
 20
1080.275568
 30
0.0
 10
621.867440
 20
1090.364064
 30
0.0
 10
596.416960
 20
1101.338584
 30
0.0
 10
587.672960
 20
1101.642064
 30
0.0
  0
SPLINE
  5
18d
100
AcDbEntity
  8
0
 62
1
100
AcDbSpline
 70
8
 71
3
 72
8
 73
4
 74
0
 40
0
 40
0
 40
0
 40
0
 40
1
 40
1
 40
1
 40
1
 10
587.672960
 20
1101.642064
 30
0.0
 10
585.885520
 20
1101.704144
 30
0.0
 10
584.422960
 20
1102.143968
 30
0.0
 10
584.422960
 20
1102.619536
 30
0.0
  0
SPLINE
  5
18e
100
AcDbEntity
  8
0
 62
1
100
AcDbSpline
 70
8
 71
3
 72
8
 73
4
 74
0
 40
0
 40
0
 40
0
 40
0
 40
1
 40
1
 40
1
 40
1
 10
584.422960
 20
1102.619536
 30
0.0
 10
584.422960
 20
1103.095104
 30
0.0
 10
583.635520
 20
1103.354656
 30
0.0
 10
582.672960
 20
1103.196312
 30
0.0
  0
SPLINE
  5
18f
100
AcDbEntity
  8
0
 62
1
100
AcDbSpline
 70
8
 71
3
 72
8
 73
4
 74
0
 40
0
 40
0
 40
0
 40
0
 40
1
 40
1
 40
1
 40
1
 10
582.672960
 20
1103.196312
 30
0.0
 10
581.710480
 20
1103.037960
 30
0.0
 10
580.414320
 20
1103.227992
 30
0.0
 10
579.792560
 20
1103.618552
 30
0.0
  0
SPLINE
  5
190
100
AcDbEntity
  8
0
 62
1
100
AcDbSpline
 70
8
 71
3
 72
8
 73
4
 74
0
 40
0
 40
0
 40
0
 40
0
 40
1
 40
1
 40
1
 40
1
 10
579.792560
 20
1103.618552
 30
0.0
 10
577.334640
 20
1105.162688
 30
0.0
 10
556.215360
 20
1106.262552
 30
0.0
 10
546.170880
 20
1105.369528
 30
0.0
  0
SPLINE
  5
191
100
AcDbEntity
  8
0
 62
1
100
AcDbSpline
 70
8
 71
3
 72
8
 73
4
 74
0
 40
0
 40
0
 40
0
 40
0
 40
1
 40
1
 40
1
 40
1
 10
546.170880
 20
1105.369528
 30
0.0
 10
512.850160
 20
1102.407104
 30
0.0
 10
485.486640
 20
1089.886304
 30
0.0
 10
461.079600
 20
1066.434136
 30
0.0
  0
SPLINE
  5
192
100
AcDbEntity
  8
0
 62
1
100
AcDbSpline
 70
8
 71
3
 72
8
 73
4
 74
0
 40
0
 40
0
 40
0
 40
0
 40
1
 40
1
 40
1
 40
1
 10
461.079600
 20
1066.434136
 30
0.0
 10
450.223600
 20
1056.002864
 30
0.0
 10
433.472480
 20
1032.705448
 30
0.0
 10
435.023680
 20
1030.195616
 30
0.0
  0
SPLINE
  5
193
100
AcDbEntity
  8
0
 62
1
100
AcDbSpline
 70
8
 71
3
 72
8
 73
4
 74
0
 40
0
 40
0
 40
0
 40
0
 40
1
 40
1
 40
1
 40
1
 10
435.023680
 20
1030.195616
 30
0.0
 10
435.308240
 20
1029.735200
 30
0.0
 10
435.103840
 20
1029.358488
 30
0.0
 10
434.569520
 20
1029.358488
 30
0.0
  0
SPLINE
  5
194
100
AcDbEntity
  8
0
 62
1
100
AcDbSpline
 70
8
 71
3
 72
8
 73
4
 74
0
 40
0
 40
0
 40
0
 40
0
 40
1
 40
1
 40
1
 40
1
 10
434.569520
 20
1029.358488
 30
0.0
 10
433.340720
 20
1029.358488
 30
0.0
 10
427.222960
 20
1013.491216
 30
0.0
 10
427.979600
 20
1012.266840
 30
0.0
  0
SPLINE
  5
195
100
AcDbEntity
  8
0
 62
1
100
AcDbSpline
 70
8
 71
3
 72
8
 73
4
 74
0
 40
0
 40
0
 40
0
 40
0
 40
1
 40
1
 40
1
 40
1
 10
427.979600
 20
1012.266840
 30
0.0
 10
428.288400
 20
1011.767248
 30
0.0
 10
428.078640
 20
1011.358488
 30
0.0
 10
427.513360
 20
1011.358488
 30
0.0
  0
SPLINE
  5
196
100
AcDbEntity
  8
0
 62
1
100
AcDbSpline
 70
8
 71
3
 72
8
 73
4
 74
0
 40
0
 40
0
 40
0
 40
0
 40
1
 40
1
 40
1
 40
1
 10
427.513360
 20
1011.358488
 30
0.0
 10
426.948160
 20
1011.358488
 30
0.0
 10
426.744800
 20
1010.683488
 30
0.0
 10
427.061360
 20
1009.858488
 30
0.0
  0
SPLINE
  5
197
100
AcDbEntity
  8
0
 62
1
100
AcDbSpline
 70
8
 71
3
 72
8
 73
4
 74
0
 40
0
 40
0
 40
0
 40
0
 40
1
 40
1
 40
1
 40
1
 10
427.061360
 20
1009.858488
 30
0.0
 10
427.377920
 20
1009.033488
 30
0.0
 10
427.108560
 20
1008.358488
 30
0.0
 10
426.462560
 20
1008.358488
 30
0.0
  0
SPLINE
  5
198
100
AcDbEntity
  8
0
 62
1
100
AcDbSpline
 70
8
 71
3
 72
8
 73
4
 74
0
 40
0
 40
0
 40
0
 40
0
 40
1
 40
1
 40
1
 40
1
 10
426.462560
 20
1008.358488
 30
0.0
 10
425.760480
 20
1008.358488
 30
0.0
 10
425.532720
 20
1007.588040
 30
0.0
 10
425.896240
 20
1006.442648
 30
0.0
  0
SPLINE
  5
199
100
AcDbEntity
  8
0
 62
1
100
AcDbSpline
 70
8
 71
3
 72
8
 73
4
 74
0
 40
0
 40
0
 40
0
 40
0
 40
1
 40
1
 40
1
 40
1
 10
425.896240
 20
1006.442648
 30
0.0
 10
426.230720
 20
1005.388928
 30
0.0
 10
426.055680
 20
1004.249520
 30
0.0
 10
425.507360
 20
1003.910616
 30
0.0
  0
SPLINE
  5
19a
100
AcDbEntity
  8
0
 62
1
100
AcDbSpline
 70
8
 71
3
 72
8
 73
4
 74
0
 40
0
 40
0
 40
0
 40
0
 40
1
 40
1
 40
1
 40
1
 10
425.507360
 20
1003.910616
 30
0.0
 10
424.958960
 20
1003.571720
 30
0.0
 10
424.783360
 20
1002.582936
 30
0.0
 10
425.117040
 20
1001.713328
 30
0.0
  0
SPLINE
  5
19b
100
AcDbEntity
  8
0
 62
1
100
AcDbSpline
 70
8
 71
3
 72
8
 73
4
 74
0
 40
0
 40
0
 40
0
 40
0
 40
1
 40
1
 40
1
 40
1
 10
425.117040
 20
1001.713328
 30
0.0
 10
425.480480
 20
1000.766200
 30
0.0
 10
426.682560
 20
1003.453248
 30
0.0
 10
428.114960
 20
1008.414720
 30
0.0
  0
SPLINE
  5
19c
100
AcDbEntity
  8
0
 62
1
100
AcDbSpline
 70
8
 71
3
 72
8
 73
4
 74
0
 40
0
 40
0
 40
0
 40
0
 40
1
 40
1
 40
1
 40
1
 10
428.114960
 20
1008.414720
 30
0.0
 10
432.238000
 20
1022.696200
 30
0.0
 10
438.610880
 20
1036.165696
 30
0.0
 10
445.676960
 20
1045.533240
 30
0.0
  0
SPLINE
  5
19d
100
AcDbEntity
  8
0
 62
1
100
AcDbSpline
 70
8
 71
3
 72
8
 73
4
 74
0
 40
0
 40
0
 40
0
 40
0
 40
1
 40
1
 40
1
 40
1
 10
445.676960
 20
1045.533240
 30
0.0
 10
446.641600
 20
1046.812128
 30
0.0
 10
448.568480
 20
1049.433488
 30
0.0
 10
449.958800
 20
1051.358488
 30
0.0
  0
SPLINE
  5
19e
100
AcDbEntity
  8
0
 62
1
100
AcDbSpline
 70
8
 71
3
 72
8
 73
4
 74
0
 40
0
 40
0
 40
0
 40
0
 40
1
 40
1
 40
1
 40
1
 10
449.958800
 20
1051.358488
 30
0.0
 10
454.019680
 20
1056.981088
 30
0.0
 10
467.147040
 20
1070.009536
 30
0.0
 10
473.793440
 20
1075.013504
 30
0.0
  0
SPLINE
  5
19f
100
AcDbEntity
  8
0
 62
1
100
AcDbSpline
 70
8
 71
3
 72
8
 73
4
 74
0
 40
0
 40
0
 40
0
 40
0
 40
1
 40
1
 40
1
 40
1
 10
473.793440
 20
1075.013504
 30
0.0
 10
482.928320
 20
1081.891112
 30
0.0
 10
483.302960
 20
1082.084800
 30
0.0
 10
478.670960
 20
1077.535024
 30
0.0
  0
SPLINE
  5
1a0
100
AcDbEntity
  8
0
 62
1
100
AcDbSpline
 70
8
 71
3
 72
8
 73
4
 74
0
 40
0
 40
0
 40
0
 40
0
 40
1
 40
1
 40
1
 40
1
 10
478.670960
 20
1077.535024
 30
0.0
 10
476.332320
 20
1075.237928
 30
0.0
 10
474.063840
 20
1073.358488
 30
0.0
 10
473.629840
 20
1073.358488
 30
0.0
  0
SPLINE
  5
1a1
100
AcDbEntity
  8
0
 62
1
100
AcDbSpline
 70
8
 71
3
 72
8
 73
4
 74
0
 40
0
 40
0
 40
0
 40
0
 40
1
 40
1
 40
1
 40
1
 10
473.629840
 20
1073.358488
 30
0.0
 10
471.949120
 20
1073.358488
 30
0.0
 10
454.560560
 20
1055.367360
 30
0.0
 10
450.355360
 20
1049.277432
 30
0.0
  0
SPLINE
  5
1a2
100
AcDbEntity
  8
0
 62
1
100
AcDbSpline
 70
8
 71
3
 72
8
 73
4
 74
0
 40
0
 40
0
 40
0
 40
0
 40
1
 40
1
 40
1
 40
1
 10
450.355360
 20
1049.277432
 30
0.0
 10
447.917520
 20
1045.747008
 30
0.0
 10
445.698000
 20
1042.633488
 30
0.0
 10
445.422960
 20
1042.358488
 30
0.0
  0
SPLINE
  5
1a3
100
AcDbEntity
  8
0
 62
1
100
AcDbSpline
 70
8
 71
3
 72
8
 73
4
 74
0
 40
0
 40
0
 40
0
 40
0
 40
1
 40
1
 40
1
 40
1
 10
445.422960
 20
1042.358488
 30
0.0
 10
443.629760
 20
1040.565288
 30
0.0
 10
433.103440
 20
1018.863360
 30
0.0
 10
431.114240
 20
1012.858488
 30
0.0
  0
SPLINE
  5
1a4
100
AcDbEntity
  8
0
 62
1
100
AcDbSpline
 70
8
 71
3
 72
8
 73
4
 74
0
 40
0
 40
0
 40
0
 40
0
 40
1
 40
1
 40
1
 40
1
 10
431.114240
 20
1012.858488
 30
0.0
 10
428.660000
 20
1005.449896
 30
0.0
 10
426.644720
 20
995.757320
 30
0.0
 10
425.918960
 20
987.872368
 30
0.0
  0
SPLINE
  5
1a5
100
AcDbEntity
  8
0
 62
1
100
AcDbSpline
 70
8
 71
3
 72
8
 73
4
 74
0
 40
0
 40
0
 40
0
 40
0
 40
1
 40
1
 40
1
 40
1
 10
425.918960
 20
987.872368
 30
0.0
 10
425.565280
 20
984.030000
 30
0.0
 10
424.912320
 20
980.430000
 30
0.0
 10
424.468000
 20
979.872368
 30
0.0
  0
SPLINE
  5
1a6
100
AcDbEntity
  8
0
 62
1
100
AcDbSpline
 70
8
 71
3
 72
8
 73
4
 74
0
 40
0
 40
0
 40
0
 40
0
 40
1
 40
1
 40
1
 40
1
 10
424.468000
 20
979.872368
 30
0.0
 10
423.096800
 20
978.151808
 30
0.0
 10
422.649040
 20
971.129960
 30
0.0
 10
423.541280
 20
965.341136
 30
0.0
  0
SPLINE
  5
1a7
100
AcDbEntity
  8
0
 62
1
100
AcDbSpline
 70
8
 71
3
 72
8
 73
4
 74
0
 40
0
 40
0
 40
0
 40
0
 40
1
 40
1
 40
1
 40
1
 10
423.541280
 20
965.341136
 30
0.0
 10
424.009040
 20
962.306592
 30
0.0
 10
425.995120
 20
954.881584
 30
0.0
 10
427.954880
 20
948.841136
 30
0.0
  0
SPLINE
  5
1a8
100
AcDbEntity
  8
0
 62
1
100
AcDbSpline
 70
8
 71
3
 72
8
 73
4
 74
0
 40
0
 40
0
 40
0
 40
0
 40
1
 40
1
 40
1
 40
1
 10
427.954880
 20
948.841136
 30
0.0
 10
433.677520
 20
931.202016
 30
0.0
 10
433.683360
 20
926.202552
 30
0.0
 10
428.018080
 20
895.124920
 30
0.0
  0
SPLINE
  5
1a9
100
AcDbEntity
  8
0
 62
1
100
AcDbSpline
 70
8
 71
3
 72
8
 73
4
 74
0
 40
0
 40
0
 40
0
 40
0
 40
1
 40
1
 40
1
 40
1
 10
428.018080
 20
895.124920
 30
0.0
 10
427.147280
 20
890.348616
 30
0.0
 10
427.100480
 20
888.053256
 30
0.0
 10
427.856880
 20
887.228216
 30
0.0
  0
SPLINE
  5
1aa
100
AcDbEntity
  8
0
 62
1
100
AcDbSpline
 70
8
 71
3
 72
8
 73
4
 74
0
 40
0
 40
0
 40
0
 40
0
 40
1
 40
1
 40
1
 40
1
 10
427.856880
 20
887.228216
 30
0.0
 10
428.640880
 20
886.373176
 30
0.0
 10
428.526000
 20
886.256568
 30
0.0
 10
427.423360
 20
886.787968
 30
0.0
  0
SPLINE
  5
1ab
100
AcDbEntity
  8
0
 62
1
100
AcDbSpline
 70
8
 71
3
 72
8
 73
4
 74
0
 40
0
 40
0
 40
0
 40
0
 40
1
 40
1
 40
1
 40
1
 10
427.423360
 20
886.787968
 30
0.0
 10
426.598320
 20
887.185560
 30
0.0
 10
426.916720
 20
886.632440
 30
0.0
 10
428.130800
 20
885.558816
 30
0.0
  0
SPLINE
  5
1ac
100
AcDbEntity
  8
0
 62
1
100
AcDbSpline
 70
8
 71
3
 72
8
 73
4
 74
0
 40
0
 40
0
 40
0
 40
0
 40
1
 40
1
 40
1
 40
1
 10
428.130800
 20
885.558816
 30
0.0
 10
429.344960
 20
884.485192
 30
0.0
 10
430.019920
 20
883.228248
 30
0.0
 10
429.630800
 20
882.765600
 30
0.0
  0
SPLINE
  5
1ad
100
AcDbEntity
  8
0
 62
1
100
AcDbSpline
 70
8
 71
3
 72
8
 73
4
 74
0
 40
0
 40
0
 40
0
 40
0
 40
1
 40
1
 40
1
 40
1
 10
429.630800
 20
882.765600
 30
0.0
 10
429.241680
 20
882.302944
 30
0.0
 10
429.797200
 20
882.584584
 30
0.0
 10
430.865280
 20
883.391456
 30
0.0
  0
SPLINE
  5
1ae
100
AcDbEntity
  8
0
 62
1
100
AcDbSpline
 70
8
 71
3
 72
8
 73
4
 74
0
 40
0
 40
0
 40
0
 40
0
 40
1
 40
1
 40
1
 40
1
 10
430.865280
 20
883.391456
 30
0.0
 10
431.933360
 20
884.198328
 30
0.0
 10
432.489360
 20
884.328392
 30
0.0
 10
432.100800
 20
883.680488
 30
0.0
  0
SPLINE
  5
1af
100
AcDbEntity
  8
0
 62
1
100
AcDbSpline
 70
8
 71
3
 72
8
 73
4
 74
0
 40
0
 40
0
 40
0
 40
0
 40
1
 40
1
 40
1
 40
1
 10
432.100800
 20
883.680488
 30
0.0
 10
431.686400
 20
882.989488
 30
0.0
 10
432.164000
 20
882.258208
 30
0.0
 10
433.255920
 20
881.911624
 30
0.0
  0
SPLINE
  5
1b0
100
AcDbEntity
  8
0
 62
1
100
AcDbSpline
 70
8
 71
3
 72
8
 73
4
 74
0
 40
0
 40
0
 40
0
 40
0
 40
1
 40
1
 40
1
 40
1
 10
433.255920
 20
881.911624
 30
0.0
 10
435.257600
 20
881.276320
 30
0.0
 10
438.240080
 20
881.621720
 30
0.0
 10
451.305680
 20
884.002016
 30
0.0
  0
SPLINE
  5
1b1
100
AcDbEntity
  8
0
 62
1
100
AcDbSpline
 70
8
 71
3
 72
8
 73
4
 74
0
 40
0
 40
0
 40
0
 40
0
 40
1
 40
1
 40
1
 40
1
 10
451.305680
 20
884.002016
 30
0.0
 10
458.976880
 20
885.399560
 30
0.0
 10
460.055200
 20
885.388888
 30
0.0
 10
464.015840
 20
883.876304
 30
0.0
  0
SPLINE
  5
1b2
100
AcDbEntity
  8
0
 62
1
100
AcDbSpline
 70
8
 71
3
 72
8
 73
4
 74
0
 40
0
 40
0
 40
0
 40
0
 40
1
 40
1
 40
1
 40
1
 10
464.015840
 20
883.876304
 30
0.0
 10
471.092240
 20
881.173808
 30
0.0
 10
472.132000
 20
878.479672
 30
0.0
 10
473.894240
 20
858.280064
 30
0.0
  0
SPLINE
  5
1b3
100
AcDbEntity
  8
0
 62
1
100
AcDbSpline
 70
8
 71
3
 72
8
 73
4
 74
0
 40
0
 40
0
 40
0
 40
0
 40
1
 40
1
 40
1
 40
1
 10
473.894240
 20
858.280064
 30
0.0
 10
476.921040
 20
823.586288
 30
0.0
 10
477.384640
 20
816.414848
 30
0.0
 10
476.791840
 20
813.451128
 30
0.0
  0
SPLINE
  5
1b4
100
AcDbEntity
  8
0
 62
1
100
AcDbSpline
 70
8
 71
3
 72
8
 73
4
 74
0
 40
0
 40
0
 40
0
 40
0
 40
1
 40
1
 40
1
 40
1
 10
476.791840
 20
813.451128
 30
0.0
 10
476.410720
 20
811.545408
 30
0.0
 10
473.287920
 20
807.395256
 30
0.0
 10
468.306080
 20
802.173504
 30
0.0
  0
SPLINE
  5
1b5
100
AcDbEntity
  8
0
 62
1
100
AcDbSpline
 70
8
 71
3
 72
8
 73
4
 74
0
 40
0
 40
0
 40
0
 40
0
 40
1
 40
1
 40
1
 40
1
 10
468.306080
 20
802.173504
 30
0.0
 10
463.970560
 20
797.629256
 30
0.0
 10
460.423360
 20
793.561880
 30
0.0
 10
460.423360
 20
793.134864
 30
0.0
  0
SPLINE
  5
1b6
100
AcDbEntity
  8
0
 62
1
100
AcDbSpline
 70
8
 71
3
 72
8
 73
4
 74
0
 40
0
 40
0
 40
0
 40
0
 40
1
 40
1
 40
1
 40
1
 10
460.423360
 20
793.134864
 30
0.0
 10
460.423360
 20
792.707856
 30
0.0
 10
460.085840
 20
792.458328
 30
0.0
 10
459.673360
 20
792.580368
 30
0.0
  0
SPLINE
  5
1b7
100
AcDbEntity
  8
0
 62
1
100
AcDbSpline
 70
8
 71
3
 72
8
 73
4
 74
0
 40
0
 40
0
 40
0
 40
0
 40
1
 40
1
 40
1
 40
1
 10
459.673360
 20
792.580368
 30
0.0
 10
458.542720
 20
792.914840
 30
0.0
 10
441.423360
 20
776.105704
 30
0.0
 10
441.423360
 20
774.661096
 30
0.0
  0
SPLINE
  5
1b8
100
AcDbEntity
  8
0
 62
1
100
AcDbSpline
 70
8
 71
3
 72
8
 73
4
 74
0
 40
0
 40
0
 40
0
 40
0
 40
1
 40
1
 40
1
 40
1
 10
441.423360
 20
774.661096
 30
0.0
 10
441.423360
 20
773.971248
 30
0.0
 10
440.525040
 20
771.933448
 30
0.0
 10
439.427040
 20
770.132656
 30
0.0
  0
SPLINE
  5
1b9
100
AcDbEntity
  8
0
 62
1
100
AcDbSpline
 70
8
 71
3
 72
8
 73
4
 74
0
 40
0
 40
0
 40
0
 40
0
 40
1
 40
1
 40
1
 40
1
 10
439.427040
 20
770.132656
 30
0.0
 10
437.328720
 20
766.691016
 30
0.0
 10
436.621120
 20
767.920936
 30
0.0
 10
438.540160
 20
771.674224
 30
0.0
  0
SPLINE
  5
1ba
100
AcDbEntity
  8
0
 62
1
100
AcDbSpline
 70
8
 71
3
 72
8
 73
4
 74
0
 40
0
 40
0
 40
0
 40
0
 40
1
 40
1
 40
1
 40
1
 10
438.540160
 20
771.674224
 30
0.0
 10
439.597760
 20
773.742664
 30
0.0
 10
439.563040
 20
773.768848
 30
0.0
 10
437.885200
 20
772.167816
 30
0.0
  0
SPLINE
  5
1bb
100
AcDbEntity
  8
0
 62
1
100
AcDbSpline
 70
8
 71
3
 72
8
 73
4
 74
0
 40
0
 40
0
 40
0
 40
0
 40
1
 40
1
 40
1
 40
1
 10
437.885200
 20
772.167816
 30
0.0
 10
436.299200
 20
770.654400
 30
0.0
 10
436.074480
 20
767.771264
 30
0.0
 10
435.742240
 20
744.667816
 30
0.0
  0
SPLINE
  5
1bc
100
AcDbEntity
  8
0
 62
1
100
AcDbSpline
 70
8
 71
3
 72
8
 73
4
 74
0
 40
0
 40
0
 40
0
 40
0
 40
1
 40
1
 40
1
 40
1
 10
435.742240
 20
744.667816
 30
0.0
 10
435.467440
 20
725.558800
 30
0.0
 10
435.659920
 20
719.247896
 30
0.0
 10
436.483920
 20
720.358488
 30
0.0
  0
SPLINE
  5
1bd
100
AcDbEntity
  8
0
 62
1
100
AcDbSpline
 70
8
 71
3
 72
8
 73
4
 74
0
 40
0
 40
0
 40
0
 40
0
 40
1
 40
1
 40
1
 40
1
 10
436.483920
 20
720.358488
 30
0.0
 10
437.373760
 20
721.557856
 30
0.0
 10
437.482480
 20
721.357448
 30
0.0
 10
437.026400
 20
719.358488
 30
0.0
  0
SPLINE
  5
1be
100
AcDbEntity
  8
0
 62
1
100
AcDbSpline
 70
8
 71
3
 72
8
 73
4
 74
0
 40
0
 40
0
 40
0
 40
0
 40
1
 40
1
 40
1
 40
1
 10
437.026400
 20
719.358488
 30
0.0
 10
436.542160
 20
717.236200
 30
0.0
 10
437.589840
 20
715.775080
 30
0.0
 10
443.960880
 20
709.687576
 30
0.0
  0
SPLINE
  5
1bf
100
AcDbEntity
  8
0
 62
1
100
AcDbSpline
 70
8
 71
3
 72
8
 73
4
 74
0
 40
0
 40
0
 40
0
 40
0
 40
1
 40
1
 40
1
 40
1
 10
443.960880
 20
709.687576
 30
0.0
 10
452.692240
 20
701.344816
 30
0.0
 10
455.288080
 20
696.359584
 30
0.0
 10
456.130000
 20
686.317176
 30
0.0
  0
SPLINE
  5
1c0
100
AcDbEntity
  8
0
 62
1
100
AcDbSpline
 70
8
 71
3
 72
8
 73
4
 74
0
 40
0
 40
0
 40
0
 40
0
 40
1
 40
1
 40
1
 40
1
 10
456.130000
 20
686.317176
 30
0.0
 10
457.222560
 20
673.285368
 30
0.0
 10
451.880720
 20
661.316120
 30
0.0
 10
442.240960
 20
655.196264
 30
0.0
  0
SPLINE
  5
1c1
100
AcDbEntity
  8
0
 62
1
100
AcDbSpline
 70
8
 71
3
 72
8
 73
4
 74
0
 40
0
 40
0
 40
0
 40
0
 40
1
 40
1
 40
1
 40
1
 10
442.240960
 20
655.196264
 30
0.0
 10
440.215600
 20
653.910488
 30
0.0
 10
438.303120
 20
651.958488
 30
0.0
 10
437.990960
 20
650.858488
 30
0.0
  0
SPLINE
  5
1c2
100
AcDbEntity
  8
0
 62
1
100
AcDbSpline
 70
8
 71
3
 72
8
 73
4
 74
0
 40
0
 40
0
 40
0
 40
0
 40
1
 40
1
 40
1
 40
1
 10
437.990960
 20
650.858488
 30
0.0
 10
437.509520
 20
649.161896
 30
0.0
 10
437.274000
 20
649.086048
 30
0.0
 10
436.438640
 20
650.358488
 30
0.0
  0
SPLINE
  5
1c3
100
AcDbEntity
  8
0
 62
1
100
AcDbSpline
 70
8
 71
3
 72
8
 73
4
 74
0
 40
0
 40
0
 40
0
 40
0
 40
1
 40
1
 40
1
 40
1
 10
436.438640
 20
650.358488
 30
0.0
 10
435.746800
 20
651.412408
 30
0.0
 10
435.449440
 20
649.589544
 30
0.0
 10
435.438640
 20
644.228952
 30
0.0
  0
LWPOLYLINE
  5
1c4
100
AcDbEntity
  8
0
 62
1
100
AcDbPolyline
 90
3
 70
1
 10
669.728960
 20
710.214616
 30
0.0
 10
674.925360
 20
714.054712
 30
0.0
 10
675.216000
 20
737.956600
 30
0.0
  0
SPLINE
  5
1c5
100
AcDbEntity
  8
0
 62
1
100
AcDbSpline
 70
8
 71
3
 72
8
 73
4
 74
0
 40
0
 40
0
 40
0
 40
0
 40
1
 40
1
 40
1
 40
1
 10
440.173440
 20
632.818280
 30
0.0
 10
451.795280
 20
623.566960
 30
0.0
 10
454.947040
 20
617.147680
 30
0.0
 10
454.883280
 20
602.858488
 30
0.0
  0
SPLINE
  5
1c6
100
AcDbEntity
  8
0
 62
1
100
AcDbSpline
 70
8
 71
3
 72
8
 73
4
 74
0
 40
0
 40
0
 40
0
 40
0
 40
1
 40
1
 40
1
 40
1
 10
454.883280
 20
602.858488
 30
0.0
 10
454.851280
 20
595.685456
 30
0.0
 10
454.414640
 20
593.046496
 30
0.0
 10
452.732720
 20
589.858488
 30
0.0
  0
SPLINE
  5
1c7
100
AcDbEntity
  8
0
 62
1
100
AcDbSpline
 70
8
 71
3
 72
8
 73
4
 74
0
 40
0
 40
0
 40
0
 40
0
 40
1
 40
1
 40
1
 40
1
 10
452.732720
 20
589.858488
 30
0.0
 10
449.992880
 20
584.665304
 30
0.0
 10
445.388960
 20
578.927176
 30
0.0
 10
441.234320
 20
575.527288
 30
0.0
  0
SPLINE
  5
1c8
100
AcDbEntity
  8
0
 62
1
100
AcDbSpline
 70
8
 71
3
 72
8
 73
4
 74
0
 40
0
 40
0
 40
0
 40
0
 40
1
 40
1
 40
1
 40
1
 10
441.234320
 20
575.527288
 30
0.0
 10
439.413360
 20
574.037112
 30
0.0
 10
437.843280
 20
572.377000
 30
0.0
 10
437.745360
 20
571.838176
 30
0.0
  0
SPLINE
  5
1c9
100
AcDbEntity
  8
0
 62
1
100
AcDbSpline
 70
8
 71
3
 72
8
 73
4
 74
0
 40
0
 40
0
 40
0
 40
0
 40
1
 40
1
 40
1
 40
1
 10
437.745360
 20
571.838176
 30
0.0
 10
437.647440
 20
571.299352
 30
0.0
 10
437.072240
 20
569.733488
 30
0.0
 10
436.467200
 20
568.358488
 30
0.0
  0
SPLINE
  5
1ca
100
AcDbEntity
  8
0
 62
1
100
AcDbSpline
 70
8
 71
3
 72
8
 73
4
 74
0
 40
0
 40
0
 40
0
 40
0
 40
1
 40
1
 40
1
 40
1
 10
436.467200
 20
568.358488
 30
0.0
 10
435.483840
 20
566.123856
 30
0.0
 10
435.413120
 20
566.097320
 30
0.0
 10
435.801600
 20
568.108488
 30
0.0
  0
SPLINE
  5
1cb
100
AcDbEntity
  8
0
 62
1
100
AcDbSpline
 70
8
 71
3
 72
8
 73
4
 74
0
 40
0
 40
0
 40
0
 40
0
 40
1
 40
1
 40
1
 40
1
 10
435.801600
 20
568.108488
 30
0.0
 10
436.040640
 20
569.345992
 30
0.0
 10
435.801600
 20
570.358488
 30
0.0
 10
435.277040
 20
570.358488
 30
0.0
  0
SPLINE
  5
1cc
100
AcDbEntity
  8
0
 62
1
100
AcDbSpline
 70
8
 71
3
 72
8
 73
4
 74
0
 40
0
 40
0
 40
0
 40
0
 40
1
 40
1
 40
1
 40
1
 10
435.277040
 20
570.358488
 30
0.0
 10
434.738240
 20
570.358488
 30
0.0
 10
434.405840
 20
567.343440
 30
0.0
 10
434.518640
 20
563.479688
 30
0.0
  0
LWPOLYLINE
  5
1cd
100
AcDbEntity
  8
0
 62
1
100
AcDbPolyline
 90
3
 70
1
 10
435.438640
 20
644.228952
 30
0.0
 10
435.423440
 20
636.599408
 30
0.0
 10
440.173440
 20
632.818280
 30
0.0
  0
SPLINE
  5
1ce
100
AcDbEntity
  8
0
 62
1
100
AcDbSpline
 70
8
 71
3
 72
8
 73
4
 74
0
 40
0
 40
0
 40
0
 40
0
 40
1
 40
1
 40
1
 40
1
 10
440.059440
 20
552.339872
 30
0.0
 10
448.862400
 20
545.315512
 30
0.0
 10
453.145920
 20
538.184456
 30
0.0
 10
454.888320
 20
527.653640
 30
0.0
  0
SPLINE
  5
1cf
100
AcDbEntity
  8
0
 62
1
100
AcDbSpline
 70
8
 71
3
 72
8
 73
4
 74
0
 40
0
 40
0
 40
0
 40
0
 40
1
 40
1
 40
1
 40
1
 10
454.888320
 20
527.653640
 30
0.0
 10
455.783040
 20
522.245728
 30
0.0
 10
453.908720
 20
513.018320
 30
0.0
 10
450.831040
 20
507.679088
 30
0.0
  0
SPLINE
  5
1d0
100
AcDbEntity
  8
0
 62
1
100
AcDbSpline
 70
8
 71
3
 72
8
 73
4
 74
0
 40
0
 40
0
 40
0
 40
0
 40
1
 40
1
 40
1
 40
1
 10
450.831040
 20
507.679088
 30
0.0
 10
447.735840
 20
502.309528
 30
0.0
 10
440.443600
 20
494.696856
 30
0.0
 10
437.222000
 20
493.472000
 30
0.0
  0
SPLINE
  5
1d1
100
AcDbEntity
  8
0
 62
1
100
AcDbSpline
 70
8
 71
3
 72
8
 73
4
 74
0
 40
0
 40
0
 40
0
 40
0
 40
1
 40
1
 40
1
 40
1
 10
437.222000
 20
493.472000
 30
0.0
 10
435.101360
 20
492.665752
 30
0.0
 10
434.618720
 20
491.677248
 30
0.0
 10
434.071280
 20
487.019232
 30
0.0
  0
SPLINE
  5
1d2
100
AcDbEntity
  8
0
 62
1
100
AcDbSpline
 70
8
 71
3
 72
8
 73
4
 74
0
 40
0
 40
0
 40
0
 40
0
 40
1
 40
1
 40
1
 40
1
 10
434.071280
 20
487.019232
 30
0.0
 10
433.715680
 20
483.993872
 30
0.0
 10
433.738160
 20
480.695048
 30
0.0
 10
434.120880
 20
479.688528
 30
0.0
  0
SPLINE
  5
1d3
100
AcDbEntity
  8
0
 62
1
100
AcDbSpline
 70
8
 71
3
 72
8
 73
4
 74
0
 40
0
 40
0
 40
0
 40
0
 40
1
 40
1
 40
1
 40
1
 10
434.120880
 20
479.688528
 30
0.0
 10
434.503920
 20
478.682008
 30
0.0
 10
437.588160
 20
475.123648
 30
0.0
 10
440.974720
 20
471.781080
 30
0.0
  0
SPLINE
  5
1d4
100
AcDbEntity
  8
0
 62
1
100
AcDbSpline
 70
8
 71
3
 72
8
 73
4
 74
0
 40
0
 40
0
 40
0
 40
0
 40
1
 40
1
 40
1
 40
1
 10
440.974720
 20
471.781080
 30
0.0
 10
444.361360
 20
468.438496
 30
0.0
 10
448.865600
 20
462.604056
 30
0.0
 10
450.984240
 20
458.815648
 30
0.0
  0
SPLINE
  5
1d5
100
AcDbEntity
  8
0
 62
1
100
AcDbSpline
 70
8
 71
3
 72
8
 73
4
 74
0
 40
0
 40
0
 40
0
 40
0
 40
1
 40
1
 40
1
 40
1
 10
450.984240
 20
458.815648
 30
0.0
 10
454.482560
 20
452.560096
 30
0.0
 10
454.840240
 20
451.235808
 30
0.0
 10
454.879680
 20
444.393056
 30
0.0
  0
SPLINE
  5
1d6
100
AcDbEntity
  8
0
 62
1
100
AcDbSpline
 70
8
 71
3
 72
8
 73
4
 74
0
 40
0
 40
0
 40
0
 40
0
 40
1
 40
1
 40
1
 40
1
 10
454.879680
 20
444.393056
 30
0.0
 10
454.915680
 20
438.177608
 30
0.0
 10
454.432800
 20
435.808040
 30
0.0
 10
452.122400
 20
430.858488
 30
0.0
  0
SPLINE
  5
1d7
100
AcDbEntity
  8
0
 62
1
100
AcDbSpline
 70
8
 71
3
 72
8
 73
4
 74
0
 40
0
 40
0
 40
0
 40
0
 40
1
 40
1
 40
1
 40
1
 10
452.122400
 20
430.858488
 30
0.0
 10
449.166400
 20
424.525992
 30
0.0
 10
442.799440
 20
417.184136
 30
0.0
 10
438.140480
 20
414.735696
 30
0.0
  0
SPLINE
  5
1d8
100
AcDbEntity
  8
0
 62
1
100
AcDbSpline
 70
8
 71
3
 72
8
 73
4
 74
0
 40
0
 40
0
 40
0
 40
0
 40
1
 40
1
 40
1
 40
1
 10
438.140480
 20
414.735696
 30
0.0
 10
436.610000
 20
413.931392
 30
0.0
 10
435.621840
 20
412.846040
 30
0.0
 10
435.944560
 20
412.323816
 30
0.0
  0
SPLINE
  5
1d9
100
AcDbEntity
  8
0
 62
1
100
AcDbSpline
 70
8
 71
3
 72
8
 73
4
 74
0
 40
0
 40
0
 40
0
 40
0
 40
1
 40
1
 40
1
 40
1
 10
435.944560
 20
412.323816
 30
0.0
 10
436.267360
 20
411.801600
 30
0.0
 10
436.070720
 20
410.583272
 30
0.0
 10
435.507680
 20
409.616408
 30
0.0
  0
SPLINE
  5
1da
100
AcDbEntity
  8
0
 62
1
100
AcDbSpline
 70
8
 71
3
 72
8
 73
4
 74
0
 40
0
 40
0
 40
0
 40
0
 40
1
 40
1
 40
1
 40
1
 10
435.507680
 20
409.616408
 30
0.0
 10
434.595920
 20
408.050776
 30
0.0
 10
434.480640
 20
408.111056
 30
0.0
 10
434.453520
 20
410.167512
 30
0.0
  0
SPLINE
  5
1db
100
AcDbEntity
  8
0
 62
1
100
AcDbSpline
 70
8
 71
3
 72
8
 73
4
 74
0
 40
0
 40
0
 40
0
 40
0
 40
1
 40
1
 40
1
 40
1
 10
434.453520
 20
410.167512
 30
0.0
 10
434.436720
 20
411.446576
 30
0.0
 10
433.977120
 20
412.200848
 30
0.0
 10
433.423120
 20
411.858488
 30
0.0
  0
SPLINE
  5
1dc
100
AcDbEntity
  8
0
 62
1
100
AcDbSpline
 70
8
 71
3
 72
8
 73
4
 74
0
 40
0
 40
0
 40
0
 40
0
 40
1
 40
1
 40
1
 40
1
 10
433.423120
 20
411.858488
 30
0.0
 10
432.873120
 20
411.518568
 30
0.0
 10
432.423120
 20
409.890456
 30
0.0
 10
432.423120
 20
408.240456
 30
0.0
  0
SPLINE
  5
1dd
100
AcDbEntity
  8
0
 62
1
100
AcDbSpline
 70
8
 71
3
 72
8
 73
4
 74
0
 40
0
 40
0
 40
0
 40
0
 40
1
 40
1
 40
1
 40
1
 10
432.423120
 20
408.240456
 30
0.0
 10
432.423120
 20
406.590456
 30
0.0
 10
432.781040
 20
405.461632
 30
0.0
 10
433.218400
 20
405.731960
 30
0.0
  0
SPLINE
  5
1de
100
AcDbEntity
  8
0
 62
1
100
AcDbSpline
 70
8
 71
3
 72
8
 73
4
 74
0
 40
0
 40
0
 40
0
 40
0
 40
1
 40
1
 40
1
 40
1
 10
433.218400
 20
405.731960
 30
0.0
 10
433.655840
 20
406.002280
 30
0.0
 10
433.693760
 20
403.666336
 30
0.0
 10
433.302800
 20
400.540960
 30
0.0
  0
SPLINE
  5
1df
100
AcDbEntity
  8
0
 62
1
100
AcDbSpline
 70
8
 71
3
 72
8
 73
4
 74
0
 40
0
 40
0
 40
0
 40
0
 40
1
 40
1
 40
1
 40
1
 10
433.302800
 20
400.540960
 30
0.0
 10
432.034800
 20
390.404960
 30
0.0
 10
432.275920
 20
370.577120
 30
0.0
 10
433.673120
 20
370.084240
 30
0.0
  0
SPLINE
  5
1e0
100
AcDbEntity
  8
0
 62
1
100
AcDbSpline
 70
8
 71
3
 72
8
 73
4
 74
0
 40
0
 40
0
 40
0
 40
0
 40
1
 40
1
 40
1
 40
1
 10
433.673120
 20
370.084240
 30
0.0
 10
434.615360
 20
369.751920
 30
0.0
 10
434.495520
 20
368.898720
 30
0.0
 10
433.186320
 20
366.618960
 30
0.0
  0
SPLINE
  5
1e1
100
AcDbEntity
  8
0
 62
1
100
AcDbSpline
 70
8
 71
3
 72
8
 73
4
 74
0
 40
0
 40
0
 40
0
 40
0
 40
1
 40
1
 40
1
 40
1
 10
433.186320
 20
366.618960
 30
0.0
 10
431.677440
 20
363.991440
 30
0.0
 10
431.414960
 20
360.113360
 30
0.0
 10
431.186320
 20
337.072000
 30
0.0
  0
SPLINE
  5
1e2
100
AcDbEntity
  8
0
 62
1
100
AcDbSpline
 70
8
 71
3
 72
8
 73
4
 74
0
 40
0
 40
0
 40
0
 40
0
 40
1
 40
1
 40
1
 40
1
 10
431.186320
 20
337.072000
 30
0.0
 10
431.033040
 20
321.627040
 30
0.0
 10
431.297280
 20
310.780720
 30
0.0
 10
431.818960
 20
311.103120
 30
0.0
  0
SPLINE
  5
1e3
100
AcDbEntity
  8
0
 62
1
100
AcDbSpline
 70
8
 71
3
 72
8
 73
4
 74
0
 40
0
 40
0
 40
0
 40
0
 40
1
 40
1
 40
1
 40
1
 10
431.818960
 20
311.103120
 30
0.0
 10
432.324560
 20
311.415600
 30
0.0
 10
432.413120
 20
310.454640
 30
0.0
 10
432.022240
 20
308.897200
 30
0.0
  0
SPLINE
  5
1e4
100
AcDbEntity
  8
0
 62
1
100
AcDbSpline
 70
8
 71
3
 72
8
 73
4
 74
0
 40
0
 40
0
 40
0
 40
0
 40
1
 40
1
 40
1
 40
1
 10
432.022240
 20
308.897200
 30
0.0
 10
431.427120
 20
306.526000
 30
0.0
 10
431.934320
 20
305.564160
 30
0.0
 10
435.626400
 20
302.062880
 30
0.0
  0
SPLINE
  5
1e5
100
AcDbEntity
  8
0
 62
1
100
AcDbSpline
 70
8
 71
3
 72
8
 73
4
 74
0
 40
0
 40
0
 40
0
 40
0
 40
1
 40
1
 40
1
 40
1
 10
435.626400
 20
302.062880
 30
0.0
 10
437.989600
 20
299.821680
 30
0.0
 10
440.260640
 20
298.071440
 30
0.0
 10
440.673120
 20
298.173280
 30
0.0
  0
SPLINE
  5
1e6
100
AcDbEntity
  8
0
 62
1
100
AcDbSpline
 70
8
 71
3
 72
8
 73
4
 74
0
 40
0
 40
0
 40
0
 40
0
 40
1
 40
1
 40
1
 40
1
 10
440.673120
 20
298.173280
 30
0.0
 10
441.085680
 20
298.275120
 30
0.0
 10
441.423120
 20
297.991200
 30
0.0
 10
441.423120
 20
297.542320
 30
0.0
  0
SPLINE
  5
1e7
100
AcDbEntity
  8
0
 62
1
100
AcDbSpline
 70
8
 71
3
 72
8
 73
4
 74
0
 40
0
 40
0
 40
0
 40
0
 40
1
 40
1
 40
1
 40
1
 10
441.423120
 20
297.542320
 30
0.0
 10
441.423120
 20
297.093440
 30
0.0
 10
444.067360
 20
295.462400
 30
0.0
 10
447.299200
 20
293.917680
 30
0.0
  0
SPLINE
  5
1e8
100
AcDbEntity
  8
0
 62
1
100
AcDbSpline
 70
8
 71
3
 72
8
 73
4
 74
0
 40
0
 40
0
 40
0
 40
0
 40
1
 40
1
 40
1
 40
1
 10
447.299200
 20
293.917680
 30
0.0
 10
452.099840
 20
291.623200
 30
0.0
 10
453.701360
 20
291.284160
 30
0.0
 10
456.049200
 20
292.065200
 30
0.0
  0
LWPOLYLINE
  5
1e9
100
AcDbEntity
  8
0
 62
1
100
AcDbPolyline
 90
3
 70
1
 10
434.518640
 20
563.479688
 30
0.0
 10
434.719520
 20
556.600896
 30
0.0
 10
440.059440
 20
552.339872
 30
0.0
  0
SPLINE
  5
1ea
100
AcDbEntity
  8
0
 62
1
100
AcDbSpline
 70
8
 71
3
 72
8
 73
4
 74
0
 40
0
 40
0
 40
0
 40
0
 40
1
 40
1
 40
1
 40
1
 10
459.475680
 20
317.465760
 30
0.0
 10
459.779520
 20
330.910320
 30
0.0
 10
460.338720
 20
342.412800
 30
0.0
 10
460.718160
 20
343.026880
 30
0.0
  0
SPLINE
  5
1eb
100
AcDbEntity
  8
0
 62
1
100
AcDbSpline
 70
8
 71
3
 72
8
 73
4
 74
0
 40
0
 40
0
 40
0
 40
0
 40
1
 40
1
 40
1
 40
1
 10
460.718160
 20
343.026880
 30
0.0
 10
461.441920
 20
344.197840
 30
0.0
 10
500.428400
 20
366.505760
 30
0.0
 10
508.738240
 20
370.503680
 30
0.0
  0
SPLINE
  5
1ec
100
AcDbEntity
  8
0
 62
1
100
AcDbSpline
 70
8
 71
3
 72
8
 73
4
 74
0
 40
0
 40
0
 40
0
 40
0
 40
1
 40
1
 40
1
 40
1
 10
508.738240
 20
370.503680
 30
0.0
 10
513.239200
 20
372.669120
 30
0.0
 10
513.728560
 20
372.717680
 30
0.0
 10
516.238240
 20
371.248160
 30
0.0
  0
SPLINE
  5
1ed
100
AcDbEntity
  8
0
 62
1
100
AcDbSpline
 70
8
 71
3
 72
8
 73
4
 74
0
 40
0
 40
0
 40
0
 40
0
 40
1
 40
1
 40
1
 40
1
 10
516.238240
 20
371.248160
 30
0.0
 10
517.714960
 20
370.383520
 30
0.0
 10
524.998160
 20
365.936000
 30
0.0
 10
532.423120
 20
361.364720
 30
0.0
  0
SPLINE
  5
1ee
100
AcDbEntity
  8
0
 62
1
100
AcDbSpline
 70
8
 71
3
 72
8
 73
4
 74
0
 40
0
 40
0
 40
0
 40
0
 40
1
 40
1
 40
1
 40
1
 10
532.423120
 20
361.364720
 30
0.0
 10
549.056400
 20
351.124480
 30
0.0
 10
557.852640
 20
345.917280
 30
0.0
 10
558.147760
 20
346.136320
 30
0.0
  0
SPLINE
  5
1ef
100
AcDbEntity
  8
0
 62
1
100
AcDbSpline
 70
8
 71
3
 72
8
 73
4
 74
0
 40
0
 40
0
 40
0
 40
0
 40
1
 40
1
 40
1
 40
1
 10
558.147760
 20
346.136320
 30
0.0
 10
558.271280
 20
346.228000
 30
0.0
 10
560.032400
 20
344.782240
 30
0.0
 10
562.061280
 20
342.923600
 30
0.0
  0
LWPOLYLINE
  5
1f0
100
AcDbEntity
  8
0
 62
1
100
AcDbPolyline
 90
3
 70
1
 10
456.049200
 20
292.065200
 30
0.0
 10
458.923120
 20
293.021120
 30
0.0
 10
459.475680
 20
317.465760
 30
0.0
  0
SPLINE
  5
1f1
100
AcDbEntity
  8
0
 62
1
100
AcDbSpline
 70
8
 71
3
 72
8
 73
4
 74
0
 40
0
 40
0
 40
0
 40
0
 40
1
 40
1
 40
1
 40
1
 10
561.461200
 20
228.947760
 30
0.0
 10
555.428000
 20
216.701920
 30
0.0
 10
550.629680
 20
208.292400
 30
0.0
 10
547.449440
 20
204.390720
 30
0.0
  0
SPLINE
  5
1f2
100
AcDbEntity
  8
0
 62
1
100
AcDbSpline
 70
8
 71
3
 72
8
 73
4
 74
0
 40
0
 40
0
 40
0
 40
0
 40
1
 40
1
 40
1
 40
1
 10
547.449440
 20
204.390720
 30
0.0
 10
545.659200
 20
202.194320
 30
0.0
 10
540.699920
 20
194.201040
 30
0.0
 10
536.428880
 20
186.627840
 30
0.0
  0
LWPOLYLINE
  5
1f3
100
AcDbEntity
  8
0
 62
1
100
AcDbPolyline
 90
5
 70
1
 10
562.061280
 20
342.923600
 30
0.0
 10
565.750160
 20
339.544080
 30
0.0
 10
565.105680
 20
287.290560
 30
0.0
 10
564.461280
 20
235.037040
 30
0.0
 10
561.461200
 20
228.947760
 30
0.0
  0
SPLINE
  5
1f4
100
AcDbEntity
  8
0
 62
1
100
AcDbSpline
 70
8
 71
3
 72
8
 73
4
 74
0
 40
0
 40
0
 40
0
 40
0
 40
1
 40
1
 40
1
 40
1
 10
530.699760
 20
39.002480
 30
0.0
 10
533.195600
 20
37.138000
 30
0.0
 10
534.899120
 20
36.924800
 30
0.0
 10
547.548960
 20
36.893360
 30
0.0
  0
LWPOLYLINE
  5
1f5
100
AcDbEntity
  8
0
 62
1
100
AcDbPolyline
 90
5
 70
1
 10
536.428880
 20
186.627840
 30
0.0
 10
528.663360
 20
172.858480
 30
0.0
 10
528.293280
 20
106.967600
 30
0.0
 10
527.923120
 20
41.076640
 30
0.0
 10
530.699760
 20
39.002480
 30
0.0
  0
SPLINE
  5
1f6
100
AcDbEntity
  8
0
 62
1
100
AcDbSpline
 70
8
 71
3
 72
8
 73
4
 74
0
 40
0
 40
0
 40
0
 40
0
 40
1
 40
1
 40
1
 40
1
 10
578.001280
 20
63.358160
 30
0.0
 10
594.603440
 20
90.218160
 30
0.0
 10
597.253280
 20
93.403840
 30
0.0
 10
600.648960
 20
90.585760
 30
0.0
  0
SPLINE
  5
1f7
100
AcDbEntity
  8
0
 62
1
100
AcDbSpline
 70
8
 71
3
 72
8
 73
4
 74
0
 40
0
 40
0
 40
0
 40
0
 40
1
 40
1
 40
1
 40
1
 10
600.648960
 20
90.585760
 30
0.0
 10
601.388880
 20
89.971600
 30
0.0
 10
609.403280
 20
77.312720
 30
0.0
 10
618.458720
 20
62.454960
 30
0.0
  0
SPLINE
  5
1f8
100
AcDbEntity
  8
0
 62
1
100
AcDbSpline
 70
8
 71
3
 72
8
 73
4
 74
0
 40
0
 40
0
 40
0
 40
0
 40
1
 40
1
 40
1
 40
1
 10
618.458720
 20
62.454960
 30
0.0
 10
627.514160
 20
47.597120
 30
0.0
 10
635.598160
 20
35.223920
 30
0.0
 10
636.423120
 20
34.959040
 30
0.0
  0
SPLINE
  5
1f9
100
AcDbEntity
  8
0
 62
1
100
AcDbSpline
 70
8
 71
3
 72
8
 73
4
 74
0
 40
0
 40
0
 40
0
 40
0
 40
1
 40
1
 40
1
 40
1
 10
636.423120
 20
34.959040
 30
0.0
 10
637.960240
 20
34.465520
 30
0.0
 10
646.349040
 20
34.902240
 30
0.0
 10
656.820640
 20
36.020000
 30
0.0
  0
LWPOLYLINE
  5
1fa
100
AcDbEntity
  8
0
 62
1
100
AcDbPolyline
 90
3
 70
1
 10
547.548960
 20
36.893360
 30
0.0
 10
561.621600
 20
36.858160
 30
0.0
 10
578.001280
 20
63.358160
 30
0.0
  0
SPLINE
  5
1fb
100
AcDbEntity
  8
0
 62
1
100
AcDbSpline
 70
8
 71
3
 72
8
 73
4
 74
0
 40
0
 40
0
 40
0
 40
0
 40
1
 40
1
 40
1
 40
1
 10
544.111040
 20
397.811520
 30
0.0
 10
540.913200
 20
399.771760
 30
0.0
 10
538.589760
 20
400.809280
 30
0.0
 10
538.947840
 20
400.117040
 30
0.0
  0
SPLINE
  5
1fc
100
AcDbEntity
  8
0
 62
1
100
AcDbSpline
 70
8
 71
3
 72
8
 73
4
 74
0
 40
0
 40
0
 40
0
 40
0
 40
1
 40
1
 40
1
 40
1
 10
538.947840
 20
400.117040
 30
0.0
 10
539.305920
 20
399.424880
 30
0.0
 10
538.772400
 20
399.791360
 30
0.0
 10
537.762160
 20
400.931520
 30
0.0
  0
SPLINE
  5
1fd
100
AcDbEntity
  8
0
 62
1
100
AcDbSpline
 70
8
 71
3
 72
8
 73
4
 74
0
 40
0
 40
0
 40
0
 40
0
 40
1
 40
1
 40
1
 40
1
 10
537.762160
 20
400.931520
 30
0.0
 10
536.751920
 20
402.071664
 30
0.0
 10
533.564000
 20
404.480336
 30
0.0
 10
530.677920
 20
406.284104
 30
0.0
  0
SPLINE
  5
1fe
100
AcDbEntity
  8
0
 62
1
100
AcDbSpline
 70
8
 71
3
 72
8
 73
4
 74
0
 40
0
 40
0
 40
0
 40
0
 40
1
 40
1
 40
1
 40
1
 10
530.677920
 20
406.284104
 30
0.0
 10
527.791840
 20
408.087880
 30
0.0
 10
524.304320
 20
410.902048
 30
0.0
 10
522.927920
 20
412.537816
 30
0.0
  0
SPLINE
  5
1ff
100
AcDbEntity
  8
0
 62
1
100
AcDbSpline
 70
8
 71
3
 72
8
 73
4
 74
0
 40
0
 40
0
 40
0
 40
0
 40
1
 40
1
 40
1
 40
1
 10
522.927920
 20
412.537816
 30
0.0
 10
520.502640
 20
415.420096
 30
0.0
 10
520.425360
 20
415.972520
 30
0.0
 10
520.425360
 20
430.426560
 30
0.0
  0
LWPOLYLINE
  5
200
100
AcDbEntity
  8
0
 62
1
100
AcDbPolyline
 90
2
 70
1
 10
656.820640
 20
36.020000
 30
0.0
 10
656.822880
 20
36.020400
 30
0.0
  0
SPLINE
  5
201
100
AcDbEntity
  8
0
 62
1
100
AcDbSpline
 70
8
 71
3
 72
8
 73
4
 74
0
 40
0
 40
0
 40
0
 40
0
 40
1
 40
1
 40
1
 40
1
 10
513.425360
 20
472.369984
 30
0.0
 10
513.425360
 20
483.895128
 30
0.0
 10
513.004720
 20
491.226616
 30
0.0
 10
512.239200
 20
493.043392
 30
0.0
  0
SPLINE
  5
202
100
AcDbEntity
  8
0
 62
1
100
AcDbSpline
 70
8
 71
3
 72
8
 73
4
 74
0
 40
0
 40
0
 40
0
 40
0
 40
1
 40
1
 40
1
 40
1
 10
512.239200
 20
493.043392
 30
0.0
 10
511.544640
 20
494.691768
 30
0.0
 10
510.743680
 20
504.769152
 30
0.0
 10
510.306480
 20
517.358488
 30
0.0
  0
SPLINE
  5
203
100
AcDbEntity
  8
0
 62
1
100
AcDbSpline
 70
8
 71
3
 72
8
 73
4
 74
0
 40
0
 40
0
 40
0
 40
0
 40
1
 40
1
 40
1
 40
1
 10
510.306480
 20
517.358488
 30
0.0
 10
509.895840
 20
529.183488
 30
0.0
 10
509.417120
 20
539.758488
 30
0.0
 10
509.242640
 20
540.858488
 30
0.0
  0
SPLINE
  5
204
100
AcDbEntity
  8
0
 62
1
100
AcDbSpline
 70
8
 71
3
 72
8
 73
4
 74
0
 40
0
 40
0
 40
0
 40
0
 40
1
 40
1
 40
1
 40
1
 10
509.242640
 20
540.858488
 30
0.0
 10
509.068160
 20
541.958488
 30
0.0
 10
507.350400
 20
544.133376
 30
0.0
 10
505.425360
 20
545.691584
 30
0.0
  0
SPLINE
  5
205
100
AcDbEntity
  8
0
 62
1
100
AcDbSpline
 70
8
 71
3
 72
8
 73
4
 74
0
 40
0
 40
0
 40
0
 40
0
 40
1
 40
1
 40
1
 40
1
 10
505.425360
 20
545.691584
 30
0.0
 10
503.500400
 20
547.249792
 30
0.0
 10
501.418560
 20
549.463808
 30
0.0
 10
500.799200
 20
550.611624
 30
0.0
  0
SPLINE
  5
206
100
AcDbEntity
  8
0
 62
1
100
AcDbSpline
 70
8
 71
3
 72
8
 73
4
 74
0
 40
0
 40
0
 40
0
 40
0
 40
1
 40
1
 40
1
 40
1
 10
500.799200
 20
550.611624
 30
0.0
 10
500.062960
 20
551.975896
 30
0.0
 10
499.614960
 20
561.438408
 30
0.0
 10
499.505520
 20
577.937520
 30
0.0
  0
SPLINE
  5
207
100
AcDbEntity
  8
0
 62
1
100
AcDbSpline
 70
8
 71
3
 72
8
 73
4
 74
0
 40
0
 40
0
 40
0
 40
0
 40
1
 40
1
 40
1
 40
1
 10
499.505520
 20
577.937520
 30
0.0
 10
499.413360
 20
591.818928
 30
0.0
 10
498.918400
 20
604.639464
 30
0.0
 10
498.405600
 20
606.427600
 30
0.0
  0
SPLINE
  5
208
100
AcDbEntity
  8
0
 62
1
100
AcDbSpline
 70
8
 71
3
 72
8
 73
4
 74
0
 40
0
 40
0
 40
0
 40
0
 40
1
 40
1
 40
1
 40
1
 10
498.405600
 20
606.427600
 30
0.0
 10
497.892720
 20
608.215728
 30
0.0
 10
496.449920
 20
610.767024
 30
0.0
 10
495.199280
 20
612.097160
 30
0.0
  0
SPLINE
  5
209
100
AcDbEntity
  8
0
 62
1
100
AcDbSpline
 70
8
 71
3
 72
8
 73
4
 74
0
 40
0
 40
0
 40
0
 40
0
 40
1
 40
1
 40
1
 40
1
 10
495.199280
 20
612.097160
 30
0.0
 10
492.951600
 20
614.487664
 30
0.0
 10
492.919600
 20
614.896224
 30
0.0
 10
492.425360
 20
647.518504
 30
0.0
  0
LWPOLYLINE
  5
20a
100
AcDbEntity
  8
0
 62
1
100
AcDbPolyline
 90
5
 70
1
 10
520.425360
 20
430.426560
 30
0.0
 10
520.425360
 20
445.341176
 30
0.0
 10
516.925360
 20
449.926432
 30
0.0
 10
513.425360
 20
454.511680
 30
0.0
 10
513.425360
 20
472.369984
 30
0.0
  0
SPLINE
  5
20b
100
AcDbEntity
  8
0
 62
1
100
AcDbSpline
 70
8
 71
3
 72
8
 73
4
 74
0
 40
0
 40
0
 40
0
 40
0
 40
1
 40
1
 40
1
 40
1
 10
488.925360
 20
682.655408
 30
0.0
 10
487.275360
 20
683.829088
 30
0.0
 10
484.452800
 20
686.232528
 30
0.0
 10
482.652880
 20
687.996400
 30
0.0
  0
LWPOLYLINE
  5
20c
100
AcDbEntity
  8
0
 62
1
100
AcDbPolyline
 90
3
 70
1
 10
492.425360
 20
647.518504
 30
0.0
 10
491.925360
 20
680.521456
 30
0.0
 10
488.925360
 20
682.655408
 30
0.0
  0
SPLINE
  5
20d
100
AcDbEntity
  8
0
 62
1
100
AcDbSpline
 70
8
 71
3
 72
8
 73
4
 74
0
 40
0
 40
0
 40
0
 40
0
 40
1
 40
1
 40
1
 40
1
 10
479.934400
 20
730.530960
 30
0.0
 10
480.239040
 20
752.161096
 30
0.0
 10
480.705040
 20
771.243888
 30
0.0
 10
480.970000
 20
772.937144
 30
0.0
  0
SPLINE
  5
20e
100
AcDbEntity
  8
0
 62
1
100
AcDbSpline
 70
8
 71
3
 72
8
 73
4
 74
0
 40
0
 40
0
 40
0
 40
0
 40
1
 40
1
 40
1
 40
1
 10
480.970000
 20
772.937144
 30
0.0
 10
481.458800
 20
776.060984
 30
0.0
 10
483.183600
 20
777.401664
 30
0.0
 10
499.590320
 20
787.410456
 30
0.0
  0
SPLINE
  5
20f
100
AcDbEntity
  8
0
 62
1
100
AcDbSpline
 70
8
 71
3
 72
8
 73
4
 74
0
 40
0
 40
0
 40
0
 40
0
 40
1
 40
1
 40
1
 40
1
 10
499.590320
 20
787.410456
 30
0.0
 10
504.203200
 20
790.224528
 30
0.0
 10
504.261440
 20
790.326536
 30
0.0
 10
504.812640
 20
796.557376
 30
0.0
  0
SPLINE
  5
210
100
AcDbEntity
  8
0
 62
1
100
AcDbSpline
 70
8
 71
3
 72
8
 73
4
 74
0
 40
0
 40
0
 40
0
 40
0
 40
1
 40
1
 40
1
 40
1
 10
504.812640
 20
796.557376
 30
0.0
 10
505.119200
 20
800.022984
 30
0.0
 10
505.731440
 20
818.383488
 30
0.0
 10
506.173200
 20
837.358488
 30
0.0
  0
SPLINE
  5
211
100
AcDbEntity
  8
0
 62
1
100
AcDbSpline
 70
8
 71
3
 72
8
 73
4
 74
0
 40
0
 40
0
 40
0
 40
0
 40
1
 40
1
 40
1
 40
1
 10
506.173200
 20
837.358488
 30
0.0
 10
507.050080
 20
875.025648
 30
0.0
 10
507.046000
 20
875.001520
 30
0.0
 10
513.067280
 20
877.858776
 30
0.0
  0
SPLINE
  5
212
100
AcDbEntity
  8
0
 62
1
100
AcDbSpline
 70
8
 71
3
 72
8
 73
4
 74
0
 40
0
 40
0
 40
0
 40
0
 40
1
 40
1
 40
1
 40
1
 10
513.067280
 20
877.858776
 30
0.0
 10
519.341280
 20
880.836008
 30
0.0
 10
523.991840
 20
879.298328
 30
0.0
 10
528.050400
 20
872.904680
 30
0.0
  0
SPLINE
  5
213
100
AcDbEntity
  8
0
 62
1
100
AcDbSpline
 70
8
 71
3
 72
8
 73
4
 74
0
 40
0
 40
0
 40
0
 40
0
 40
1
 40
1
 40
1
 40
1
 10
528.050400
 20
872.904680
 30
0.0
 10
529.756320
 20
870.217248
 30
0.0
 10
529.970480
 20
866.994104
 30
0.0
 10
530.425360
 20
837.164528
 30
0.0
  0
LWPOLYLINE
  5
214
100
AcDbEntity
  8
0
 62
1
100
AcDbPolyline
 90
3
 70
1
 10
482.652880
 20
687.996400
 30
0.0
 10
479.380480
 20
691.203424
 30
0.0
 10
479.934400
 20
730.530960
 30
0.0
  0
SPLINE
  5
215
100
AcDbEntity
  8
0
 62
1
100
AcDbSpline
 70
8
 71
3
 72
8
 73
4
 74
0
 40
0
 40
0
 40
0
 40
0
 40
1
 40
1
 40
1
 40
1
 10
544.425360
 20
842.370824
 30
0.0
 10
544.959600
 20
873.874776
 30
0.0
 10
545.232480
 20
875.574248
 30
0.0
 10
550.051280
 20
877.406360
 30
0.0
  0
SPLINE
  5
216
100
AcDbEntity
  8
0
 62
1
100
AcDbSpline
 70
8
 71
3
 72
8
 73
4
 74
0
 40
0
 40
0
 40
0
 40
0
 40
1
 40
1
 40
1
 40
1
 10
550.051280
 20
877.406360
 30
0.0
 10
556.336480
 20
879.795984
 30
0.0
 10
562.465200
 20
877.907080
 30
0.0
 10
566.145360
 20
872.446040
 30
0.0
  0
SPLINE
  5
217
100
AcDbEntity
  8
0
 62
1
100
AcDbSpline
 70
8
 71
3
 72
8
 73
4
 74
0
 40
0
 40
0
 40
0
 40
0
 40
1
 40
1
 40
1
 40
1
 10
566.145360
 20
872.446040
 30
0.0
 10
568.387440
 20
869.119016
 30
0.0
 10
568.425360
 20
868.584168
 30
0.0
 10
568.425360
 20
840.302376
 30
0.0
  0
LWPOLYLINE
  5
218
100
AcDbEntity
  8
0
 62
1
100
AcDbPolyline
 90
5
 70
1
 10
530.425360
 20
837.164528
 30
0.0
 10
530.925360
 20
804.378184
 30
0.0
 10
537.425360
 20
808.630664
 30
0.0
 10
543.925360
 20
812.883160
 30
0.0
 10
544.425360
 20
842.370824
 30
0.0
  0
SPLINE
  5
219
100
AcDbEntity
  8
0
 62
1
100
AcDbSpline
 70
8
 71
3
 72
8
 73
4
 74
0
 40
0
 40
0
 40
0
 40
0
 40
1
 40
1
 40
1
 40
1
 10
575.045120
 20
807.903344
 30
0.0
 10
578.686000
 20
805.902080
 30
0.0
 10
581.948480
 20
804.548256
 30
0.0
 10
582.295120
 20
804.894856
 30
0.0
  0
SPLINE
  5
21a
100
AcDbEntity
  8
0
 62
1
100
AcDbSpline
 70
8
 71
3
 72
8
 73
4
 74
0
 40
0
 40
0
 40
0
 40
0
 40
1
 40
1
 40
1
 40
1
 10
582.295120
 20
804.894856
 30
0.0
 10
582.641760
 20
805.241464
 30
0.0
 10
583.062640
 20
820.675080
 30
0.0
 10
583.230400
 20
839.191768
 30
0.0
  0
LWPOLYLINE
  5
21b
100
AcDbEntity
  8
0
 62
1
100
AcDbPolyline
 90
3
 70
1
 10
568.425360
 20
840.302376
 30
0.0
 10
568.425360
 20
811.542024
 30
0.0
 10
575.045120
 20
807.903344
 30
0.0
  0
SPLINE
  5
21c
100
AcDbEntity
  8
0
 62
1
100
AcDbSpline
 70
8
 71
3
 72
8
 73
4
 74
0
 40
0
 40
0
 40
0
 40
0
 40
1
 40
1
 40
1
 40
1
 10
586.496160
 20
875.608488
 30
0.0
 10
590.821200
 20
879.625616
 30
0.0
 10
597.076240
 20
879.481944
 30
0.0
 10
601.890560
 20
875.254896
 30
0.0
  0
SPLINE
  5
21d
100
AcDbEntity
  8
0
 62
1
100
AcDbSpline
 70
8
 71
3
 72
8
 73
4
 74
0
 40
0
 40
0
 40
0
 40
0
 40
1
 40
1
 40
1
 40
1
 10
601.890560
 20
875.254896
 30
0.0
 10
605.131200
 20
872.409616
 30
0.0
 10
606.101200
 20
872.550616
 30
0.0
 10
605.487360
 20
875.777760
 30
0.0
  0
SPLINE
  5
21e
100
AcDbEntity
  8
0
 62
1
100
AcDbSpline
 70
8
 71
3
 72
8
 73
4
 74
0
 40
0
 40
0
 40
0
 40
0
 40
1
 40
1
 40
1
 40
1
 10
605.487360
 20
875.777760
 30
0.0
 10
605.391200
 20
876.283360
 30
0.0
 10
606.012960
 20
876.115760
 30
0.0
 10
606.868960
 20
875.405320
 30
0.0
  0
SPLINE
  5
21f
100
AcDbEntity
  8
0
 62
1
100
AcDbSpline
 70
8
 71
3
 72
8
 73
4
 74
0
 40
0
 40
0
 40
0
 40
0
 40
1
 40
1
 40
1
 40
1
 10
606.868960
 20
875.405320
 30
0.0
 10
608.540400
 20
874.018160
 30
0.0
 10
609.006960
 20
872.881040
 30
0.0
 10
607.530160
 20
873.793728
 30
0.0
  0
SPLINE
  5
220
100
AcDbEntity
  8
0
 62
1
100
AcDbSpline
 70
8
 71
3
 72
8
 73
4
 74
0
 40
0
 40
0
 40
0
 40
0
 40
1
 40
1
 40
1
 40
1
 10
607.530160
 20
873.793728
 30
0.0
 10
606.488560
 20
874.437456
 30
0.0
 10
605.171120
 20
871.578936
 30
0.0
 10
605.937680
 20
870.338576
 30
0.0
  0
SPLINE
  5
221
100
AcDbEntity
  8
0
 62
1
100
AcDbSpline
 70
8
 71
3
 72
8
 73
4
 74
0
 40
0
 40
0
 40
0
 40
0
 40
1
 40
1
 40
1
 40
1
 10
605.937680
 20
870.338576
 30
0.0
 10
606.223040
 20
869.876896
 30
0.0
 10
606.475840
 20
851.130008
 30
0.0
 10
606.499440
 20
828.678824
 30
0.0
  0
LWPOLYLINE
  5
222
100
AcDbEntity
  8
0
 62
1
100
AcDbPolyline
 90
3
 70
1
 10
583.230400
 20
839.191768
 30
0.0
 10
583.535440
 20
872.858488
 30
0.0
 10
586.496160
 20
875.608488
 30
0.0
  0
SPLINE
  5
223
100
AcDbEntity
  8
0
 62
1
100
AcDbSpline
 70
8
 71
3
 72
8
 73
4
 74
0
 40
0
 40
0
 40
0
 40
0
 40
1
 40
1
 40
1
 40
1
 10
616.008880
 20
781.858488
 30
0.0
 10
621.215360
 20
778.558488
 30
0.0
 10
626.701520
 20
774.590984
 30
0.0
 10
628.200400
 20
773.041824
 30
0.0
  0
LWPOLYLINE
  5
224
100
AcDbEntity
  8
0
 62
1
100
AcDbPolyline
 90
3
 70
1
 10
606.499440
 20
828.678824
 30
0.0
 10
606.542640
 20
787.858488
 30
0.0
 10
616.008880
 20
781.858488
 30
0.0
  0
SPLINE
  5
225
100
AcDbEntity
  8
0
 62
1
100
AcDbSpline
 70
8
 71
3
 72
8
 73
4
 74
0
 40
0
 40
0
 40
0
 40
0
 40
1
 40
1
 40
1
 40
1
 10
630.925600
 20
730.541824
 30
0.0
 10
630.925600
 20
708.715984
 30
0.0
 10
630.580720
 20
689.625584
 30
0.0
 10
630.159120
 20
688.118704
 30
0.0
  0
SPLINE
  5
226
100
AcDbEntity
  8
0
 62
1
100
AcDbSpline
 70
8
 71
3
 72
8
 73
4
 74
0
 40
0
 40
0
 40
0
 40
0
 40
1
 40
1
 40
1
 40
1
 10
630.159120
 20
688.118704
 30
0.0
 10
629.726640
 20
686.572728
 30
0.0
 10
627.116480
 20
683.579704
 30
0.0
 10
624.168800
 20
681.249696
 30
0.0
  0
SPLINE
  5
227
100
AcDbEntity
  8
0
 62
1
100
AcDbSpline
 70
8
 71
3
 72
8
 73
4
 74
0
 40
0
 40
0
 40
0
 40
0
 40
1
 40
1
 40
1
 40
1
 10
624.168800
 20
681.249696
 30
0.0
 10
621.295680
 20
678.978616
 30
0.0
 10
618.433520
 20
675.904336
 30
0.0
 10
617.808560
 20
674.417960
 30
0.0
  0
SPLINE
  5
228
100
AcDbEntity
  8
0
 62
1
100
AcDbSpline
 70
8
 71
3
 72
8
 73
4
 74
0
 40
0
 40
0
 40
0
 40
0
 40
1
 40
1
 40
1
 40
1
 10
617.808560
 20
674.417960
 30
0.0
 10
617.108880
 20
672.753840
 30
0.0
 10
616.386480
 20
660.094488
 30
0.0
 10
615.928400
 20
641.470408
 30
0.0
  0
LWPOLYLINE
  5
229
100
AcDbEntity
  8
0
 62
1
100
AcDbPolyline
 90
3
 70
1
 10
628.200400
 20
773.041824
 30
0.0
 10
630.925600
 20
770.225176
 30
0.0
 10
630.925600
 20
730.541824
 30
0.0
  0
SPLINE
  5
22a
100
AcDbEntity
  8
0
 62
1
100
AcDbSpline
 70
8
 71
3
 72
8
 73
4
 74
0
 40
0
 40
0
 40
0
 40
0
 40
1
 40
1
 40
1
 40
1
 10
612.658160
 20
608.223016
 30
0.0
 10
609.192960
 20
604.104856
 30
0.0
 10
608.532240
 20
599.637040
 30
0.0
 10
608.389680
 20
579.358488
 30
0.0
  0
SPLINE
  5
22b
100
AcDbEntity
  8
0
 62
1
100
AcDbSpline
 70
8
 71
3
 72
8
 73
4
 74
0
 40
0
 40
0
 40
0
 40
0
 40
1
 40
1
 40
1
 40
1
 10
608.389680
 20
579.358488
 30
0.0
 10
608.321680
 20
569.733488
 30
0.0
 10
607.953200
 20
558.083344
 30
0.0
 10
607.570240
 20
553.469280
 30
0.0
  0
SPLINE
  5
22c
100
AcDbEntity
  8
0
 62
1
100
AcDbSpline
 70
8
 71
3
 72
8
 73
4
 74
0
 40
0
 40
0
 40
0
 40
0
 40
1
 40
1
 40
1
 40
1
 10
607.570240
 20
553.469280
 30
0.0
 10
606.880160
 20
545.156000
 30
0.0
 10
606.835360
 20
545.046968
 30
0.0
 10
602.626640
 20
541.422128
 30
0.0
  0
SPLINE
  5
22d
100
AcDbEntity
  8
0
 62
1
100
AcDbSpline
 70
8
 71
3
 72
8
 73
4
 74
0
 40
0
 40
0
 40
0
 40
0
 40
1
 40
1
 40
1
 40
1
 10
602.626640
 20
541.422128
 30
0.0
 10
597.701760
 20
537.180520
 30
0.0
 10
597.777440
 20
537.580208
 30
0.0
 10
596.986240
 20
511.622384
 30
0.0
  0
SPLINE
  5
22e
100
AcDbEntity
  8
0
 62
1
100
AcDbSpline
 70
8
 71
3
 72
8
 73
4
 74
0
 40
0
 40
0
 40
0
 40
0
 40
1
 40
1
 40
1
 40
1
 10
596.986240
 20
511.622384
 30
0.0
 10
596.646480
 20
500.476656
 30
0.0
 10
596.048880
 20
494.519744
 30
0.0
 10
595.080080
 20
492.622384
 30
0.0
  0
SPLINE
  5
22f
100
AcDbEntity
  8
0
 62
1
100
AcDbSpline
 70
8
 71
3
 72
8
 73
4
 74
0
 40
0
 40
0
 40
0
 40
0
 40
1
 40
1
 40
1
 40
1
 10
595.080080
 20
492.622384
 30
0.0
 10
594.105280
 20
490.713408
 30
0.0
 10
593.458240
 20
484.136104
 30
0.0
 10
592.988240
 20
471.358488
 30
0.0
  0
SPLINE
  5
230
100
AcDbEntity
  8
0
 62
1
100
AcDbSpline
 70
8
 71
3
 72
8
 73
4
 74
0
 40
0
 40
0
 40
0
 40
0
 40
1
 40
1
 40
1
 40
1
 10
592.988240
 20
471.358488
 30
0.0
 10
592.247920
 20
451.233200
 30
0.0
 10
591.508720
 20
447.298200
 30
0.0
 10
588.041760
 20
445.026544
 30
0.0
  0
SPLINE
  5
231
100
AcDbEntity
  8
0
 62
1
100
AcDbSpline
 70
8
 71
3
 72
8
 73
4
 74
0
 40
0
 40
0
 40
0
 40
0
 40
1
 40
1
 40
1
 40
1
 10
588.041760
 20
445.026544
 30
0.0
 10
586.786240
 20
444.203880
 30
0.0
 10
585.741360
 20
442.929520
 30
0.0
 10
585.719760
 20
442.194640
 30
0.0
  0
SPLINE
  5
232
100
AcDbEntity
  8
0
 62
1
100
AcDbSpline
 70
8
 71
3
 72
8
 73
4
 74
0
 40
0
 40
0
 40
0
 40
0
 40
1
 40
1
 40
1
 40
1
 10
585.719760
 20
442.194640
 30
0.0
 10
585.698160
 20
441.459760
 30
0.0
 10
585.406160
 20
435.008488
 30
0.0
 10
585.070800
 20
427.858488
 30
0.0
  0
SPLINE
  5
233
100
AcDbEntity
  8
0
 62
1
100
AcDbSpline
 70
8
 71
3
 72
8
 73
4
 74
0
 40
0
 40
0
 40
0
 40
0
 40
1
 40
1
 40
1
 40
1
 10
585.070800
 20
427.858488
 30
0.0
 10
584.735360
 20
420.708488
 30
0.0
 10
584.452960
 20
413.908648
 30
0.0
 10
584.443280
 20
412.747728
 30
0.0
  0
SPLINE
  5
234
100
AcDbEntity
  8
0
 62
1
100
AcDbSpline
 70
8
 71
3
 72
8
 73
4
 74
0
 40
0
 40
0
 40
0
 40
0
 40
1
 40
1
 40
1
 40
1
 10
584.443280
 20
412.747728
 30
0.0
 10
584.430480
 20
411.258160
 30
0.0
 10
582.586320
 20
409.467104
 30
0.0
 10
578.175600
 20
406.661800
 30
0.0
  0
SPLINE
  5
235
100
AcDbEntity
  8
0
 62
1
100
AcDbSpline
 70
8
 71
3
 72
8
 73
4
 74
0
 40
0
 40
0
 40
0
 40
0
 40
1
 40
1
 40
1
 40
1
 10
578.175600
 20
406.661800
 30
0.0
 10
566.677760
 20
399.348800
 30
0.0
 10
558.603520
 20
395.344240
 30
0.0
 10
554.246240
 20
394.793440
 30
0.0
  0
SPLINE
  5
236
100
AcDbEntity
  8
0
 62
1
100
AcDbSpline
 70
8
 71
3
 72
8
 73
4
 74
0
 40
0
 40
0
 40
0
 40
0
 40
1
 40
1
 40
1
 40
1
 10
554.246240
 20
394.793440
 30
0.0
 10
550.525040
 20
394.323120
 30
0.0
 10
549.118960
 20
394.742240
 30
0.0
 10
544.111280
 20
397.811520
 30
0.0
  0
LWPOLYLINE
  5
237
100
AcDbEntity
  8
0
 62
1
100
AcDbPolyline
 90
3
 70
1
 10
615.928400
 20
641.470408
 30
0.0
 10
615.184480
 20
611.225360
 30
0.0
 10
612.658160
 20
608.223016
 30
0.0
  0
LWPOLYLINE
  5
238
100
AcDbEntity
  8
0
 62
1
100
AcDbPolyline
 90
2
 70
1
 10
544.111280
 20
397.811520
 30
0.0
 10
544.111040
 20
397.811520
 30
0.0
  0
SPLINE
  5
239
100
AcDbEntity
  8
0
 62
1
100
AcDbSpline
 70
8
 71
3
 72
8
 73
4
 74
0
 40
0
 40
0
 40
0
 40
0
 40
1
 40
1
 40
1
 40
1
 10
585.834080
 20
446.868840
 30
0.0
 10
588.563920
 20
449.044176
 30
0.0
 10
588.791520
 20
449.791456
 30
0.0
 10
589.535520
 20
459.022584
 30
0.0
  0
SPLINE
  5
23a
100
AcDbEntity
  8
0
 62
1
100
AcDbSpline
 70
8
 71
3
 72
8
 73
4
 74
0
 40
0
 40
0
 40
0
 40
0
 40
1
 40
1
 40
1
 40
1
 10
589.535520
 20
459.022584
 30
0.0
 10
589.971520
 20
464.432336
 30
0.0
 10
590.350160
 20
473.553912
 30
0.0
 10
590.376800
 20
479.292768
 30
0.0
  0
SPLINE
  5
23b
100
AcDbEntity
  8
0
 62
1
100
AcDbSpline
 70
8
 71
3
 72
8
 73
4
 74
0
 40
0
 40
0
 40
0
 40
0
 40
1
 40
1
 40
1
 40
1
 10
590.376800
 20
479.292768
 30
0.0
 10
590.415200
 20
487.534136
 30
0.0
 10
590.837200
 20
490.581504
 30
0.0
 10
592.384960
 20
493.792768
 30
0.0
  0
SPLINE
  5
23c
100
AcDbEntity
  8
0
 62
1
100
AcDbSpline
 70
8
 71
3
 72
8
 73
4
 74
0
 40
0
 40
0
 40
0
 40
0
 40
1
 40
1
 40
1
 40
1
 10
592.384960
 20
493.792768
 30
0.0
 10
594.115920
 20
497.384208
 30
0.0
 10
594.362160
 20
500.241048
 30
0.0
 10
594.495440
 20
518.282560
 30
0.0
  0
SPLINE
  5
23d
100
AcDbEntity
  8
0
 62
1
100
AcDbSpline
 70
8
 71
3
 72
8
 73
4
 74
0
 40
0
 40
0
 40
0
 40
0
 40
1
 40
1
 40
1
 40
1
 10
594.495440
 20
518.282560
 30
0.0
 10
594.663040
 20
540.968944
 30
0.0
 10
593.862240
 20
538.117784
 30
0.0
 10
601.921600
 20
544.723104
 30
0.0
  0
LWPOLYLINE
  5
23e
100
AcDbEntity
  8
0
 62
1
100
AcDbPolyline
 90
5
 70
1
 10
570.228720
 20
405.201304
 30
0.0
 10
582.248880
 20
412.314224
 30
0.0
 10
582.587120
 20
428.432608
 30
0.0
 10
582.925360
 20
444.550976
 30
0.0
 10
585.834080
 20
446.868840
 30
0.0
  0
SPLINE
  5
23f
100
AcDbEntity
  8
0
 62
1
100
AcDbSpline
 70
8
 71
3
 72
8
 73
4
 74
0
 40
0
 40
0
 40
0
 40
0
 40
1
 40
1
 40
1
 40
1
 10
605.582560
 20
570.018616
 30
0.0
 10
605.948240
 20
582.580544
 30
0.0
 10
606.287440
 20
595.655328
 30
0.0
 10
606.336400
 20
599.073688
 30
0.0
  0
SPLINE
  5
240
100
AcDbEntity
  8
0
 62
1
100
AcDbSpline
 70
8
 71
3
 72
8
 73
4
 74
0
 40
0
 40
0
 40
0
 40
0
 40
1
 40
1
 40
1
 40
1
 10
606.336400
 20
599.073688
 30
0.0
 10
606.414000
 20
604.470968
 30
0.0
 10
606.815840
 20
605.733592
 30
0.0
 10
609.392240
 20
608.668000
 30
0.0
  0
LWPOLYLINE
  5
241
100
AcDbEntity
  8
0
 62
1
100
AcDbPolyline
 90
3
 70
1
 10
601.921600
 20
544.723104
 30
0.0
 10
604.917760
 20
547.178744
 30
0.0
 10
605.582560
 20
570.018616
 30
0.0
  0
SPLINE
  5
242
100
AcDbEntity
  8
0
 62
1
100
AcDbSpline
 70
8
 71
3
 72
8
 73
4
 74
0
 40
0
 40
0
 40
0
 40
0
 40
1
 40
1
 40
1
 40
1
 10
618.392400
 20
680.337320
 30
0.0
 10
620.948960
 20
681.977880
 30
0.0
 10
624.139760
 20
684.489528
 30
0.0
 10
625.483040
 20
685.918744
 30
0.0
  0
LWPOLYLINE
  5
243
100
AcDbEntity
  8
0
 62
1
100
AcDbPolyline
 90
5
 70
1
 10
609.392240
 20
608.668000
 30
0.0
 10
612.359200
 20
612.047096
 30
0.0
 10
613.051600
 20
644.700776
 30
0.0
 10
613.744000
 20
677.354464
 30
0.0
 10
618.392400
 20
680.337320
 30
0.0
  0
SPLINE
  5
244
100
AcDbEntity
  8
0
 62
1
100
AcDbSpline
 70
8
 71
3
 72
8
 73
4
 74
0
 40
0
 40
0
 40
0
 40
0
 40
1
 40
1
 40
1
 40
1
 10
628.218560
 20
728.457288
 30
0.0
 10
628.462640
 20
761.714448
 30
0.0
 10
628.273760
 20
768.736928
 30
0.0
 10
627.089680
 20
770.427440
 30
0.0
  0
SPLINE
  5
245
100
AcDbEntity
  8
0
 62
1
100
AcDbSpline
 70
8
 71
3
 72
8
 73
4
 74
0
 40
0
 40
0
 40
0
 40
0
 40
1
 40
1
 40
1
 40
1
 10
627.089680
 20
770.427440
 30
0.0
 10
626.307520
 20
771.544048
 30
0.0
 10
620.888160
 20
775.568816
 30
0.0
 10
615.046480
 20
779.371368
 30
0.0
  0
LWPOLYLINE
  5
246
100
AcDbEntity
  8
0
 62
1
100
AcDbPolyline
 90
3
 70
1
 10
625.483040
 20
685.918744
 30
0.0
 10
627.925360
 20
688.517336
 30
0.0
 10
628.218560
 20
728.457288
 30
0.0
  0
SPLINE
  5
247
100
AcDbEntity
  8
0
 62
1
100
AcDbSpline
 70
8
 71
3
 72
8
 73
4
 74
0
 40
0
 40
0
 40
0
 40
0
 40
1
 40
1
 40
1
 40
1
 10
604.359760
 20
821.571784
 30
0.0
 10
604.282960
 20
862.741688
 30
0.0
 10
603.987920
 20
867.965168
 30
0.0
 10
601.545200
 20
871.358488
 30
0.0
  0
SPLINE
  5
248
100
AcDbEntity
  8
0
 62
1
100
AcDbSpline
 70
8
 71
3
 72
8
 73
4
 74
0
 40
0
 40
0
 40
0
 40
0
 40
1
 40
1
 40
1
 40
1
 10
601.545200
 20
871.358488
 30
0.0
 10
598.771360
 20
875.211768
 30
0.0
 10
594.934800
 20
876.731720
 30
0.0
 10
591.236640
 20
875.442528
 30
0.0
  0
SPLINE
  5
249
100
AcDbEntity
  8
0
 62
1
100
AcDbSpline
 70
8
 71
3
 72
8
 73
4
 74
0
 40
0
 40
0
 40
0
 40
0
 40
1
 40
1
 40
1
 40
1
 10
591.236640
 20
875.442528
 30
0.0
 10
585.408960
 20
873.411000
 30
0.0
 10
585.491840
 20
873.982072
 30
0.0
 10
585.457200
 20
835.608488
 30
0.0
  0
SPLINE
  5
24a
100
AcDbEntity
  8
0
 62
1
100
AcDbSpline
 70
8
 71
3
 72
8
 73
4
 74
0
 40
0
 40
0
 40
0
 40
0
 40
1
 40
1
 40
1
 40
1
 10
585.457200
 20
835.608488
 30
0.0
 10
585.432400
 20
808.067920
 30
0.0
 10
585.152000
 20
800.368160
 30
0.0
 10
584.175360
 20
800.402696
 30
0.0
  0
SPLINE
  5
24b
100
AcDbEntity
  8
0
 62
1
100
AcDbSpline
 70
8
 71
3
 72
8
 73
4
 74
0
 40
0
 40
0
 40
0
 40
0
 40
1
 40
1
 40
1
 40
1
 10
584.175360
 20
800.402696
 30
0.0
 10
583.487920
 20
800.427016
 30
0.0
 10
579.100400
 20
802.580696
 30
0.0
 10
574.425360
 20
805.188656
 30
0.0
  0
LWPOLYLINE
  5
24c
100
AcDbEntity
  8
0
 62
1
100
AcDbPolyline
 90
3
 70
1
 10
615.046480
 20
779.371368
 30
0.0
 10
604.425360
 20
786.285080
 30
0.0
 10
604.359760
 20
821.571784
 30
0.0
  0
SPLINE
  5
24d
100
AcDbEntity
  8
0
 62
1
100
AcDbSpline
 70
8
 71
3
 72
8
 73
4
 74
0
 40
0
 40
0
 40
0
 40
0
 40
1
 40
1
 40
1
 40
1
 10
565.751920
 20
837.894448
 30
0.0
 10
565.656480
 20
853.274664
 30
0.0
 10
565.544000
 20
866.638888
 30
0.0
 10
565.501920
 20
867.592712
 30
0.0
  0
SPLINE
  5
24e
100
AcDbEntity
  8
0
 62
1
100
AcDbSpline
 70
8
 71
3
 72
8
 73
4
 74
0
 40
0
 40
0
 40
0
 40
0
 40
1
 40
1
 40
1
 40
1
 10
565.501920
 20
867.592712
 30
0.0
 10
565.459520
 20
868.546536
 30
0.0
 10
564.118080
 20
870.790040
 30
0.0
 10
562.520320
 20
872.578272
 30
0.0
  0
SPLINE
  5
24f
100
AcDbEntity
  8
0
 62
1
100
AcDbSpline
 70
8
 71
3
 72
8
 73
4
 74
0
 40
0
 40
0
 40
0
 40
0
 40
1
 40
1
 40
1
 40
1
 10
562.520320
 20
872.578272
 30
0.0
 10
560.049680
 20
875.343376
 30
0.0
 10
558.974320
 20
875.812800
 30
0.0
 10
555.329280
 20
875.717216
 30
0.0
  0
SPLINE
  5
250
100
AcDbEntity
  8
0
 62
1
100
AcDbSpline
 70
8
 71
3
 72
8
 73
4
 74
0
 40
0
 40
0
 40
0
 40
0
 40
1
 40
1
 40
1
 40
1
 10
555.329280
 20
875.717216
 30
0.0
 10
547.777600
 20
875.519208
 30
0.0
 10
547.814720
 20
875.672896
 30
0.0
 10
547.168400
 20
841.897616
 30
0.0
  0
SPLINE
  5
251
100
AcDbEntity
  8
0
 62
1
100
AcDbSpline
 70
8
 71
3
 72
8
 73
4
 74
0
 40
0
 40
0
 40
0
 40
0
 40
1
 40
1
 40
1
 40
1
 10
547.168400
 20
841.897616
 30
0.0
 10
546.786400
 20
821.934552
 30
0.0
 10
546.228960
 20
811.826736
 30
0.0
 10
545.458880
 20
810.898832
 30
0.0
  0
SPLINE
  5
252
100
AcDbEntity
  8
0
 62
1
100
AcDbSpline
 70
8
 71
3
 72
8
 73
4
 74
0
 40
0
 40
0
 40
0
 40
0
 40
1
 40
1
 40
1
 40
1
 10
545.458880
 20
810.898832
 30
0.0
 10
543.682480
 20
808.758408
 30
0.0
 10
531.005680
 20
801.358488
 30
0.0
 10
529.115280
 20
801.358488
 30
0.0
  0
SPLINE
  5
253
100
AcDbEntity
  8
0
 62
1
100
AcDbSpline
 70
8
 71
3
 72
8
 73
4
 74
0
 40
0
 40
0
 40
0
 40
0
 40
1
 40
1
 40
1
 40
1
 10
529.115280
 20
801.358488
 30
0.0
 10
527.562080
 20
801.358488
 30
0.0
 10
527.425360
 20
804.090752
 30
0.0
 10
527.425360
 20
835.126360
 30
0.0
  0
LWPOLYLINE
  5
254
100
AcDbEntity
  8
0
 62
1
100
AcDbPolyline
 90
3
 70
1
 10
574.425360
 20
805.188656
 30
0.0
 10
565.925360
 20
809.930400
 30
0.0
 10
565.751920
 20
837.894448
 30
0.0
  0
SPLINE
  5
255
100
AcDbEntity
  8
0
 62
1
100
AcDbSpline
 70
8
 71
3
 72
8
 73
4
 74
0
 40
0
 40
0
 40
0
 40
0
 40
1
 40
1
 40
1
 40
1
 10
524.889360
 20
872.626360
 30
0.0
 10
522.697920
 20
875.851360
 30
0.0
 10
521.829680
 20
876.358488
 30
0.0
 10
518.500080
 20
876.358488
 30
0.0
  0
SPLINE
  5
256
100
AcDbEntity
  8
0
 62
1
100
AcDbSpline
 70
8
 71
3
 72
8
 73
4
 74
0
 40
0
 40
0
 40
0
 40
0
 40
1
 40
1
 40
1
 40
1
 10
518.500080
 20
876.358488
 30
0.0
 10
516.217280
 20
876.358488
 30
0.0
 10
513.699600
 20
875.591400
 30
0.0
 10
512.322480
 20
874.476240
 30
0.0
  0
SPLINE
  5
257
100
AcDbEntity
  8
0
 62
1
100
AcDbSpline
 70
8
 71
3
 72
8
 73
4
 74
0
 40
0
 40
0
 40
0
 40
0
 40
1
 40
1
 40
1
 40
1
 10
512.322480
 20
874.476240
 30
0.0
 10
509.459600
 20
872.158040
 30
0.0
 10
508.601920
 20
864.601552
 30
0.0
 10
508.496560
 20
840.768800
 30
0.0
  0
SPLINE
  5
258
100
AcDbEntity
  8
0
 62
1
100
AcDbSpline
 70
8
 71
3
 72
8
 73
4
 74
0
 40
0
 40
0
 40
0
 40
0
 40
1
 40
1
 40
1
 40
1
 10
508.496560
 20
840.768800
 30
0.0
 10
508.457360
 20
831.919464
 30
0.0
 10
508.131840
 20
816.575744
 30
0.0
 10
507.773120
 20
806.671656
 30
0.0
  0
LWPOLYLINE
  5
259
100
AcDbEntity
  8
0
 62
1
100
AcDbPolyline
 90
3
 70
1
 10
527.425360
 20
835.126360
 30
0.0
 10
527.425360
 20
868.894216
 30
0.0
 10
524.889360
 20
872.626360
 30
0.0
  0
SPLINE
  5
25a
100
AcDbEntity
  8
0
 62
1
100
AcDbSpline
 70
8
 71
3
 72
8
 73
4
 74
0
 40
0
 40
0
 40
0
 40
0
 40
1
 40
1
 40
1
 40
1
 10
483.299600
 20
767.858488
 30
0.0
 10
482.955440
 20
764.008488
 30
0.0
 10
482.617920
 20
745.305176
 30
0.0
 10
482.549600
 20
726.295576
 30
0.0
  0
LWPOLYLINE
  5
25b
100
AcDbEntity
  8
0
 62
1
100
AcDbPolyline
 90
5
 70
1
 10
507.773120
 20
806.671656
 30
0.0
 10
507.120880
 20
788.664216
 30
0.0
 10
495.523120
 20
781.761344
 30
0.0
 10
483.925360
 20
774.858488
 30
0.0
 10
483.299600
 20
767.858488
 30
0.0
  0
SPLINE
  5
25c
100
AcDbEntity
  8
0
 62
1
100
AcDbSpline
 70
8
 71
3
 72
8
 73
4
 74
0
 40
0
 40
0
 40
0
 40
0
 40
1
 40
1
 40
1
 40
1
 10
485.175360
 20
689.238816
 30
0.0
 10
486.687920
 20
687.867200
 30
0.0
 10
489.612880
 20
685.510112
 30
0.0
 10
491.675360
 20
684.000840
 30
0.0
  0
LWPOLYLINE
  5
25d
100
AcDbEntity
  8
0
 62
1
100
AcDbPolyline
 90
3
 70
1
 10
482.549600
 20
726.295576
 30
0.0
 10
482.425360
 20
691.732664
 30
0.0
 10
485.175360
 20
689.238816
 30
0.0
  0
SPLINE
  5
25e
100
AcDbEntity
  8
0
 62
1
100
AcDbSpline
 70
8
 71
3
 72
8
 73
4
 74
0
 40
0
 40
0
 40
0
 40
0
 40
1
 40
1
 40
1
 40
1
 10
501.761840
 20
589.849136
 30
0.0
 10
502.126800
 20
578.952384
 30
0.0
 10
502.425360
 20
566.254648
 30
0.0
 10
502.425360
 20
561.631936
 30
0.0
  0
SPLINE
  5
25f
100
AcDbEntity
  8
0
 62
1
100
AcDbSpline
 70
8
 71
3
 72
8
 73
4
 74
0
 40
0
 40
0
 40
0
 40
0
 40
1
 40
1
 40
1
 40
1
 10
502.425360
 20
561.631936
 30
0.0
 10
502.425360
 20
551.922728
 30
0.0
 10
502.919200
 20
550.674296
 30
0.0
 10
508.209440
 20
547.008160
 30
0.0
  0
LWPOLYLINE
  5
260
100
AcDbEntity
  8
0
 62
1
100
AcDbPolyline
 90
7
 70
1
 10
491.675360
 20
684.000840
 30
0.0
 10
495.425360
 20
681.256712
 30
0.0
 10
495.425360
 20
648.689608
 30
0.0
 10
495.425360
 20
616.122520
 30
0.0
 10
498.261840
 20
612.891960
 30
0.0
 10
501.098320
 20
609.661408
 30
0.0
 10
501.761840
 20
589.849136
 30
0.0
  0
SPLINE
  5
261
100
AcDbEntity
  8
0
 62
1
100
AcDbSpline
 70
8
 71
3
 72
8
 73
4
 74
0
 40
0
 40
0
 40
0
 40
0
 40
1
 40
1
 40
1
 40
1
 10
512.711200
 20
521.373280
 30
0.0
 10
513.040240
 20
508.761936
 30
0.0
 10
513.751840
 20
497.617016
 30
0.0
 10
514.292480
 20
496.606792
 30
0.0
  0
SPLINE
  5
262
100
AcDbEntity
  8
0
 62
1
100
AcDbSpline
 70
8
 71
3
 72
8
 73
4
 74
0
 40
0
 40
0
 40
0
 40
0
 40
1
 40
1
 40
1
 40
1
 10
514.292480
 20
496.606792
 30
0.0
 10
514.833200
 20
495.596552
 30
0.0
 10
515.498720
 20
485.939240
 30
0.0
 10
515.771440
 20
475.146088
 30
0.0
  0
SPLINE
  5
263
100
AcDbEntity
  8
0
 62
1
100
AcDbSpline
 70
8
 71
3
 72
8
 73
4
 74
0
 40
0
 40
0
 40
0
 40
0
 40
1
 40
1
 40
1
 40
1
 10
515.771440
 20
475.146088
 30
0.0
 10
516.044240
 20
464.352952
 30
0.0
 10
516.711600
 20
454.697856
 30
0.0
 10
517.254560
 20
453.690336
 30
0.0
  0
SPLINE
  5
264
100
AcDbEntity
  8
0
 62
1
100
AcDbSpline
 70
8
 71
3
 72
8
 73
4
 74
0
 40
0
 40
0
 40
0
 40
0
 40
1
 40
1
 40
1
 40
1
 10
517.254560
 20
453.690336
 30
0.0
 10
517.797520
 20
452.682816
 30
0.0
 10
519.408080
 20
450.767552
 30
0.0
 10
520.833600
 20
449.434176
 30
0.0
  0
SPLINE
  5
265
100
AcDbEntity
  8
0
 62
1
100
AcDbSpline
 70
8
 71
3
 72
8
 73
4
 74
0
 40
0
 40
0
 40
0
 40
0
 40
1
 40
1
 40
1
 40
1
 10
520.833600
 20
449.434176
 30
0.0
 10
523.408800
 20
447.025352
 30
0.0
 10
523.425360
 20
446.909928
 30
0.0
 10
523.425360
 20
431.371272
 30
0.0
  0
LWPOLYLINE
  5
266
100
AcDbEntity
  8
0
 62
1
100
AcDbPolyline
 90
3
 70
1
 10
508.209440
 20
547.008160
 30
0.0
 10
512.112960
 20
544.302992
 30
0.0
 10
512.711200
 20
521.373280
 30
0.0
  0
SPLINE
  5
267
100
AcDbEntity
  8
0
 62
1
100
AcDbSpline
 70
8
 71
3
 72
8
 73
4
 74
0
 40
0
 40
0
 40
0
 40
0
 40
1
 40
1
 40
1
 40
1
 10
526.175360
 20
413.135016
 30
0.0
 10
527.687920
 20
411.706320
 30
0.0
 10
533.650400
 20
407.550736
 30
0.0
 10
539.425360
 20
403.900400
 30
0.0
  0
SPLINE
  5
268
100
AcDbEntity
  8
0
 62
1
100
AcDbSpline
 70
8
 71
3
 72
8
 73
4
 74
0
 40
0
 40
0
 40
0
 40
0
 40
1
 40
1
 40
1
 40
1
 10
539.425360
 20
403.900400
 30
0.0
 10
552.902800
 20
395.381440
 30
0.0
 10
553.690320
 20
395.414720
 30
0.0
 10
570.228720
 20
405.201312
 30
0.0
  0
LWPOLYLINE
  5
269
100
AcDbEntity
  8
0
 62
1
100
AcDbPolyline
 90
3
 70
1
 10
523.425360
 20
431.371272
 30
0.0
 10
523.425360
 20
415.732672
 30
0.0
 10
526.175360
 20
413.135016
 30
0.0
  0
SPLINE
  5
26a
100
AcDbEntity
  8
0
 62
1
100
AcDbSpline
 70
8
 71
3
 72
8
 73
4
 74
0
 40
0
 40
0
 40
0
 40
0
 40
1
 40
1
 40
1
 40
1
 10
435.425360
 20
489.799464
 30
0.0
 10
435.425360
 20
490.592008
 30
0.0
 10
435.833440
 20
491.492632
 30
0.0
 10
436.332160
 20
491.800848
 30
0.0
  0
SPLINE
  5
26b
100
AcDbEntity
  8
0
 62
1
100
AcDbSpline
 70
8
 71
3
 72
8
 73
4
 74
0
 40
0
 40
0
 40
0
 40
0
 40
1
 40
1
 40
1
 40
1
 10
436.332160
 20
491.800848
 30
0.0
 10
436.830800
 20
492.109072
 30
0.0
 10
437.003360
 20
491.460624
 30
0.0
 10
436.715520
 20
490.359872
 30
0.0
  0
SPLINE
  5
26c
100
AcDbEntity
  8
0
 62
1
100
AcDbSpline
 70
8
 71
3
 72
8
 73
4
 74
0
 40
0
 40
0
 40
0
 40
0
 40
1
 40
1
 40
1
 40
1
 10
436.715520
 20
490.359872
 30
0.0
 10
436.104880
 20
488.024880
 30
0.0
 10
435.425360
 20
487.729720
 30
0.0
 10
435.425360
 20
489.799464
 30
0.0
  0
LWPOLYLINE
  5
26d
100
AcDbEntity
  8
0
 62
1
100
AcDbPolyline
 90
2
 70
1
 10
570.228720
 20
405.201312
 30
0.0
 10
570.228720
 20
405.201304
 30
0.0
  0
SPLINE
  5
26e
100
AcDbEntity
  8
0
 62
1
100
AcDbSpline
 70
8
 71
3
 72
8
 73
4
 74
0
 40
0
 40
0
 40
0
 40
0
 40
1
 40
1
 40
1
 40
1
 10
634.425360
 20
590.417512
 30
0.0
 10
634.425360
 20
590.999968
 30
0.0
 10
633.975360
 20
591.198408
 30
0.0
 10
633.425360
 20
590.858488
 30
0.0
  0
SPLINE
  5
26f
100
AcDbEntity
  8
0
 62
1
100
AcDbSpline
 70
8
 71
3
 72
8
 73
4
 74
0
 40
0
 40
0
 40
0
 40
0
 40
1
 40
1
 40
1
 40
1
 10
633.425360
 20
590.858488
 30
0.0
 10
632.875360
 20
590.518568
 30
0.0
 10
632.425360
 20
590.717008
 30
0.0
 10
632.425360
 20
591.299464
 30
0.0
  0
SPLINE
  5
270
100
AcDbEntity
  8
0
 62
1
100
AcDbSpline
 70
8
 71
3
 72
8
 73
4
 74
0
 40
0
 40
0
 40
0
 40
0
 40
1
 40
1
 40
1
 40
1
 10
632.425360
 20
591.299464
 30
0.0
 10
632.425360
 20
591.881928
 30
0.0
 10
633.100400
 20
592.358488
 30
0.0
 10
633.925360
 20
592.358488
 30
0.0
  0
SPLINE
  5
271
100
AcDbEntity
  8
0
 62
1
100
AcDbSpline
 70
8
 71
3
 72
8
 73
4
 74
0
 40
0
 40
0
 40
0
 40
0
 40
1
 40
1
 40
1
 40
1
 10
633.925360
 20
592.358488
 30
0.0
 10
634.750400
 20
592.358488
 30
0.0
 10
635.425360
 20
591.683488
 30
0.0
 10
635.425360
 20
590.858488
 30
0.0
  0
SPLINE
  5
272
100
AcDbEntity
  8
0
 62
1
100
AcDbSpline
 70
8
 71
3
 72
8
 73
4
 74
0
 40
0
 40
0
 40
0
 40
0
 40
1
 40
1
 40
1
 40
1
 10
635.425360
 20
590.858488
 30
0.0
 10
635.425360
 20
590.033488
 30
0.0
 10
635.200400
 20
589.358488
 30
0.0
 10
634.925360
 20
589.358488
 30
0.0
  0
SPLINE
  5
273
100
AcDbEntity
  8
0
 62
1
100
AcDbSpline
 70
8
 71
3
 72
8
 73
4
 74
0
 40
0
 40
0
 40
0
 40
0
 40
1
 40
1
 40
1
 40
1
 10
634.925360
 20
589.358488
 30
0.0
 10
634.650400
 20
589.358488
 30
0.0
 10
634.425360
 20
589.835048
 30
0.0
 10
634.425360
 20
590.417512
 30
0.0
  0
LWPOLYLINE
  5
274
100
AcDbEntity
  8
0
 62
1
100
AcDbPolyline
 90
2
 70
1
 10
435.425360
 20
489.799464
 30
0.0
 10
435.425360
 20
489.799464
 30
0.0
  0
SPLINE
  5
275
100
AcDbEntity
  8
0
 62
1
100
AcDbSpline
 70
8
 71
3
 72
8
 73
4
 74
0
 40
0
 40
0
 40
0
 40
0
 40
1
 40
1
 40
1
 40
1
 10
630.425360
 20
683.793392
 30
0.0
 10
630.425360
 20
684.582592
 30
0.0
 10
630.893840
 20
686.460520
 30
0.0
 10
631.466480
 20
687.966576
 30
0.0
  0
SPLINE
  5
276
100
AcDbEntity
  8
0
 62
1
100
AcDbSpline
 70
8
 71
3
 72
8
 73
4
 74
0
 40
0
 40
0
 40
0
 40
0
 40
1
 40
1
 40
1
 40
1
 10
631.466480
 20
687.966576
 30
0.0
 10
632.391920
 20
690.400616
 30
0.0
 10
632.674240
 20
690.538200
 30
0.0
 10
634.007600
 20
689.204872
 30
0.0
  0
SPLINE
  5
277
100
AcDbEntity
  8
0
 62
1
100
AcDbSpline
 70
8
 71
3
 72
8
 73
4
 74
0
 40
0
 40
0
 40
0
 40
0
 40
1
 40
1
 40
1
 40
1
 10
634.007600
 20
689.204872
 30
0.0
 10
635.166160
 20
688.046320
 30
0.0
 10
635.276240
 20
687.096360
 30
0.0
 10
634.491200
 20
685.031680
 30
0.0
  0
SPLINE
  5
278
100
AcDbEntity
  8
0
 62
1
100
AcDbSpline
 70
8
 71
3
 72
8
 73
4
 74
0
 40
0
 40
0
 40
0
 40
0
 40
1
 40
1
 40
1
 40
1
 10
634.491200
 20
685.031680
 30
0.0
 10
633.426720
 20
682.231896
 30
0.0
 10
630.425360
 20
681.317808
 30
0.0
 10
630.425360
 20
683.793392
 30
0.0
  0
LWPOLYLINE
  5
279
100
AcDbEntity
  8
0
 62
1
100
AcDbPolyline
 90
2
 70
1
 10
634.425360
 20
590.417512
 30
0.0
 10
634.425360
 20
590.417512
 30
0.0
  0
SPLINE
  5
27a
100
AcDbEntity
  8
0
 62
1
100
AcDbSpline
 70
8
 71
3
 72
8
 73
4
 74
0
 40
0
 40
0
 40
0
 40
0
 40
1
 40
1
 40
1
 40
1
 10
564.746560
 20
890.547216
 30
0.0
 10
562.036800
 20
891.857288
 30
0.0
 10
560.899280
 20
894.690520
 30
0.0
 10
559.000880
 20
904.858488
 30
0.0
  0
SPLINE
  5
27b
100
AcDbEntity
  8
0
 62
1
100
AcDbSpline
 70
8
 71
3
 72
8
 73
4
 74
0
 40
0
 40
0
 40
0
 40
0
 40
1
 40
1
 40
1
 40
1
 10
559.000880
 20
904.858488
 30
0.0
 10
556.702560
 20
917.168552
 30
0.0
 10
556.678000
 20
917.265456
 30
0.0
 10
556.541360
 20
914.566328
 30
0.0
  0
SPLINE
  5
27c
100
AcDbEntity
  8
0
 62
1
100
AcDbSpline
 70
8
 71
3
 72
8
 73
4
 74
0
 40
0
 40
0
 40
0
 40
0
 40
1
 40
1
 40
1
 40
1
 10
556.541360
 20
914.566328
 30
0.0
 10
556.268480
 20
909.173528
 30
0.0
 10
553.100720
 20
896.603136
 30
0.0
 10
551.260000
 20
893.608488
 30
0.0
  0
SPLINE
  5
27d
100
AcDbEntity
  8
0
 62
1
100
AcDbSpline
 70
8
 71
3
 72
8
 73
4
 74
0
 40
0
 40
0
 40
0
 40
0
 40
1
 40
1
 40
1
 40
1
 10
551.260000
 20
893.608488
 30
0.0
 10
550.161200
 20
891.820992
 30
0.0
 10
548.453920
 20
890.358488
 30
0.0
 10
547.465920
 20
890.358488
 30
0.0
  0
SPLINE
  5
27e
100
AcDbEntity
  8
0
 62
1
100
AcDbSpline
 70
8
 71
3
 72
8
 73
4
 74
0
 40
0
 40
0
 40
0
 40
0
 40
1
 40
1
 40
1
 40
1
 10
547.465920
 20
890.358488
 30
0.0
 10
545.451440
 20
890.358488
 30
0.0
 10
539.371280
 20
892.733640
 30
0.0
 10
538.092080
 20
894.020296
 30
0.0
  0
SPLINE
  5
27f
100
AcDbEntity
  8
0
 62
1
100
AcDbSpline
 70
8
 71
3
 72
8
 73
4
 74
0
 40
0
 40
0
 40
0
 40
0
 40
1
 40
1
 40
1
 40
1
 10
538.092080
 20
894.020296
 30
0.0
 10
537.633680
 20
894.481312
 30
0.0
 10
536.733680
 20
894.878936
 30
0.0
 10
536.092080
 20
894.903936
 30
0.0
  0
SPLINE
  5
280
100
AcDbEntity
  8
0
 62
1
100
AcDbSpline
 70
8
 71
3
 72
8
 73
4
 74
0
 40
0
 40
0
 40
0
 40
0
 40
1
 40
1
 40
1
 40
1
 10
536.092080
 20
894.903936
 30
0.0
 10
535.450400
 20
894.928896
 30
0.0
 10
535.029280
 20
895.465568
 30
0.0
 10
535.156240
 20
896.096440
 30
0.0
  0
SPLINE
  5
281
100
AcDbEntity
  8
0
 62
1
100
AcDbSpline
 70
8
 71
3
 72
8
 73
4
 74
0
 40
0
 40
0
 40
0
 40
0
 40
1
 40
1
 40
1
 40
1
 10
535.156240
 20
896.096440
 30
0.0
 10
535.283200
 20
896.727320
 30
0.0
 10
534.158160
 20
898.210120
 30
0.0
 10
532.656240
 20
899.391560
 30
0.0
  0
SPLINE
  5
282
100
AcDbEntity
  8
0
 62
1
100
AcDbSpline
 70
8
 71
3
 72
8
 73
4
 74
0
 40
0
 40
0
 40
0
 40
0
 40
1
 40
1
 40
1
 40
1
 10
532.656240
 20
899.391560
 30
0.0
 10
531.154240
 20
900.573000
 30
0.0
 10
530.150400
 20
901.709280
 30
0.0
 10
530.425360
 20
901.916640
 30
0.0
  0
SPLINE
  5
283
100
AcDbEntity
  8
0
 62
1
100
AcDbSpline
 70
8
 71
3
 72
8
 73
4
 74
0
 40
0
 40
0
 40
0
 40
0
 40
1
 40
1
 40
1
 40
1
 10
530.425360
 20
901.916640
 30
0.0
 10
530.700400
 20
902.124000
 30
0.0
 10
530.250400
 20
903.107592
 30
0.0
 10
529.425360
 20
904.102408
 30
0.0
  0
SPLINE
  5
284
100
AcDbEntity
  8
0
 62
1
100
AcDbSpline
 70
8
 71
3
 72
8
 73
4
 74
0
 40
0
 40
0
 40
0
 40
0
 40
1
 40
1
 40
1
 40
1
 10
529.425360
 20
904.102408
 30
0.0
 10
527.880640
 20
905.965096
 30
0.0
 10
527.718080
 20
906.599648
 30
0.0
 10
526.754240
 20
914.526672
 30
0.0
  0
SPLINE
  5
285
100
AcDbEntity
  8
0
 62
1
100
AcDbSpline
 70
8
 71
3
 72
8
 73
4
 74
0
 40
0
 40
0
 40
0
 40
0
 40
1
 40
1
 40
1
 40
1
 10
526.754240
 20
914.526672
 30
0.0
 10
526.064080
 20
920.202808
 30
0.0
 10
527.900640
 20
928.421712
 30
0.0
 10
530.636320
 20
931.899560
 30
0.0
  0
SPLINE
  5
286
100
AcDbEntity
  8
0
 62
1
100
AcDbSpline
 70
8
 71
3
 72
8
 73
4
 74
0
 40
0
 40
0
 40
0
 40
0
 40
1
 40
1
 40
1
 40
1
 10
530.636320
 20
931.899560
 30
0.0
 10
531.745760
 20
933.309896
 30
0.0
 10
532.458160
 20
934.659072
 30
0.0
 10
532.219520
 20
934.897712
 30
0.0
  0
SPLINE
  5
287
100
AcDbEntity
  8
0
 62
1
100
AcDbSpline
 70
8
 71
3
 72
8
 73
4
 74
0
 40
0
 40
0
 40
0
 40
0
 40
1
 40
1
 40
1
 40
1
 10
532.219520
 20
934.897712
 30
0.0
 10
531.980880
 20
935.136352
 30
0.0
 10
523.942080
 20
936.017568
 30
0.0
 10
514.355520
 20
936.855968
 30
0.0
  0
SPLINE
  5
288
100
AcDbEntity
  8
0
 62
1
100
AcDbSpline
 70
8
 71
3
 72
8
 73
4
 74
0
 40
0
 40
0
 40
0
 40
0
 40
1
 40
1
 40
1
 40
1
 10
514.355520
 20
936.855968
 30
0.0
 10
488.681680
 20
939.101288
 30
0.0
 10
454.208320
 20
944.131280
 30
0.0
 10
448.184240
 20
946.510968
 30
0.0
  0
SPLINE
  5
289
100
AcDbEntity
  8
0
 62
1
100
AcDbSpline
 70
8
 71
3
 72
8
 73
4
 74
0
 40
0
 40
0
 40
0
 40
0
 40
1
 40
1
 40
1
 40
1
 10
448.184240
 20
946.510968
 30
0.0
 10
446.676560
 20
947.106528
 30
0.0
 10
444.520400
 20
949.086688
 30
0.0
 10
443.392720
 20
950.911328
 30
0.0
  0
SPLINE
  5
28a
100
AcDbEntity
  8
0
 62
1
100
AcDbSpline
 70
8
 71
3
 72
8
 73
4
 74
0
 40
0
 40
0
 40
0
 40
0
 40
1
 40
1
 40
1
 40
1
 10
443.392720
 20
950.911328
 30
0.0
 10
440.051040
 20
956.318248
 30
0.0
 10
435.504800
 20
971.104096
 30
0.0
 10
434.303280
 20
980.472728
 30
0.0
  0
SPLINE
  5
28b
100
AcDbEntity
  8
0
 62
1
100
AcDbSpline
 70
8
 71
3
 72
8
 73
4
 74
0
 40
0
 40
0
 40
0
 40
0
 40
1
 40
1
 40
1
 40
1
 10
434.303280
 20
980.472728
 30
0.0
 10
432.209680
 20
996.798056
 30
0.0
 10
435.824960
 20
1013.358488
 30
0.0
 10
441.482560
 20
1013.358488
 30
0.0
  0
SPLINE
  5
28c
100
AcDbEntity
  8
0
 62
1
100
AcDbSpline
 70
8
 71
3
 72
8
 73
4
 74
0
 40
0
 40
0
 40
0
 40
0
 40
1
 40
1
 40
1
 40
1
 10
441.482560
 20
1013.358488
 30
0.0
 10
445.127440
 20
1013.358488
 30
0.0
 10
468.021920
 20
1003.126600
 30
0.0
 10
471.425360
 20
999.976600
 30
0.0
  0
SPLINE
  5
28d
100
AcDbEntity
  8
0
 62
1
100
AcDbSpline
 70
8
 71
3
 72
8
 73
4
 74
0
 40
0
 40
0
 40
0
 40
0
 40
1
 40
1
 40
1
 40
1
 10
471.425360
 20
999.976600
 30
0.0
 10
473.350400
 20
998.194944
 30
0.0
 10
476.500400
 20
995.601096
 30
0.0
 10
478.425360
 20
994.212480
 30
0.0
  0
SPLINE
  5
28e
100
AcDbEntity
  8
0
 62
1
100
AcDbSpline
 70
8
 71
3
 72
8
 73
4
 74
0
 40
0
 40
0
 40
0
 40
0
 40
1
 40
1
 40
1
 40
1
 10
478.425360
 20
994.212480
 30
0.0
 10
482.520320
 20
991.258592
 30
0.0
 10
553.205280
 20
949.763920
 30
0.0
 10
555.910800
 20
948.725712
 30
0.0
  0
SPLINE
  5
28f
100
AcDbEntity
  8
0
 62
1
100
AcDbSpline
 70
8
 71
3
 72
8
 73
4
 74
0
 40
0
 40
0
 40
0
 40
0
 40
1
 40
1
 40
1
 40
1
 10
555.910800
 20
948.725712
 30
0.0
 10
557.210320
 20
948.227040
 30
0.0
 10
558.354640
 20
948.768032
 30
0.0
 10
559.835280
 20
950.581176
 30
0.0
  0
SPLINE
  5
290
100
AcDbEntity
  8
0
 62
1
100
AcDbSpline
 70
8
 71
3
 72
8
 73
4
 74
0
 40
0
 40
0
 40
0
 40
0
 40
1
 40
1
 40
1
 40
1
 10
559.835280
 20
950.581176
 30
0.0
 10
561.215760
 20
952.271648
 30
0.0
 10
568.036400
 20
955.744136
 30
0.0
 10
579.925360
 20
960.809368
 30
0.0
  0
SPLINE
  5
291
100
AcDbEntity
  8
0
 62
1
100
AcDbSpline
 70
8
 71
3
 72
8
 73
4
 74
0
 40
0
 40
0
 40
0
 40
0
 40
1
 40
1
 40
1
 40
1
 10
579.925360
 20
960.809368
 30
0.0
 10
598.503840
 20
968.724616
 30
0.0
 10
606.236160
 20
973.182336
 30
0.0
 10
634.420000
 20
992.225728
 30
0.0
  0
SPLINE
  5
292
100
AcDbEntity
  8
0
 62
1
100
AcDbSpline
 70
8
 71
3
 72
8
 73
4
 74
0
 40
0
 40
0
 40
0
 40
0
 40
1
 40
1
 40
1
 40
1
 10
634.420000
 20
992.225728
 30
0.0
 10
651.738880
 20
1003.927880
 30
0.0
 10
662.433200
 20
1009.286768
 30
0.0
 10
670.048560
 20
1010.079088
 30
0.0
  0
SPLINE
  5
293
100
AcDbEntity
  8
0
 62
1
100
AcDbSpline
 70
8
 71
3
 72
8
 73
4
 74
0
 40
0
 40
0
 40
0
 40
0
 40
1
 40
1
 40
1
 40
1
 10
670.048560
 20
1010.079088
 30
0.0
 10
676.813280
 20
1010.782896
 30
0.0
 10
678.781520
 20
1008.876912
 30
0.0
 10
680.301120
 20
1000.150880
 30
0.0
  0
SPLINE
  5
294
100
AcDbEntity
  8
0
 62
1
100
AcDbSpline
 70
8
 71
3
 72
8
 73
4
 74
0
 40
0
 40
0
 40
0
 40
0
 40
1
 40
1
 40
1
 40
1
 10
680.301120
 20
1000.150880
 30
0.0
 10
683.639760
 20
980.978776
 30
0.0
 10
679.348960
 20
959.315848
 30
0.0
 10
669.706720
 20
946.663448
 30
0.0
  0
SPLINE
  5
295
100
AcDbEntity
  8
0
 62
1
100
AcDbSpline
 70
8
 71
3
 72
8
 73
4
 74
0
 40
0
 40
0
 40
0
 40
0
 40
1
 40
1
 40
1
 40
1
 10
669.706720
 20
946.663448
 30
0.0
 10
666.968880
 20
943.070816
 30
0.0
 10
663.955520
 20
942.232392
 30
0.0
 10
646.925360
 20
940.324696
 30
0.0
  0
SPLINE
  5
296
100
AcDbEntity
  8
0
 62
1
100
AcDbSpline
 70
8
 71
3
 72
8
 73
4
 74
0
 40
0
 40
0
 40
0
 40
0
 40
1
 40
1
 40
1
 40
1
 10
646.925360
 20
940.324696
 30
0.0
 10
641.425360
 20
939.708600
 30
0.0
 10
636.250400
 20
938.975024
 30
0.0
 10
635.425360
 20
938.694552
 30
0.0
  0
SPLINE
  5
297
100
AcDbEntity
  8
0
 62
1
100
AcDbSpline
 70
8
 71
3
 72
8
 73
4
 74
0
 40
0
 40
0
 40
0
 40
0
 40
1
 40
1
 40
1
 40
1
 10
635.425360
 20
938.694552
 30
0.0
 10
634.600400
 20
938.414056
 30
0.0
 10
631.900400
 20
938.033776
 30
0.0
 10
629.425360
 20
937.849456
 30
0.0
  0
SPLINE
  5
298
100
AcDbEntity
  8
0
 62
1
100
AcDbSpline
 70
8
 71
3
 72
8
 73
4
 74
0
 40
0
 40
0
 40
0
 40
0
 40
1
 40
1
 40
1
 40
1
 10
629.425360
 20
937.849456
 30
0.0
 10
602.565760
 20
935.849216
 30
0.0
 10
594.727120
 20
935.386040
 30
0.0
 10
587.520400
 20
935.373320
 30
0.0
  0
SPLINE
  5
299
100
AcDbEntity
  8
0
 62
1
100
AcDbSpline
 70
8
 71
3
 72
8
 73
4
 74
0
 40
0
 40
0
 40
0
 40
0
 40
1
 40
1
 40
1
 40
1
 10
587.520400
 20
935.373320
 30
0.0
 10
579.618000
 20
935.359400
 30
0.0
 10
579.204080
 20
935.253848
 30
0.0
 10
580.598640
 20
933.608488
 30
0.0
  0
SPLINE
  5
29a
100
AcDbEntity
  8
0
 62
1
100
AcDbSpline
 70
8
 71
3
 72
8
 73
4
 74
0
 40
0
 40
0
 40
0
 40
0
 40
1
 40
1
 40
1
 40
1
 10
580.598640
 20
933.608488
 30
0.0
 10
583.356000
 20
930.355128
 30
0.0
 10
586.056480
 20
924.882160
 30
0.0
 10
587.256720
 20
920.114760
 30
0.0
  0
SPLINE
  5
29b
100
AcDbEntity
  8
0
 62
1
100
AcDbSpline
 70
8
 71
3
 72
8
 73
4
 74
0
 40
0
 40
0
 40
0
 40
0
 40
1
 40
1
 40
1
 40
1
 10
587.256720
 20
920.114760
 30
0.0
 10
590.196240
 20
908.439136
 30
0.0
 10
584.259360
 20
896.992176
 30
0.0
 10
572.550960
 20
891.760120
 30
0.0
  0
SPLINE
  5
29c
100
AcDbEntity
  8
0
 62
1
100
AcDbSpline
 70
8
 71
3
 72
8
 73
4
 74
0
 40
0
 40
0
 40
0
 40
0
 40
1
 40
1
 40
1
 40
1
 10
572.550960
 20
891.760120
 30
0.0
 10
569.595040
 20
890.439216
 30
0.0
 10
567.120000
 20
889.388952
 30
0.0
 10
567.050960
 20
889.426168
 30
0.0
  0
SPLINE
  5
29d
100
AcDbEntity
  8
0
 62
1
100
AcDbSpline
 70
8
 71
3
 72
8
 73
4
 74
0
 40
0
 40
0
 40
0
 40
0
 40
1
 40
1
 40
1
 40
1
 10
567.050960
 20
889.426168
 30
0.0
 10
566.982160
 20
889.463368
 30
0.0
 10
565.944880
 20
889.967864
 30
0.0
 10
564.746560
 20
890.547216
 30
0.0
  0
LWPOLYLINE
  5
29e
100
AcDbEntity
  8
0
 62
1
100
AcDbPolyline
 90
2
 70
1
 10
630.425360
 20
683.793392
 30
0.0
 10
630.425360
 20
683.793392
 30
0.0
  0
SPLINE
  5
29f
100
AcDbEntity
  8
0
 62
1
100
AcDbSpline
 70
8
 71
3
 72
8
 73
4
 74
0
 40
0
 40
0
 40
0
 40
0
 40
1
 40
1
 40
1
 40
1
 10
549.772640
 20
896.108488
 30
0.0
 10
550.541840
 20
897.620992
 30
0.0
 10
551.709200
 20
902.008488
 30
0.0
 10
552.366800
 20
905.858488
 30
0.0
  0
SPLINE
  5
2a0
100
AcDbEntity
  8
0
 62
1
100
AcDbSpline
 70
8
 71
3
 72
8
 73
4
 74
0
 40
0
 40
0
 40
0
 40
0
 40
1
 40
1
 40
1
 40
1
 10
552.366800
 20
905.858488
 30
0.0
 10
555.980480
 20
927.015360
 30
0.0
 10
557.133680
 20
927.410896
 30
0.0
 10
560.784480
 20
908.745520
 30
0.0
  0
SPLINE
  5
2a1
100
AcDbEntity
  8
0
 62
1
100
AcDbSpline
 70
8
 71
3
 72
8
 73
4
 74
0
 40
0
 40
0
 40
0
 40
0
 40
1
 40
1
 40
1
 40
1
 10
560.784480
 20
908.745520
 30
0.0
 10
562.248880
 20
901.258384
 30
0.0
 10
563.693680
 20
894.733384
 30
0.0
 10
563.995200
 20
894.245520
 30
0.0
  0
SPLINE
  5
2a2
100
AcDbEntity
  8
0
 62
1
100
AcDbSpline
 70
8
 71
3
 72
8
 73
4
 74
0
 40
0
 40
0
 40
0
 40
0
 40
1
 40
1
 40
1
 40
1
 10
563.995200
 20
894.245520
 30
0.0
 10
564.840160
 20
892.878408
 30
0.0
 10
570.207920
 20
893.194656
 30
0.0
 10
573.300160
 20
894.793744
 30
0.0
  0
SPLINE
  5
2a3
100
AcDbEntity
  8
0
 62
1
100
AcDbSpline
 70
8
 71
3
 72
8
 73
4
 74
0
 40
0
 40
0
 40
0
 40
0
 40
1
 40
1
 40
1
 40
1
 10
573.300160
 20
894.793744
 30
0.0
 10
577.344640
 20
896.885224
 30
0.0
 10
582.994160
 20
903.521800
 30
0.0
 10
584.427680
 20
907.865448
 30
0.0
  0
SPLINE
  5
2a4
100
AcDbEntity
  8
0
 62
1
100
AcDbSpline
 70
8
 71
3
 72
8
 73
4
 74
0
 40
0
 40
0
 40
0
 40
0
 40
1
 40
1
 40
1
 40
1
 10
584.427680
 20
907.865448
 30
0.0
 10
585.139440
 20
910.022168
 30
0.0
 10
585.429040
 20
913.680008
 30
0.0
 10
585.104720
 20
916.418208
 30
0.0
  0
SPLINE
  5
2a5
100
AcDbEntity
  8
0
 62
1
100
AcDbSpline
 70
8
 71
3
 72
8
 73
4
 74
0
 40
0
 40
0
 40
0
 40
0
 40
1
 40
1
 40
1
 40
1
 10
585.104720
 20
916.418208
 30
0.0
 10
584.505360
 20
921.478976
 30
0.0
 10
580.650480
 20
930.096888
 30
0.0
 10
578.003360
 20
932.293744
 30
0.0
  0
SPLINE
  5
2a6
100
AcDbEntity
  8
0
 62
1
100
AcDbSpline
 70
8
 71
3
 72
8
 73
4
 74
0
 40
0
 40
0
 40
0
 40
0
 40
1
 40
1
 40
1
 40
1
 10
578.003360
 20
932.293744
 30
0.0
 10
577.135520
 20
933.014048
 30
0.0
 10
576.425360
 20
934.390768
 30
0.0
 10
576.425360
 20
935.353136
 30
0.0
  0
SPLINE
  5
2a7
100
AcDbEntity
  8
0
 62
1
100
AcDbSpline
 70
8
 71
3
 72
8
 73
4
 74
0
 40
0
 40
0
 40
0
 40
0
 40
1
 40
1
 40
1
 40
1
 10
576.425360
 20
935.353136
 30
0.0
 10
576.425360
 20
936.926600
 30
0.0
 10
578.163440
 20
937.168768
 30
0.0
 10
593.675360
 20
937.756608
 30
0.0
  0
SPLINE
  5
2a8
100
AcDbEntity
  8
0
 62
1
100
AcDbSpline
 70
8
 71
3
 72
8
 73
4
 74
0
 40
0
 40
0
 40
0
 40
0
 40
1
 40
1
 40
1
 40
1
 10
593.675360
 20
937.756608
 30
0.0
 10
603.162880
 20
938.116160
 30
0.0
 10
616.550400
 20
939.111056
 30
0.0
 10
623.425360
 20
939.967496
 30
0.0
  0
SPLINE
  5
2a9
100
AcDbEntity
  8
0
 62
1
100
AcDbSpline
 70
8
 71
3
 72
8
 73
4
 74
0
 40
0
 40
0
 40
0
 40
0
 40
1
 40
1
 40
1
 40
1
 10
623.425360
 20
939.967496
 30
0.0
 10
654.674640
 20
943.860360
 30
0.0
 10
664.958160
 20
945.530680
 30
0.0
 10
666.551120
 20
946.972280
 30
0.0
  0
SPLINE
  5
2aa
100
AcDbEntity
  8
0
 62
1
100
AcDbSpline
 70
8
 71
3
 72
8
 73
4
 74
0
 40
0
 40
0
 40
0
 40
0
 40
1
 40
1
 40
1
 40
1
 10
666.551120
 20
946.972280
 30
0.0
 10
669.515360
 20
949.654856
 30
0.0
 10
674.430400
 20
960.058120
 30
0.0
 10
676.433120
 20
967.888576
 30
0.0
  0
SPLINE
  5
2ab
100
AcDbEntity
  8
0
 62
1
100
AcDbSpline
 70
8
 71
3
 72
8
 73
4
 74
0
 40
0
 40
0
 40
0
 40
0
 40
1
 40
1
 40
1
 40
1
 10
676.433120
 20
967.888576
 30
0.0
 10
679.288480
 20
979.053128
 30
0.0
 10
678.947840
 20
1001.468040
 30
0.0
 10
675.846480
 20
1006.486096
 30
0.0
  0
SPLINE
  5
2ac
100
AcDbEntity
  8
0
 62
1
100
AcDbSpline
 70
8
 71
3
 72
8
 73
4
 74
0
 40
0
 40
0
 40
0
 40
0
 40
1
 40
1
 40
1
 40
1
 10
675.846480
 20
1006.486096
 30
0.0
 10
675.436000
 20
1007.150368
 30
0.0
 10
673.132560
 20
1007.416008
 30
0.0
 10
670.020720
 20
1007.157952
 30
0.0
  0
SPLINE
  5
2ad
100
AcDbEntity
  8
0
 62
1
100
AcDbSpline
 70
8
 71
3
 72
8
 73
4
 74
0
 40
0
 40
0
 40
0
 40
0
 40
1
 40
1
 40
1
 40
1
 10
670.020720
 20
1007.157952
 30
0.0
 10
663.598080
 20
1006.625336
 30
0.0
 10
649.428880
 20
999.661520
 30
0.0
 10
638.019680
 20
991.430152
 30
0.0
  0
SPLINE
  5
2ae
100
AcDbEntity
  8
0
 62
1
100
AcDbSpline
 70
8
 71
3
 72
8
 73
4
 74
0
 40
0
 40
0
 40
0
 40
0
 40
1
 40
1
 40
1
 40
1
 10
638.019680
 20
991.430152
 30
0.0
 10
617.716160
 20
976.781896
 30
0.0
 10
600.976560
 20
967.014816
 30
0.0
 10
582.033280
 20
958.763696
 30
0.0
  0
SPLINE
  5
2af
100
AcDbEntity
  8
0
 62
1
100
AcDbSpline
 70
8
 71
3
 72
8
 73
4
 74
0
 40
0
 40
0
 40
0
 40
0
 40
1
 40
1
 40
1
 40
1
 10
582.033280
 20
958.763696
 30
0.0
 10
568.759120
 20
952.981872
 30
0.0
 10
562.489520
 20
949.717592
 30
0.0
 10
560.949680
 20
947.786520
 30
0.0
  0
SPLINE
  5
2b0
100
AcDbEntity
  8
0
 62
1
100
AcDbSpline
 70
8
 71
3
 72
8
 73
4
 74
0
 40
0
 40
0
 40
0
 40
0
 40
1
 40
1
 40
1
 40
1
 10
560.949680
 20
947.786520
 30
0.0
 10
559.411600
 20
945.857560
 30
0.0
 10
558.146560
 20
945.198152
 30
0.0
 10
556.706480
 20
945.574728
 30
0.0
  0
SPLINE
  5
2b1
100
AcDbEntity
  8
0
 62
1
100
AcDbSpline
 70
8
 71
3
 72
8
 73
4
 74
0
 40
0
 40
0
 40
0
 40
0
 40
1
 40
1
 40
1
 40
1
 10
556.706480
 20
945.574728
 30
0.0
 10
554.855600
 20
946.058752
 30
0.0
 10
512.171920
 20
970.592528
 30
0.0
 10
486.925360
 20
985.683632
 30
0.0
  0
SPLINE
  5
2b2
100
AcDbEntity
  8
0
 62
1
100
AcDbSpline
 70
8
 71
3
 72
8
 73
4
 74
0
 40
0
 40
0
 40
0
 40
0
 40
1
 40
1
 40
1
 40
1
 10
486.925360
 20
985.683632
 30
0.0
 10
481.425360
 20
988.971248
 30
0.0
 10
474.450400
 20
993.769136
 30
0.0
 10
471.425360
 20
996.345600
 30
0.0
  0
SPLINE
  5
2b3
100
AcDbEntity
  8
0
 62
1
100
AcDbSpline
 70
8
 71
3
 72
8
 73
4
 74
0
 40
0
 40
0
 40
0
 40
0
 40
1
 40
1
 40
1
 40
1
 10
471.425360
 20
996.345600
 30
0.0
 10
466.210240
 20
1000.787440
 30
0.0
 10
450.016480
 20
1008.690256
 30
0.0
 10
443.430880
 20
1010.007392
 30
0.0
  0
SPLINE
  5
2b4
100
AcDbEntity
  8
0
 62
1
100
AcDbSpline
 70
8
 71
3
 72
8
 73
4
 74
0
 40
0
 40
0
 40
0
 40
0
 40
1
 40
1
 40
1
 40
1
 10
443.430880
 20
1010.007392
 30
0.0
 10
438.873520
 20
1010.918856
 30
0.0
 10
437.313200
 20
1007.085240
 30
0.0
 10
436.708960
 20
993.491592
 30
0.0
  0
SPLINE
  5
2b5
100
AcDbEntity
  8
0
 62
1
100
AcDbSpline
 70
8
 71
3
 72
8
 73
4
 74
0
 40
0
 40
0
 40
0
 40
0
 40
1
 40
1
 40
1
 40
1
 10
436.708960
 20
993.491592
 30
0.0
 10
436.155600
 20
981.041976
 30
0.0
 10
437.712720
 20
971.683856
 30
0.0
 10
442.439920
 20
959.049288
 30
0.0
  0
SPLINE
  5
2b6
100
AcDbEntity
  8
0
 62
1
100
AcDbSpline
 70
8
 71
3
 72
8
 73
4
 74
0
 40
0
 40
0
 40
0
 40
0
 40
1
 40
1
 40
1
 40
1
 10
442.439920
 20
959.049288
 30
0.0
 10
446.337440
 20
948.632208
 30
0.0
 10
446.380960
 20
948.608320
 30
0.0
 10
467.437680
 20
945.342872
 30
0.0
  0
SPLINE
  5
2b7
100
AcDbEntity
  8
0
 62
1
100
AcDbSpline
 70
8
 71
3
 72
8
 73
4
 74
0
 40
0
 40
0
 40
0
 40
0
 40
1
 40
1
 40
1
 40
1
 10
467.437680
 20
945.342872
 30
0.0
 10
491.496640
 20
941.611816
 30
0.0
 10
509.991920
 20
939.480232
 30
0.0
 10
525.175360
 20
938.688560
 30
0.0
  0
SPLINE
  5
2b8
100
AcDbEntity
  8
0
 62
1
100
AcDbSpline
 70
8
 71
3
 72
8
 73
4
 74
0
 40
0
 40
0
 40
0
 40
0
 40
1
 40
1
 40
1
 40
1
 10
525.175360
 20
938.688560
 30
0.0
 10
538.756080
 20
937.980456
 30
0.0
 10
539.319440
 20
937.597608
 30
0.0
 10
534.450640
 20
932.385544
 30
0.0
  0
SPLINE
  5
2b9
100
AcDbEntity
  8
0
 62
1
100
AcDbSpline
 70
8
 71
3
 72
8
 73
4
 74
0
 40
0
 40
0
 40
0
 40
0
 40
1
 40
1
 40
1
 40
1
 10
534.450640
 20
932.385544
 30
0.0
 10
525.439360
 20
922.738912
 30
0.0
 10
528.891840
 20
902.532968
 30
0.0
 10
540.791200
 20
895.277088
 30
0.0
  0
SPLINE
  5
2ba
100
AcDbEntity
  8
0
 62
1
100
AcDbSpline
 70
8
 71
3
 72
8
 73
4
 74
0
 40
0
 40
0
 40
0
 40
0
 40
1
 40
1
 40
1
 40
1
 10
540.791200
 20
895.277088
 30
0.0
 10
545.254560
 20
892.555488
 30
0.0
 10
548.099600
 20
892.818848
 30
0.0
 10
549.772640
 20
896.108488
 30
0.0
  0
LWPOLYLINE
  5
2bb
100
AcDbEntity
  8
0
 62
1
100
AcDbPolyline
 90
2
 70
1
 10
564.746560
 20
890.547216
 30
0.0
 10
564.746560
 20
890.547216
 30
0.0
  0
SPLINE
  5
2bc
100
AcDbEntity
  8
0
 62
1
100
AcDbSpline
 70
8
 71
3
 72
8
 73
4
 74
0
 40
0
 40
0
 40
0
 40
0
 40
1
 40
1
 40
1
 40
1
 10
691.063760
 20
977.858488
 30
0.0
 10
690.747200
 20
978.683488
 30
0.0
 10
690.924000
 20
979.358488
 30
0.0
 10
691.456800
 20
979.358488
 30
0.0
  0
SPLINE
  5
2bd
100
AcDbEntity
  8
0
 62
1
100
AcDbSpline
 70
8
 71
3
 72
8
 73
4
 74
0
 40
0
 40
0
 40
0
 40
0
 40
1
 40
1
 40
1
 40
1
 10
691.456800
 20
979.358488
 30
0.0
 10
691.989520
 20
979.358488
 30
0.0
 10
692.425360
 20
978.683488
 30
0.0
 10
692.425360
 20
977.858488
 30
0.0
  0
SPLINE
  5
2be
100
AcDbEntity
  8
0
 62
1
100
AcDbSpline
 70
8
 71
3
 72
8
 73
4
 74
0
 40
0
 40
0
 40
0
 40
0
 40
1
 40
1
 40
1
 40
1
 10
692.425360
 20
977.858488
 30
0.0
 10
692.425360
 20
977.033488
 30
0.0
 10
692.248560
 20
976.358488
 30
0.0
 10
692.032400
 20
976.358488
 30
0.0
  0
SPLINE
  5
2bf
100
AcDbEntity
  8
0
 62
1
100
AcDbSpline
 70
8
 71
3
 72
8
 73
4
 74
0
 40
0
 40
0
 40
0
 40
0
 40
1
 40
1
 40
1
 40
1
 10
692.032400
 20
976.358488
 30
0.0
 10
691.816240
 20
976.358488
 30
0.0
 10
691.380320
 20
977.033488
 30
0.0
 10
691.063760
 20
977.858488
 30
0.0
  0
LWPOLYLINE
  5
2c0
100
AcDbEntity
  8
0
 62
1
100
AcDbPolyline
 90
2
 70
1
 10
549.772640
 20
896.108488
 30
0.0
 10
549.772640
 20
896.108488
 30
0.0
  0
SPLINE
  5
2c1
100
AcDbEntity
  8
0
 62
1
100
AcDbSpline
 70
8
 71
3
 72
8
 73
4
 74
0
 40
0
 40
0
 40
0
 40
0
 40
1
 40
1
 40
1
 40
1
 10
690.008720
 20
994.441816
 30
0.0
 10
689.632960
 20
997.274400
 30
0.0
 10
689.526800
 20
999.793240
 30
0.0
 10
689.772800
 20
1000.039248
 30
0.0
  0
SPLINE
  5
2c2
100
AcDbEntity
  8
0
 62
1
100
AcDbSpline
 70
8
 71
3
 72
8
 73
4
 74
0
 40
0
 40
0
 40
0
 40
0
 40
1
 40
1
 40
1
 40
1
 10
689.772800
 20
1000.039248
 30
0.0
 10
690.018800
 20
1000.285256
 30
0.0
 10
690.537440
 20
998.178920
 30
0.0
 10
690.925360
 20
995.358488
 30
0.0
  0
SPLINE
  5
2c3
100
AcDbEntity
  8
0
 62
1
100
AcDbSpline
 70
8
 71
3
 72
8
 73
4
 74
0
 40
0
 40
0
 40
0
 40
0
 40
1
 40
1
 40
1
 40
1
 10
690.925360
 20
995.358488
 30
0.0
 10
691.313280
 20
992.538056
 30
0.0
 10
691.419440
 20
990.019216
 30
0.0
 10
691.161280
 20
989.761056
 30
0.0
  0
SPLINE
  5
2c4
100
AcDbEntity
  8
0
 62
1
100
AcDbSpline
 70
8
 71
3
 72
8
 73
4
 74
0
 40
0
 40
0
 40
0
 40
0
 40
1
 40
1
 40
1
 40
1
 10
691.161280
 20
989.761056
 30
0.0
 10
690.903120
 20
989.502896
 30
0.0
 10
690.384480
 20
991.609240
 30
0.0
 10
690.008720
 20
994.441816
 30
0.0
  0
LWPOLYLINE
  5
2c5
100
AcDbEntity
  8
0
 62
1
100
AcDbPolyline
 90
2
 70
1
 10
691.063760
 20
977.858488
 30
0.0
 10
691.063760
 20
977.858488
 30
0.0
  0
SPLINE
  5
2c6
100
AcDbEntity
  8
0
 62
1
100
AcDbSpline
 70
8
 71
3
 72
8
 73
4
 74
0
 40
0
 40
0
 40
0
 40
0
 40
1
 40
1
 40
1
 40
1
 10
688.048960
 20
1003.897144
 30
0.0
 10
687.706000
 20
1004.790848
 30
0.0
 10
687.453920
 20
1006.047760
 30
0.0
 10
687.488800
 20
1006.690280
 30
0.0
  0
SPLINE
  5
2c7
100
AcDbEntity
  8
0
 62
1
100
AcDbSpline
 70
8
 71
3
 72
8
 73
4
 74
0
 40
0
 40
0
 40
0
 40
0
 40
1
 40
1
 40
1
 40
1
 10
687.488800
 20
1006.690280
 30
0.0
 10
687.524000
 20
1007.332784
 30
0.0
 10
687.983280
 20
1006.780680
 30
0.0
 10
688.510240
 20
1005.463312
 30
0.0
  0
SPLINE
  5
2c8
100
AcDbEntity
  8
0
 62
1
100
AcDbSpline
 70
8
 71
3
 72
8
 73
4
 74
0
 40
0
 40
0
 40
0
 40
0
 40
1
 40
1
 40
1
 40
1
 10
688.510240
 20
1005.463312
 30
0.0
 10
689.037200
 20
1004.145960
 30
0.0
 10
689.289280
 20
1002.889048
 30
0.0
 10
689.070400
 20
1002.670176
 30
0.0
  0
SPLINE
  5
2c9
100
AcDbEntity
  8
0
 62
1
100
AcDbSpline
 70
8
 71
3
 72
8
 73
4
 74
0
 40
0
 40
0
 40
0
 40
0
 40
1
 40
1
 40
1
 40
1
 10
689.070400
 20
1002.670176
 30
0.0
 10
688.851520
 20
1002.451304
 30
0.0
 10
688.391840
 20
1003.003448
 30
0.0
 10
688.048960
 20
1003.897144
 30
0.0
  0
LWPOLYLINE
  5
2ca
100
AcDbEntity
  8
0
 62
1
100
AcDbPolyline
 90
2
 70
1
 10
690.008720
 20
994.441816
 30
0.0
 10
690.008720
 20
994.441816
 30
0.0
  0
SPLINE
  5
2cb
100
AcDbEntity
  8
0
 62
1
100
AcDbSpline
 70
8
 71
3
 72
8
 73
4
 74
0
 40
0
 40
0
 40
0
 40
0
 40
1
 40
1
 40
1
 40
1
 10
542.925360
 20
1011.411072
 30
0.0
 10
535.866560
 20
1014.340768
 30
0.0
 10
528.976480
 20
1021.445560
 30
0.0
 10
524.786320
 20
1030.115520
 30
0.0
  0
SPLINE
  5
2cc
100
AcDbEntity
  8
0
 62
1
100
AcDbSpline
 70
8
 71
3
 72
8
 73
4
 74
0
 40
0
 40
0
 40
0
 40
0
 40
1
 40
1
 40
1
 40
1
 10
524.786320
 20
1030.115520
 30
0.0
 10
521.857360
 20
1036.176032
 30
0.0
 10
521.254000
 20
1038.566760
 30
0.0
 10
521.126960
 20
1044.615520
 30
0.0
  0
SPLINE
  5
2cd
100
AcDbEntity
  8
0
 62
1
100
AcDbSpline
 70
8
 71
3
 72
8
 73
4
 74
0
 40
0
 40
0
 40
0
 40
0
 40
1
 40
1
 40
1
 40
1
 10
521.126960
 20
1044.615520
 30
0.0
 10
520.908960
 20
1054.996008
 30
0.0
 10
523.818880
 20
1061.761728
 30
0.0
 10
532.248960
 20
1070.475008
 30
0.0
  0
SPLINE
  5
2ce
100
AcDbEntity
  8
0
 62
1
100
AcDbSpline
 70
8
 71
3
 72
8
 73
4
 74
0
 40
0
 40
0
 40
0
 40
0
 40
1
 40
1
 40
1
 40
1
 10
532.248960
 20
1070.475008
 30
0.0
 10
535.851600
 20
1074.198752
 30
0.0
 10
539.117360
 20
1077.048872
 30
0.0
 10
539.506080
 20
1076.808608
 30
0.0
  0
SPLINE
  5
2cf
100
AcDbEntity
  8
0
 62
1
100
AcDbSpline
 70
8
 71
3
 72
8
 73
4
 74
0
 40
0
 40
0
 40
0
 40
0
 40
1
 40
1
 40
1
 40
1
 10
539.506080
 20
1076.808608
 30
0.0
 10
539.894880
 20
1076.568352
 30
0.0
 10
541.821280
 20
1077.043776
 30
0.0
 10
543.787040
 20
1077.865128
 30
0.0
  0
SPLINE
  5
2d0
100
AcDbEntity
  8
0
 62
1
100
AcDbSpline
 70
8
 71
3
 72
8
 73
4
 74
0
 40
0
 40
0
 40
0
 40
0
 40
1
 40
1
 40
1
 40
1
 10
543.787040
 20
1077.865128
 30
0.0
 10
545.991200
 20
1078.786104
 30
0.0
 10
550.570160
 20
1079.358488
 30
0.0
 10
555.733520
 20
1079.358488
 30
0.0
  0
SPLINE
  5
2d1
100
AcDbEntity
  8
0
 62
1
100
AcDbSpline
 70
8
 71
3
 72
8
 73
4
 74
0
 40
0
 40
0
 40
0
 40
0
 40
1
 40
1
 40
1
 40
1
 10
555.733520
 20
1079.358488
 30
0.0
 10
563.083280
 20
1079.358488
 30
0.0
 10
564.858640
 20
1078.982368
 30
0.0
 10
570.267920
 20
1076.279320
 30
0.0
  0
SPLINE
  5
2d2
100
AcDbEntity
  8
0
 62
1
100
AcDbSpline
 70
8
 71
3
 72
8
 73
4
 74
0
 40
0
 40
0
 40
0
 40
0
 40
1
 40
1
 40
1
 40
1
 10
570.267920
 20
1076.279320
 30
0.0
 10
587.990160
 20
1067.423416
 30
0.0
 10
595.744640
 20
1046.991112
 30
0.0
 10
588.177920
 20
1029.088376
 30
0.0
  0
SPLINE
  5
2d3
100
AcDbEntity
  8
0
 62
1
100
AcDbSpline
 70
8
 71
3
 72
8
 73
4
 74
0
 40
0
 40
0
 40
0
 40
0
 40
1
 40
1
 40
1
 40
1
 10
588.177920
 20
1029.088376
 30
0.0
 10
585.812960
 20
1023.492920
 30
0.0
 10
578.012240
 20
1015.964536
 30
0.0
 10
570.949200
 20
1012.461048
 30
0.0
  0
SPLINE
  5
2d4
100
AcDbEntity
  8
0
 62
1
100
AcDbSpline
 70
8
 71
3
 72
8
 73
4
 74
0
 40
0
 40
0
 40
0
 40
0
 40
1
 40
1
 40
1
 40
1
 10
570.949200
 20
1012.461048
 30
0.0
 10
563.974000
 20
1009.001192
 30
0.0
 10
549.993840
 20
1008.477392
 30
0.0
 10
542.925360
 20
1011.411072
 30
0.0
  0
LWPOLYLINE
  5
2d5
100
AcDbEntity
  8
0
 62
1
100
AcDbPolyline
 90
2
 70
1
 10
688.048960
 20
1003.897144
 30
0.0
 10
688.048960
 20
1003.897144
 30
0.0
  0
SPLINE
  5
2d6
100
AcDbEntity
  8
0
 62
1
100
AcDbSpline
 70
8
 71
3
 72
8
 73
4
 74
0
 40
0
 40
0
 40
0
 40
0
 40
1
 40
1
 40
1
 40
1
 10
563.195120
 20
1012.773768
 30
0.0
 10
569.848880
 20
1014.201200
 30
0.0
 10
575.014560
 20
1017.101536
 30
0.0
 10
580.278560
 20
1022.365480
 30
0.0
  0
SPLINE
  5
2d7
100
AcDbEntity
  8
0
 62
1
100
AcDbSpline
 70
8
 71
3
 72
8
 73
4
 74
0
 40
0
 40
0
 40
0
 40
0
 40
1
 40
1
 40
1
 40
1
 10
580.278560
 20
1022.365480
 30
0.0
 10
585.045280
 20
1027.132216
 30
0.0
 10
587.487840
 20
1032.698160
 30
0.0
 10
588.103760
 20
1040.197288
 30
0.0
  0
SPLINE
  5
2d8
100
AcDbEntity
  8
0
 62
1
100
AcDbSpline
 70
8
 71
3
 72
8
 73
4
 74
0
 40
0
 40
0
 40
0
 40
0
 40
1
 40
1
 40
1
 40
1
 10
588.103760
 20
1040.197288
 30
0.0
 10
589.828640
 20
1061.196000
 30
0.0
 10
572.512320
 20
1079.115784
 30
0.0
 10
552.515680
 20
1077.025720
 30
0.0
  0
SPLINE
  5
2d9
100
AcDbEntity
  8
0
 62
1
100
AcDbSpline
 70
8
 71
3
 72
8
 73
4
 74
0
 40
0
 40
0
 40
0
 40
0
 40
1
 40
1
 40
1
 40
1
 10
552.515680
 20
1077.025720
 30
0.0
 10
540.850160
 20
1075.806424
 30
0.0
 10
532.095200
 20
1069.509592
 30
0.0
 10
526.679280
 20
1058.443376
 30
0.0
  0
SPLINE
  5
2da
100
AcDbEntity
  8
0
 62
1
100
AcDbSpline
 70
8
 71
3
 72
8
 73
4
 74
0
 40
0
 40
0
 40
0
 40
0
 40
1
 40
1
 40
1
 40
1
 10
526.679280
 20
1058.443376
 30
0.0
 10
518.544640
 20
1041.821840
 30
0.0
 10
527.852720
 20
1019.703240
 30
0.0
 10
545.642400
 20
1013.381864
 30
0.0
  0
SPLINE
  5
2db
100
AcDbEntity
  8
0
 62
1
100
AcDbSpline
 70
8
 71
3
 72
8
 73
4
 74
0
 40
0
 40
0
 40
0
 40
0
 40
1
 40
1
 40
1
 40
1
 10
545.642400
 20
1013.381864
 30
0.0
 10
552.013360
 20
1011.118032
 30
0.0
 10
554.995440
 20
1011.014720
 30
0.0
 10
563.195120
 20
1012.773768
 30
0.0
  0
LWPOLYLINE
  5
2dc
100
AcDbEntity
  8
0
 62
1
100
AcDbPolyline
 90
2
 70
1
 10
542.925360
 20
1011.411072
 30
0.0
 10
542.925360
 20
1011.411072
 30
0.0
  0
SPLINE
  5
2dd
100
AcDbEntity
  8
0
 62
1
100
AcDbSpline
 70
8
 71
3
 72
8
 73
4
 74
0
 40
0
 40
0
 40
0
 40
0
 40
1
 40
1
 40
1
 40
1
 10
683.048960
 20
1018.897144
 30
0.0
 10
682.083920
 20
1021.411840
 30
0.0
 10
682.368640
 20
1022.060696
 30
0.0
 10
683.547440
 20
1020.033488
 30
0.0
  0
SPLINE
  5
2de
100
AcDbEntity
  8
0
 62
1
100
AcDbSpline
 70
8
 71
3
 72
8
 73
4
 74
0
 40
0
 40
0
 40
0
 40
0
 40
1
 40
1
 40
1
 40
1
 10
683.547440
 20
1020.033488
 30
0.0
 10
684.131120
 20
1019.029736
 30
0.0
 10
684.398080
 20
1017.997824
 30
0.0
 10
684.140560
 20
1017.740360
 30
0.0
  0
SPLINE
  5
2df
100
AcDbEntity
  8
0
 62
1
100
AcDbSpline
 70
8
 71
3
 72
8
 73
4
 74
0
 40
0
 40
0
 40
0
 40
0
 40
1
 40
1
 40
1
 40
1
 10
684.140560
 20
1017.740360
 30
0.0
 10
683.883120
 20
1017.482888
 30
0.0
 10
683.391840
 20
1018.003448
 30
0.0
 10
683.048960
 20
1018.897144
 30
0.0
  0
LWPOLYLINE
  5
2e0
100
AcDbEntity
  8
0
 62
1
100
AcDbPolyline
 90
2
 70
1
 10
563.195120
 20
1012.773768
 30
0.0
 10
563.195120
 20
1012.773768
 30
0.0
  0
SPLINE
  5
2e1
100
AcDbEntity
  8
0
 62
1
100
AcDbSpline
 70
8
 71
3
 72
8
 73
4
 74
0
 40
0
 40
0
 40
0
 40
0
 40
1
 40
1
 40
1
 40
1
 10
472.925360
 20
1030.752528
 30
0.0
 10
471.258240
 20
1032.726656
 30
0.0
 10
471.387760
 20
1034.187000
 30
0.0
 10
473.206400
 20
1033.920976
 30
0.0
  0
SPLINE
  5
2e2
100
AcDbEntity
  8
0
 62
1
100
AcDbSpline
 70
8
 71
3
 72
8
 73
4
 74
0
 40
0
 40
0
 40
0
 40
0
 40
1
 40
1
 40
1
 40
1
 10
473.206400
 20
1033.920976
 30
0.0
 10
475.015760
 20
1033.656320
 30
0.0
 10
476.106640
 20
1030.890856
 30
0.0
 10
474.730720
 20
1030.056688
 30
0.0
  0
SPLINE
  5
2e3
100
AcDbEntity
  8
0
 62
1
100
AcDbSpline
 70
8
 71
3
 72
8
 73
4
 74
0
 40
0
 40
0
 40
0
 40
0
 40
1
 40
1
 40
1
 40
1
 10
474.730720
 20
1030.056688
 30
0.0
 10
474.287840
 20
1029.788136
 30
0.0
 10
473.475360
 20
1030.101328
 30
0.0
 10
472.925360
 20
1030.752528
 30
0.0
  0
LWPOLYLINE
  5
2e4
100
AcDbEntity
  8
0
 62
1
100
AcDbPolyline
 90
2
 70
1
 10
683.048960
 20
1018.897144
 30
0.0
 10
683.048960
 20
1018.897144
 30
0.0
  0
SPLINE
  5
2e5
100
AcDbEntity
  8
0
 62
1
100
AcDbSpline
 70
8
 71
3
 72
8
 73
4
 74
0
 40
0
 40
0
 40
0
 40
0
 40
1
 40
1
 40
1
 40
1
 10
486.925360
 20
1084.358488
 30
0.0
 10
487.265280
 20
1084.908488
 30
0.0
 10
487.993440
 20
1085.358488
 30
0.0
 10
488.543440
 20
1085.358488
 30
0.0
  0
SPLINE
  5
2e6
100
AcDbEntity
  8
0
 62
1
100
AcDbSpline
 70
8
 71
3
 72
8
 73
4
 74
0
 40
0
 40
0
 40
0
 40
0
 40
1
 40
1
 40
1
 40
1
 10
488.543440
 20
1085.358488
 30
0.0
 10
489.093440
 20
1085.358488
 30
0.0
 10
489.265280
 20
1084.908488
 30
0.0
 10
488.925360
 20
1084.358488
 30
0.0
  0
SPLINE
  5
2e7
100
AcDbEntity
  8
0
 62
1
100
AcDbSpline
 70
8
 71
3
 72
8
 73
4
 74
0
 40
0
 40
0
 40
0
 40
0
 40
1
 40
1
 40
1
 40
1
 10
488.925360
 20
1084.358488
 30
0.0
 10
488.585440
 20
1083.808488
 30
0.0
 10
487.857360
 20
1083.358488
 30
0.0
 10
487.307360
 20
1083.358488
 30
0.0
  0
SPLINE
  5
2e8
100
AcDbEntity
  8
0
 62
1
100
AcDbSpline
 70
8
 71
3
 72
8
 73
4
 74
0
 40
0
 40
0
 40
0
 40
0
 40
1
 40
1
 40
1
 40
1
 10
487.307360
 20
1083.358488
 30
0.0
 10
486.757360
 20
1083.358488
 30
0.0
 10
486.585440
 20
1083.808488
 30
0.0
 10
486.925360
 20
1084.358488
 30
0.0
  0
LWPOLYLINE
  5
2e9
100
AcDbEntity
  8
0
 62
1
100
AcDbPolyline
 90
2
 70
1
 10
472.925360
 20
1030.752528
 30
0.0
 10
472.925360
 20
1030.752528
 30
0.0
  0
SPLINE
  5
2ea
100
AcDbEntity
  8
0
 62
1
100
AcDbSpline
 70
8
 71
3
 72
8
 73
4
 74
0
 40
0
 40
0
 40
0
 40
0
 40
1
 40
1
 40
1
 40
1
 10
437.425360
 20
299.736080
 30
0.0
 10
437.425360
 20
299.943680
 30
0.0
 10
436.637920
 20
300.731200
 30
0.0
 10
435.675360
 20
301.486080
 30
0.0
  0
SPLINE
  5
2eb
100
AcDbEntity
  8
0
 62
1
100
AcDbSpline
 70
8
 71
3
 72
8
 73
4
 74
0
 40
0
 40
0
 40
0
 40
0
 40
1
 40
1
 40
1
 40
1
 10
435.675360
 20
301.486080
 30
0.0
 10
434.089360
 20
302.729920
 30
0.0
 10
434.053920
 20
302.694560
 30
0.0
 10
435.297840
 20
301.108480
 30
0.0
  0
SPLINE
  5
2ec
100
AcDbEntity
  8
0
 62
1
100
AcDbSpline
 70
8
 71
3
 72
8
 73
4
 74
0
 40
0
 40
0
 40
0
 40
0
 40
1
 40
1
 40
1
 40
1
 10
435.297840
 20
301.108480
 30
0.0
 10
436.604160
 20
299.442720
 30
0.0
 10
437.425360
 20
298.912960
 30
0.0
 10
437.425360
 20
299.736080
 30
0.0
  0
LWPOLYLINE
  5
2ed
100
AcDbEntity
  8
0
 62
1
100
AcDbPolyline
 90
2
 70
1
 10
486.925360
 20
1084.358488
 30
0.0
 10
486.925360
 20
1084.358488
 30
0.0
  0
SPLINE
  5
2ee
100
AcDbEntity
  8
0
 62
1
100
AcDbSpline
 70
8
 71
3
 72
8
 73
4
 74
0
 40
0
 40
0
 40
0
 40
0
 40
1
 40
1
 40
1
 40
1
 10
672.547440
 20
409.033488
 30
0.0
 10
671.368640
 20
411.060696
 30
0.0
 10
671.083920
 20
410.411840
 30
0.0
 10
672.048960
 20
407.897144
 30
0.0
  0
SPLINE
  5
2ef
100
AcDbEntity
  8
0
 62
1
100
AcDbSpline
 70
8
 71
3
 72
8
 73
4
 74
0
 40
0
 40
0
 40
0
 40
0
 40
1
 40
1
 40
1
 40
1
 10
672.048960
 20
407.897144
 30
0.0
 10
672.391840
 20
407.003448
 30
0.0
 10
672.883120
 20
406.482888
 30
0.0
 10
673.140560
 20
406.740360
 30
0.0
  0
SPLINE
  5
2f0
100
AcDbEntity
  8
0
 62
1
100
AcDbSpline
 70
8
 71
3
 72
8
 73
4
 74
0
 40
0
 40
0
 40
0
 40
0
 40
1
 40
1
 40
1
 40
1
 10
673.140560
 20
406.740360
 30
0.0
 10
673.398080
 20
406.997824
 30
0.0
 10
673.131760
 20
408.029736
 30
0.0
 10
672.547440
 20
409.033488
 30
0.0
  0
LWPOLYLINE
  5
2f1
100
AcDbEntity
  8
0
 62
1
100
AcDbPolyline
 90
2
 70
1
 10
437.425360
 20
299.736080
 30
0.0
 10
437.425360
 20
299.736080
 30
0.0
  0
SPLINE
  5
2f2
100
AcDbEntity
  8
0
 62
1
100
AcDbSpline
 70
8
 71
3
 72
8
 73
4
 74
0
 40
0
 40
0
 40
0
 40
0
 40
1
 40
1
 40
1
 40
1
 10
675.108480
 20
646.545992
 30
0.0
 10
674.789280
 20
647.343720
 30
0.0
 10
674.552320
 20
647.106768
 30
0.0
 10
674.504320
 20
645.941816
 30
0.0
  0
SPLINE
  5
2f3
100
AcDbEntity
  8
0
 62
1
100
AcDbSpline
 70
8
 71
3
 72
8
 73
4
 74
0
 40
0
 40
0
 40
0
 40
0
 40
1
 40
1
 40
1
 40
1
 10
674.504320
 20
645.941816
 30
0.0
 10
674.461120
 20
644.887656
 30
0.0
 10
674.697280
 20
644.297032
 30
0.0
 10
675.029520
 20
644.629320
 30
0.0
  0
SPLINE
  5
2f4
100
AcDbEntity
  8
0
 62
1
100
AcDbSpline
 70
8
 71
3
 72
8
 73
4
 74
0
 40
0
 40
0
 40
0
 40
0
 40
1
 40
1
 40
1
 40
1
 10
675.029520
 20
644.629320
 30
0.0
 10
675.361840
 20
644.961608
 30
0.0
 10
675.397360
 20
645.824120
 30
0.0
 10
675.108720
 20
646.545992
 30
0.0
  0
LWPOLYLINE
  5
2f5
100
AcDbEntity
  8
0
 62
1
100
AcDbPolyline
 90
2
 70
1
 10
672.547440
 20
409.033488
 30
0.0
 10
672.547440
 20
409.033488
 30
0.0
  0
SPLINE
  5
2f6
100
AcDbEntity
  8
0
 62
1
100
AcDbSpline
 70
8
 71
3
 72
8
 73
4
 74
0
 40
0
 40
0
 40
0
 40
0
 40
1
 40
1
 40
1
 40
1
 10
675.593840
 20
767.590040
 30
0.0
 10
674.851760
 20
768.332104
 30
0.0
 10
674.721600
 20
767.941680
 30
0.0
 10
675.156560
 20
766.278328
 30
0.0
  0
SPLINE
  5
2f7
100
AcDbEntity
  8
0
 62
1
100
AcDbSpline
 70
8
 71
3
 72
8
 73
4
 74
0
 40
0
 40
0
 40
0
 40
0
 40
1
 40
1
 40
1
 40
1
 10
675.156560
 20
766.278328
 30
0.0
 10
675.510240
 20
764.926128
 30
0.0
 10
675.963520
 20
764.472832
 30
0.0
 10
676.213120
 20
765.221776
 30
0.0
  0
SPLINE
  5
2f8
100
AcDbEntity
  8
0
 62
1
100
AcDbSpline
 70
8
 71
3
 72
8
 73
4
 74
0
 40
0
 40
0
 40
0
 40
0
 40
1
 40
1
 40
1
 40
1
 10
676.213120
 20
765.221776
 30
0.0
 10
676.453600
 20
765.943216
 30
0.0
 10
676.174720
 20
767.008936
 30
0.0
 10
675.593840
 20
767.590040
 30
0.0
  0
LWPOLYLINE
  5
2f9
100
AcDbEntity
  8
0
 62
1
100
AcDbPolyline
 90
2
 70
1
 10
675.108720
 20
646.545992
 30
0.0
 10
675.108480
 20
646.545992
 30
0.0
  0
SPLINE
  5
2fa
100
AcDbEntity
  8
0
 62
1
100
AcDbSpline
 70
8
 71
3
 72
8
 73
4
 74
0
 40
0
 40
0
 40
0
 40
0
 40
1
 40
1
 40
1
 40
1
 10
424.483360
 20
999.699360
 30
0.0
 10
423.603040
 20
1000.578792
 30
0.0
 10
423.475520
 20
999.772640
 30
0.0
 10
423.954960
 20
996.358488
 30
0.0
  0
SPLINE
  5
2fb
100
AcDbEntity
  8
0
 62
1
100
AcDbSpline
 70
8
 71
3
 72
8
 73
4
 74
0
 40
0
 40
0
 40
0
 40
0
 40
1
 40
1
 40
1
 40
1
 10
423.954960
 20
996.358488
 30
0.0
 10
424.450960
 20
992.826592
 30
0.0
 10
424.336320
 20
992.181184
 30
0.0
 10
423.422000
 20
993.358488
 30
0.0
  0
SPLINE
  5
2fc
100
AcDbEntity
  8
0
 62
1
100
AcDbSpline
 70
8
 71
3
 72
8
 73
4
 74
0
 40
0
 40
0
 40
0
 40
0
 40
1
 40
1
 40
1
 40
1
 10
423.422000
 20
993.358488
 30
0.0
 10
422.492880
 20
994.554760
 30
0.0
 10
422.375280
 20
994.175096
 30
0.0
 10
422.841200
 20
991.483488
 30
0.0
  0
SPLINE
  5
2fd
100
AcDbEntity
  8
0
 62
1
100
AcDbSpline
 70
8
 71
3
 72
8
 73
4
 74
0
 40
0
 40
0
 40
0
 40
0
 40
1
 40
1
 40
1
 40
1
 10
422.841200
 20
991.483488
 30
0.0
 10
423.162480
 20
989.627240
 30
0.0
 10
423.488080
 20
986.702240
 30
0.0
 10
423.564720
 20
984.983488
 30
0.0
  0
SPLINE
  5
2fe
100
AcDbEntity
  8
0
 62
1
100
AcDbSpline
 70
8
 71
3
 72
8
 73
4
 74
0
 40
0
 40
0
 40
0
 40
0
 40
1
 40
1
 40
1
 40
1
 10
423.564720
 20
984.983488
 30
0.0
 10
423.641520
 20
983.264736
 30
0.0
 10
424.140480
 20
985.611880
 30
0.0
 10
424.673840
 20
990.199360
 30
0.0
  0
SPLINE
  5
2ff
100
AcDbEntity
  8
0
 62
1
100
AcDbSpline
 70
8
 71
3
 72
8
 73
4
 74
0
 40
0
 40
0
 40
0
 40
0
 40
1
 40
1
 40
1
 40
1
 10
424.673840
 20
990.199360
 30
0.0
 10
425.386880
 20
996.332136
 30
0.0
 10
425.336480
 20
998.847088
 30
0.0
 10
424.483360
 20
999.699360
 30
0.0
  0
LWPOLYLINE
  5
300
100
AcDbEntity
  8
0
 62
1
100
AcDbPolyline
 90
2
 70
1
 10
675.593840
 20
767.590040
 30
0.0
 10
675.593840
 20
767.590040
 30
0.0
  0
LWPOLYLINE
  5
301
100
AcDbEntity
  8
0
 62
1
100
AcDbPolyline
 90
2
 70
1
 10
424.483360
 20
999.699360
 30
0.0
 10
424.483360
 20
999.699360
 30
0.0
  0
ENDSEC
  0
SECTION
  2
OBJECTS
  0
DICTIONARY
  5
C
330
0
100
AcDbDictionary
  3
ACAD_GROUP
350
D
  3
ACAD_MLINESTYLE
350
17
  0
DICTIONARY
  5
D
330
C
100
AcDbDictionary
  0
DICTIONARY
  5
1A
330
C
100
AcDbDictionary
  0
DICTIONARY
  5
17
330
C
100
AcDbDictionary
  3
STANDARD
350
18
  0
DICTIONARY
  5
19
330
C
100
AcDbDictionary
  0
ENDSEC
  0
EOF
