  0
SECTION
  2
HEADER
  9
$ACADVER
  1
AC1014
  9
$HANDSEED
  5
FFFF
  9
$MEASUREMENT
 70
     1
  0
ENDSEC
  0
SECTION
  2
TABLES
  0
TABLE
  2
VPORT
  5
8
330
0
100
AcDbSymbolTable
 70
     4
  0
VPORT
  5
2E
330
8
100
AcDbSymbolTableRecord
100
AcDbViewportTableRecord
  2
*ACTIVE
 70
     0
 10
0.0
 20
0.0
 11
1.0
 21
1.0
 12
210.0
 22
148.5
 13
0.0
 23
0.0
 14
10.0
 24
10.0
 15
10.0
 25
10.0
 16
0.0
 26
0.0
 36
1.0
 17
0.0
 27
0.0
 37
0.0
 40
341.0
 41
1.24
 42
50.0
 43
0.0
 44
0.0
 50
0.0
 51
0.0
 71
     0
 72
   100
 73
     1
 74
     3
 75
     0
 76
     0
 77
     0
 78
     0
  0
ENDTAB
  0
TABLE
  2
LTYPE
  5
5
330
0
100
AcDbSymbolTable
 70
     1
  0
LTYPE
  5
14
330
5
100
AcDbSymbolTableRecord
100
AcDbLinetypeTableRecord
  2
BYBLOCK
 70
     0
  3

 72
    65
 73
     0
 40
0.0
  0
LTYPE
  5
15
330
5
100
AcDbSymbolTableRecord
100
AcDbLinetypeTableRecord
  2
BYLAYER
 70
     0
  3

 72
    65
 73
     0
 40
0.0
  0
LTYPE
  5
16
330
5
100
AcDbSymbolTableRecord
100
AcDbLinetypeTableRecord
  2
CONTINUOUS
 70
     0
  3
Solid line
 72
    65
 73
     0
 40
0.0
  0
ENDTAB
  0
TABLE
  2
LAYER
  5
2
100
AcDbSymbolTable
 70
2
  0
LAYER
  5
50
100
AcDbSymbolTableRecord
100
AcDbLayerTableRecord
  2
0
 70
0
  6
CONTINUOUS
  0
LAYER
  5
51
100
AcDbSymbolTableRecord
100
AcDbLayerTableRecord
  2
Default
 70
0
  6
CONTINUOUS
  0
ENDTAB
  0
TABLE
  2
STYLE
  5
3
330
0
100
AcDbSymbolTable
 70
     1
  0
STYLE
  5
11
330
3
100
AcDbSymbolTableRecord
100
AcDbTextStyleTableRecord
  2
STANDARD
 70
     0
 40
0.0
 41
1.0
 50
0.0
 71
     0
 42
2.5
  3
txt
  4

  0
ENDTAB
  0
TABLE
  2
VIEW
  5
6
330
0
100
AcDbSymbolTable
 70
     0
  0
ENDTAB
  0
TABLE
  2
UCS
  5
7
330
0
100
AcDbSymbolTable
 70
     0
  0
ENDTAB
  0
TABLE
  2
APPID
  5
9
330
0
100
AcDbSymbolTable
 70
     2
  0
APPID
  5
12
330
9
100
AcDbSymbolTableRecord
100
AcDbRegAppTableRecord
  2
ACAD
 70
     0
  0
ENDTAB
  0
TABLE
  2
DIMSTYLE
  5
A
330
0
100
AcDbSymbolTable
 70
     1
  0
DIMSTYLE
105
27
330
A
100
AcDbSymbolTableRecord
100
AcDbDimStyleTableRecord
  2
ISO-25
 70
     0
  3

  4

  5

  6

  7

 40
1.0
 41
2.5
 42
0.625
 43
3.75
 44
1.25
 45
0.0
 46
0.0
 47
0.0
 48
0.0
140
2.5
141
2.5
142
0.0
143
0.03937007874016
144
1.0
145
0.0
146
1.0
147
0.625
 71
     0
 72
     0
 73
     0
 74
     0
 75
     0
 76
     0
 77
     1
 78
     8
170
     0
171
     3
172
     1
173
     0
174
     0
175
     0
176
     0
177
     0
178
     0
270
     2
271
     2
272
     2
273
     2
274
     3
340
11
275
     0
280
     0
281
     0
282
     0
283
     0
284
     8
285
     0
286
     0
287
     3
288
     0
  0
ENDTAB
  0
TABLE
  2
BLOCK_RECORD
  5
1
330
0
100
AcDbSymbolTable
 70
     1
  0
BLOCK_RECORD
  5
1F
330
1
100
AcDbSymbolTableRecord
100
AcDbBlockTableRecord
  2
*MODEL_SPACE
  0
BLOCK_RECORD
  5
1B
330
1
100
AcDbSymbolTableRecord
100
AcDbBlockTableRecord
  2
*PAPER_SPACE
  0
ENDTAB
  0
ENDSEC
  0
SECTION
  2
BLOCKS
  0
BLOCK
  5
20
330
1F
100
AcDbEntity
  8
0
100
AcDbBlockBegin
  2
*MODEL_SPACE
 70
     0
 10
0.0
 20
0.0
 30
0.0
  3
*MODEL_SPACE
  1

  0
ENDBLK
  5
21
330
1F
100
AcDbEntity
  8
0
100
AcDbBlockEnd
  0
BLOCK
  5
1C
330
1B
100
AcDbEntity
 67
     1
  8
0
100
AcDbBlockBegin
  2
*PAPER_SPACE
  1

  0
ENDBLK
  5
1D
330
1B
100
AcDbEntity
 67
     1
  8
0
100
AcDbBlockEnd
  0
ENDSEC
  0
SECTION
  2
ENTITIES
  0
SPLINE
  5
100
100
AcDbEntity
  8
Default
 62
1
100
AcDbSpline
 70
8
 71
3
 72
8
 73
4
 74
0
 40
0
 40
0
 40
0
 40
0
 40
1
 40
1
 40
1
 40
1
 10
68.122067
 20
335.533908
 30
0.0
 10
69.115083
 20
335.505508
 30
0.0
 10
70.108163
 20
335.479108
 30
0.0
 10
71.101291
 20
335.454708
 30
0.0
  0
SPLINE
  5
101
100
AcDbEntity
  8
Default
 62
1
100
AcDbSpline
 70
8
 71
3
 72
8
 73
4
 74
0
 40
0
 40
0
 40
0
 40
0
 40
1
 40
1
 40
1
 40
1
 10
71.101291
 20
335.454708
 30
0.0
 10
75.439203
 20
335.348068
 30
0.0
 10
79.748507
 20
335.280284
 30
0.0
 10
84.087640
 20
335.251868
 30
0.0
  0
SPLINE
  5
102
100
AcDbEntity
  8
Default
 62
1
100
AcDbSpline
 70
8
 71
3
 72
8
 73
4
 74
0
 40
0
 40
0
 40
0
 40
0
 40
1
 40
1
 40
1
 40
1
 10
84.087640
 20
335.251868
 30
0.0
 10
88.425912
 20
335.223468
 30
0.0
 10
92.737448
 20
335.234748
 30
0.0
 10
97.075536
 20
335.282988
 30
0.0
  0
SPLINE
  5
103
100
AcDbEntity
  8
Default
 62
1
100
AcDbSpline
 70
8
 71
3
 72
8
 73
4
 74
0
 40
0
 40
0
 40
0
 40
0
 40
1
 40
1
 40
1
 40
1
 10
97.075536
 20
335.282988
 30
0.0
 10
104.622368
 20
335.366932
 30
0.0
 10
112.234992
 20
335.563316
 30
0.0
 10
119.776976
 20
335.843556
 30
0.0
  0
SPLINE
  5
104
100
AcDbEntity
  8
Default
 62
1
100
AcDbSpline
 70
8
 71
3
 72
8
 73
4
 74
0
 40
0
 40
0
 40
0
 40
0
 40
1
 40
1
 40
1
 40
1
 10
119.776976
 20
335.843556
 30
0.0
 10
125.541032
 20
336.057732
 30
0.0
 10
131.487424
 20
336.329484
 30
0.0
 10
137.246408
 20
336.653092
 30
0.0
  0
SPLINE
  5
105
100
AcDbEntity
  8
Default
 62
1
100
AcDbSpline
 70
8
 71
3
 72
8
 73
4
 74
0
 40
0
 40
0
 40
0
 40
0
 40
1
 40
1
 40
1
 40
1
 10
137.246408
 20
336.653092
 30
0.0
 10
142.023952
 20
336.921548
 30
0.0
 10
146.604368
 20
337.221316
 30
0.0
 10
151.376424
 20
337.574028
 30
0.0
  0
SPLINE
  5
106
100
AcDbEntity
  8
Default
 62
1
100
AcDbSpline
 70
8
 71
3
 72
8
 73
4
 74
0
 40
0
 40
0
 40
0
 40
0
 40
1
 40
1
 40
1
 40
1
 10
151.376424
 20
337.574028
 30
0.0
 10
153.097104
 20
337.701204
 30
0.0
 10
154.817448
 20
337.833388
 30
0.0
 10
156.537424
 20
337.969972
 30
0.0
  0
SPLINE
  5
107
100
AcDbEntity
  8
Default
 62
1
100
AcDbSpline
 70
8
 71
3
 72
8
 73
4
 74
0
 40
0
 40
0
 40
0
 40
0
 40
1
 40
1
 40
1
 40
1
 10
167.449200
 20
398.253788
 30
0.0
 10
166.744032
 20
398.212268
 30
0.0
 10
166.038808
 20
398.171740
 30
0.0
 10
165.333544
 20
398.132108
 30
0.0
  0
SPLINE
  5
108
100
AcDbEntity
  8
Default
 62
1
100
AcDbSpline
 70
8
 71
3
 72
8
 73
4
 74
0
 40
0
 40
0
 40
0
 40
0
 40
1
 40
1
 40
1
 40
1
 10
165.333544
 20
398.132108
 30
0.0
 10
159.574560
 20
397.808500
 30
0.0
 10
153.628168
 20
397.536748
 30
0.0
 10
147.864104
 20
397.322572
 30
0.0
  0
SPLINE
  5
109
100
AcDbEntity
  8
Default
 62
1
100
AcDbSpline
 70
8
 71
3
 72
8
 73
4
 74
0
 40
0
 40
0
 40
0
 40
0
 40
1
 40
1
 40
1
 40
1
 10
147.864104
 20
397.322572
 30
0.0
 10
140.322120
 20
397.042332
 30
0.0
 10
132.709504
 20
396.845948
 30
0.0
 10
125.162672
 20
396.762004
 30
0.0
  0
SPLINE
  5
10a
100
AcDbEntity
  8
Default
 62
1
100
AcDbSpline
 70
8
 71
3
 72
8
 73
4
 74
0
 40
0
 40
0
 40
0
 40
0
 40
1
 40
1
 40
1
 40
1
 10
125.162672
 20
396.762004
 30
0.0
 10
120.824576
 20
396.713764
 30
0.0
 10
116.513048
 20
396.702404
 30
0.0
 10
107.835640
 20
396.759604
 30
0.0
  0
SPLINE
  5
10b
100
AcDbEntity
  8
Default
 62
1
100
AcDbSpline
 70
8
 71
3
 72
8
 73
4
 74
0
 40
0
 40
0
 40
0
 40
0
 40
1
 40
1
 40
1
 40
1
 10
107.835640
 20
396.759604
 30
0.0
 10
107.835640
 20
396.759604
 30
0.0
 10
103.526328
 20
396.827364
 30
0.0
 10
99.188416
 20
396.934028
 30
0.0
  0
SPLINE
  5
10c
100
AcDbEntity
  8
Default
 62
1
100
AcDbSpline
 70
8
 71
3
 72
8
 73
4
 74
0
 40
0
 40
0
 40
0
 40
0
 40
1
 40
1
 40
1
 40
1
 10
99.188416
 20
396.934028
 30
0.0
 10
92.584712
 20
397.096380
 30
0.0
 10
85.958656
 20
397.348108
 30
0.0
 10
79.361043
 20
397.673652
 30
0.0
  0
SPLINE
  5
10d
100
AcDbEntity
  8
Default
 62
1
100
AcDbSpline
 70
8
 71
3
 72
8
 73
4
 74
0
 40
0
 40
0
 40
0
 40
0
 40
1
 40
1
 40
1
 40
1
 10
156.618120
 20
337.580740
 30
0.0
 10
160.263960
 20
357.934601
 30
0.0
 10
163.909797
 20
378.288465
 30
0.0
 10
167.555632
 20
398.642332
 30
0.0
  0
LWPOLYLINE
  5
10e
100
AcDbEntity
  8
Default
 62
1
100
AcDbPolyline
 90
2
 70
0
 10
68.112355
 20
335.140388
 30
0.0
 10
79.067145
 20
398.157596
 30
0.0
  0
ENDSEC
  0
SECTION
  2
OBJECTS
  0
DICTIONARY
  5
C
330
0
100
AcDbDictionary
  3
ACAD_GROUP
350
D
  3
ACAD_MLINESTYLE
350
17
  0
DICTIONARY
  5
D
330
C
100
AcDbDictionary
  0
DICTIONARY
  5
1A
330
C
100
AcDbDictionary
  0
DICTIONARY
  5
17
330
C
100
AcDbDictionary
  3
STANDARD
350
18
  0
DICTIONARY
  5
19
330
C
100
AcDbDictionary
  0
ENDSEC
  0
EOF
