0
SECTION
2
HEADER
9
$INSUNITS
70
5
9
$ACADVER
1
AC1014
9
$HANDSEED
5
FFFF
0
ENDSEC
0
SECTION
2
TABLES
0
TABLE
2
VPORT
5
8
100
AcDbSymbolTable
0
ENDTAB
0
TABLE
2
LTYPE
5
5
100
AcDbSymbolTable
0
LTYPE
5
14
100
AcDbSymbolTableRecord
100
AcDbLinetypeTableRecord
2
BYBLOCK
70
0
0
LTYPE
5
15
100
AcDbSymbolTableRecord
100
AcDbLinetypeTableRecord
2
BYLAYER
70
0
0
ENDTAB
0
TABLE
2
LAYER
5
2
100
AcDbSymbolTable
70
2
0
LAYER
5
50
100
AcDbSymbolTableRecord
100
AcDbLayerTableRecord
2
0
70
0
6
CONTINUOUS
0
ENDTAB
0
TABLE
2
STYLE
5
3
100
AcDbSymbolTable
70
1
0
STYLE
5
11
100
AcDbSymbolTableRecord
100
AcDbTextStyleTableRecord
2
STANDARD
70
0
0
ENDTAB
0
TABLE
2
VIEW
5
6
100
AcDbSymbolTable
70
0
0
ENDTAB
0
TABLE
2
UCS
5
7
100
AcDbSymbolTable
70
0
0
ENDTAB
0
TABLE
2
APPID
5
9
100
AcDbSymbolTable
70
2
0
APPID
5
12
100
AcDbSymbolTableRecord
100
AcDbRegAppTableRecord
2
ACAD
70
0
0
ENDTAB
0
TABLE
2
DIMSTYLE
5
A
100
AcDbSymbolTable
70
1
0
ENDTAB
0
TABLE
2
BLOCK_RECORD
5
1
100
AcDbSymbolTable
70
1
0
BLOCK_RECORD
5
1F
100
AcDbSymbolTableRecord
100
AcDbBlockTableRecord
2
*MODEL_SPACE
0
BLOCK_RECORD
5
1B
100
AcDbSymbolTableRecord
100
AcDbBlockTableRecord
2
*PAPER_SPACE
0
ENDTAB
0
ENDSEC
0
SECTION
2
BLOCKS
0
BLOCK
5
20
100
AcDbEntity
100
AcDbBlockBegin
2
*MODEL_SPACE
0
ENDBLK
5
21
100
AcDbEntity
100
AcDbBlockEnd
0
BLOCK
5
1C
100
AcDbEntity
100
AcDbBlockBegin
2
*PAPER_SPACE
0
ENDBLK
5
1D
100
AcDbEntity
100
AcDbBlockEnd
0
ENDSEC
0
SECTION
2
ENTITIES
0
LINE
5
100
100
AcDbEntity
8
0
100
AcDbLine
10
-5.2229387317335059
20
4.5228140908574748
30
0
11
-1.7229387317335063
21
4.5228140908574748
31
0
0
LINE
5
101
100
AcDbEntity
8
0
100
AcDbLine
10
1.777061268266493
20
4.5228140908574748
30
0
11
-1.7229387317335061
21
4.5228140908574748
31
0
0
LINE
5
102
100
AcDbEntity
8
0
100
AcDbLine
10
1.777061268266493
20
0.52281409085747554
30
0
11
1.777061268266493
21
4.5228140908574748
31
0
0
SPLINE
5
103
100
AcDbEntity
8
0
100
AcDbSpline
70
1064
71
5
72
31
73
25
74
0
42
0.000000001
43
0.0000000001
44
0.0000000001
40
0
40
0
40
0
40
0
40
0
40
0
40
0.050000000000000003
40
0.10000000000000001
40
0.15000000000000002
40
0.20000000000000001
40
0.25
40
0.29999999999999999
40
0.34999999999999998
40
0.39999999999999997
40
0.44999999999999996
40
0.49999999999999994
40
0.54999999999999993
40
0.59999999999999998
40
0.65000000000000002
40
0.70000000000000007
40
0.75000000000000011
40
0.80000000000000016
40
0.8500000000000002
40
0.90000000000000024
40
0.95000000000000029
40
1
40
1
40
1
40
1
40
1
40
1
10
-1.7229387317335063
20
0.5228140908574751
30
0
10
-1.6542748390859334
20
0.51936605721075513
30
0
10
-1.524487358105223
20
0.50534749852666261
30
0
10
-1.3525567122392192
20
0.46300602972198529
30
0
10
-1.1678773902103416
20
0.36328210806927536
30
0
10
-1.0222681508566804
20
0.1737909903118014
30
0
10
-0.97201518207785353
20
-0.065523497543122325
30
0
10
-1.0735785531703397
20
-0.30742572330541018
30
0
10
-1.323803884482434
20
-0.51127068912910589
30
0
10
-1.5946224518551806
20
-0.68344245830506967
30
0
10
-1.7559977332793779
20
-0.83918478485854597
30
0
10
-1.7277901381195946
20
-0.9946790324445679
30
0
10
-1.5731797400899854
20
-1.1424081726996227
30
0
10
-1.3179660944481617
20
-1.2570699710210977
30
0
10
-0.987124761753149
20
-1.3127655140608636
30
0
10
-0.59796037680782044
20
-1.2896421028547949
30
0
10
-0.17118192425917381
20
-1.2008532278592257
30
0
10
0.26866274941786961
20
-1.0619056064593635
30
0
10
0.69556488418517171
20
-0.87337405242594612
30
0
10
1.0837519115664072
20
-0.63153667107890943
30
0
10
1.4096090966437869
20
-0.32773699030705966
30
0
10
1.6047774693149535
20
-0.027587764334724658
30
0
10
1.7082279809724259
20
0.23328506913385447
30
0
10
1.7574137325482031
20
0.42357504934311296
30
0
10
1.7770612682664937
20
0.52281409085747543
30
0
0
LINE
5
104
100
AcDbEntity
8
0
100
AcDbLine
10
-1.7229387317335063
20
0.5228140908574751
30
0
11
-5.2229387317335059
21
0.5228140908574751
31
0
0
LINE
5
105
100
AcDbEntity
8
0
100
AcDbLine
10
-5.2229387317335059
20
0.5228140908574751
30
0
11
-5.2229387317335059
21
4.5228140908574748
31
0
0
CIRCLE
5
106
100
AcDbEntity
8
0
100
AcDbCircle
10
-0.60358961989841176
20
-0.68436519762183001
30
0
40
0.30000000000000004
0
CIRCLE
5
107
100
AcDbEntity
8
0
100
AcDbCircle
10
0.34198731194832149
20
-0.14480234120730345
30
0
40
0.5
0
CIRCLE
5
108
100
AcDbEntity
8
0
100
AcDbCircle
10
-3.4875402842253629
20
-3.4978288941936735
30
0
40
0.99999999999999989
0
CIRCLE
5
109
100
AcDbEntity
8
0
100
AcDbCircle
10
-3.4875402842253629
20
-3.4978288941936735
30
0
40
0.70000000000000018
0
CIRCLE
5
110
100
AcDbEntity
8
0
100
AcDbCircle
10
-2.720571542072737
20
-5.5796505962129412
30
0
40
0.60000000000000031
0
CIRCLE
5
111
100
AcDbEntity
8
0
100
AcDbCircle
10
-2.720571542072737
20
-5.5796505962129412
30
0
40
0.39999999999999986
0
CIRCLE
5
112
100
AcDbEntity
8
0
100
AcDbCircle
10
-0.50590476470584211
20
-4.0967926675436717
30
0
40
1.7
0
CIRCLE
5
113
100
AcDbEntity
8
0
100
AcDbCircle
10
-1.5059047647058421
20
-4.0967926675436717
30
0
40
0.40000000000000013
0
CIRCLE
5
114
100
AcDbEntity
8
0
100
AcDbCircle
10
-0.50590476470584211
20
-5.0967926675436717
30
0
40
0.39999999999999991
0
CIRCLE
5
115
100
AcDbEntity
8
0
100
AcDbCircle
10
-0.50590476470584211
20
-4.0967926675436717
30
0
40
0.40000000000000002
0
CIRCLE
5
116
100
AcDbEntity
8
0
100
AcDbCircle
10
0.49409523529415789
20
-4.0967926675436717
30
0
40
0.40000000000000024
0
CIRCLE
5
117
100
AcDbEntity
8
0
100
AcDbCircle
10
-0.50590476470584211
20
-3.0967926675436717
30
0
40
0.39999999999999991
0
ENDSEC
0
SECTION
2
OBJECTS
0
DICTIONARY
5
C
100
AcDbDictionary
3
ACAD_GROUP
350
D
3
ACAD_MLINESTYLE
350
17
0
DICTIONARY
5
D
100
AcDbDictionary
0
DICTIONARY
5
1A
330
C
100
AcDbDictionary
0
DICTIONARY
5
17
100
AcDbDictionary
0
ENDSEC
0
EOF
