  0
SECTION
  2
HEADER
  9
$ACADVER
  1
AC1018
  9
$ACADMAINTVER
 70
     0
  9
$DWGCODEPAGE
  3
ANSI_1252
  9
$INSBASE
 10
0.0
 20
0.0
 30
0.0
  9
$EXTMIN
 10
-848.3124296775775
 20
90.42010254522022
 30
0.0
  9
$EXTMAX
 10
1590.087570322422
 20
1309.620102545221
 30
0.0
  9
$LIMMIN
 10
0.0
 20
0.0
  9
$LIMMAX
 10
12.0
 20
9.0
  9
$ORTHOMODE
 70
     0
  9
$REGENMODE
 70
     1
  9
$FILLMODE
 70
     1
  9
$QTEXTMODE
 70
     0
  9
$MIRRTEXT
 70
     1
  9
$LTSCALE
 40
1.0
  9
$ATTMODE
 70
     1
  9
$TEXTSIZE
 40
0.2
  9
$TRACEWID
 40
0.05
  9
$TEXTSTYLE
  7
Standard
  9
$CLAYER
  8
side
  9
$CELTYPE
  6
ByLayer
  9
$CECOLOR
 62
   256
  9
$CELTSCALE
 40
1.0
  9
$DISPSILH
 70
     0
  9
$DIMSCALE
 40
1.0
  9
$DIMASZ
 40
0.18
  9
$DIMEXO
 40
0.0625
  9
$DIMDLI
 40
0.38
  9
$DIMRND
 40
0.0
  9
$DIMDLE
 40
0.0
  9
$DIMEXE
 40
0.18
  9
$DIMTP
 40
0.0
  9
$DIMTM
 40
0.0
  9
$DIMTXT
 40
0.18
  9
$DIMCEN
 40
0.09
  9
$DIMTSZ
 40
0.0
  9
$DIMTOL
 70
     0
  9
$DIMLIM
 70
     0
  9
$DIMTIH
 70
     1
  9
$DIMTOH
 70
     1
  9
$DIMSE1
 70
     0
  9
$DIMSE2
 70
     0
  9
$DIMTAD
 70
     0
  9
$DIMZIN
 70
     0
  9
$DIMBLK
  1

  9
$DIMASO
 70
     1
  9
$DIMSHO
 70
     1
  9
$DIMPOST
  1

  9
$DIMAPOST
  1

  9
$DIMALT
 70
     0
  9
$DIMALTD
 70
     2
  9
$DIMALTF
 40
25.4
  9
$DIMLFAC
 40
1.0
  9
$DIMTOFL
 70
     0
  9
$DIMTVP
 40
0.0
  9
$DIMTIX
 70
     0
  9
$DIMSOXD
 70
     0
  9
$DIMSAH
 70
     0
  9
$DIMBLK1
  1

  9
$DIMBLK2
  1

  9
$DIMSTYLE
  2
Standard
  9
$DIMCLRD
 70
     0
  9
$DIMCLRE
 70
     0
  9
$DIMCLRT
 70
     0
  9
$DIMTFAC
 40
1.0
  9
$DIMGAP
 40
0.09
  9
$DIMJUST
 70
     0
  9
$DIMSD1
 70
     0
  9
$DIMSD2
 70
     0
  9
$DIMTOLJ
 70
     1
  9
$DIMTZIN
 70
     0
  9
$DIMALTZ
 70
     0
  9
$DIMALTTZ
 70
     0
  9
$DIMUPT
 70
     0
  9
$DIMDEC
 70
     4
  9
$DIMTDEC
 70
     4
  9
$DIMALTU
 70
     2
  9
$DIMALTTD
 70
     2
  9
$DIMTXSTY
  7
Standard
  9
$DIMAUNIT
 70
     0
  9
$DIMADEC
 70
     0
  9
$DIMALTRND
 40
0.0
  9
$DIMAZIN
 70
     0
  9
$DIMDSEP
 70
    46
  9
$DIMATFIT
 70
     3
  9
$DIMFRAC
 70
     0
  9
$DIMLDRBLK
  1

  9
$DIMLUNIT
 70
     2
  9
$DIMLWD
 70
    -2
  9
$DIMLWE
 70
    -2
  9
$DIMTMOVE
 70
     2
  9
$LUNITS
 70
     2
  9
$LUPREC
 70
     2
  9
$SKETCHINC
 40
0.1
  9
$FILLETRAD
 40
0.5
  9
$AUNITS
 70
     0
  9
$AUPREC
 70
     0
  9
$MENU
  1
.
  9
$ELEVATION
 40
0.0
  9
$PELEVATION
 40
0.0
  9
$THICKNESS
 40
0.0
  9
$LIMCHECK
 70
     0
  9
$CHAMFERA
 40
0.0
  9
$CHAMFERB
 40
0.0
  9
$CHAMFERC
 40
0.0
  9
$CHAMFERD
 40
0.0
  9
$SKPOLY
 70
     0
  9
$TDCREATE
 40
2457824.631042674
  9
$TDUCREATE
 40
2457824.401876007
  9
$TDUPDATE
 40
2457824.631074977
  9
$TDUUPDATE
 40
2457824.40190831
  9
$TDINDWG
 40
0.0000000116
  9
$TDUSRTIMER
 40
0.0000000116
  9
$USRTIMER
 70
     1
  9
$ANGBASE
 50
0.0
  9
$ANGDIR
 70
     0
  9
$PDMODE
 70
     0
  9
$PDSIZE
 40
0.0
  9
$PLINEWID
 40
0.0
  9
$SPLFRAME
 70
     0
  9
$SPLINETYPE
 70
     6
  9
$SPLINESEGS
 70
     8
  9
$HANDSEED
  5
278
  9
$SURFTAB1
 70
     6
  9
$SURFTAB2
 70
     6
  9
$SURFTYPE
 70
     6
  9
$SURFU
 70
     6
  9
$SURFV
 70
     6
  9
$UCSBASE
  2

  9
$UCSNAME
  2

  9
$UCSORG
 10
0.0
 20
0.0
 30
0.0
  9
$UCSXDIR
 10
1.0
 20
0.0
 30
0.0
  9
$UCSYDIR
 10
0.0
 20
1.0
 30
0.0
  9
$UCSORTHOREF
  2

  9
$UCSORTHOVIEW
 70
     0
  9
$UCSORGTOP
 10
0.0
 20
0.0
 30
0.0
  9
$UCSORGBOTTOM
 10
0.0
 20
0.0
 30
0.0
  9
$UCSORGLEFT
 10
0.0
 20
0.0
 30
0.0
  9
$UCSORGRIGHT
 10
0.0
 20
0.0
 30
0.0
  9
$UCSORGFRONT
 10
0.0
 20
0.0
 30
0.0
  9
$UCSORGBACK
 10
0.0
 20
0.0
 30
0.0
  9
$PUCSBASE
  2

  9
$PUCSNAME
  2

  9
$PUCSORG
 10
0.0
 20
0.0
 30
0.0
  9
$PUCSXDIR
 10
1.0
 20
0.0
 30
0.0
  9
$PUCSYDIR
 10
0.0
 20
1.0
 30
0.0
  9
$PUCSORTHOREF
  2

  9
$PUCSORTHOVIEW
 70
     0
  9
$PUCSORGTOP
 10
0.0
 20
0.0
 30
0.0
  9
$PUCSORGBOTTOM
 10
0.0
 20
0.0
 30
0.0
  9
$PUCSORGLEFT
 10
0.0
 20
0.0
 30
0.0
  9
$PUCSORGRIGHT
 10
0.0
 20
0.0
 30
0.0
  9
$PUCSORGFRONT
 10
0.0
 20
0.0
 30
0.0
  9
$PUCSORGBACK
 10
0.0
 20
0.0
 30
0.0
  9
$USERI1
 70
     0
  9
$USERI2
 70
     0
  9
$USERI3
 70
     0
  9
$USERI4
 70
     0
  9
$USERI5
 70
     0
  9
$USERR1
 40
0.0
  9
$USERR2
 40
0.0
  9
$USERR3
 40
0.0
  9
$USERR4
 40
0.0
  9
$USERR5
 40
0.0
  9
$WORLDVIEW
 70
     1
  9
$SHADEDGE
 70
     3
  9
$SHADEDIF
 70
    70
  9
$TILEMODE
 70
     1
  9
$MAXACTVP
 70
    64
  9
$PINSBASE
 10
0.0
 20
0.0
 30
0.0
  9
$PLIMCHECK
 70
     0
  9
$PEXTMIN
 10
1.000000000000000E+20
 20
1.000000000000000E+20
 30
1.000000000000000E+20
  9
$PEXTMAX
 10
-1.000000000000000E+20
 20
-1.000000000000000E+20
 30
-1.000000000000000E+20
  9
$PLIMMIN
 10
0.0
 20
0.0
  9
$PLIMMAX
 10
12.0
 20
9.0
  9
$UNITMODE
 70
     0
  9
$VISRETAIN
 70
     1
  9
$PLINEGEN
 70
     0
  9
$PSLTSCALE
 70
     1
  9
$TREEDEPTH
 70
  3020
  9
$CMLSTYLE
  2
Standard
  9
$CMLJUST
 70
     0
  9
$CMLSCALE
 40
1.0
  9
$PROXYGRAPHICS
 70
     1
  9
$MEASUREMENT
 70
     0
  9
$CELWEIGHT
370
    -1
  9
$ENDCAPS
280
     0
  9
$JOINSTYLE
280
     0
  9
$LWDISPLAY
290
     0
  9
$INSUNITS
 70
     4
  9
$HYPERLINKBASE
  1

  9
$STYLESHEET
  1

  9
$XEDIT
290
     1
  9
$CEPSNTYPE
380
     0
  9
$PSTYLEMODE
290
     1
  9
$FINGERPRINTGUID
  2
{7DB59409-C095-4DA8-A029-12C558284F5C}
  9
$VERSIONGUID
  2
{FAEB1C32-E019-11D5-929B-00C0DF256EC4}
  9
$EXTNAMES
290
     1
  9
$PSVPSCALE
 40
0.0
  9
$OLESTARTUP
290
     0
  9
$SORTENTS
280
   127
  9
$INDEXCTL
280
     0
  9
$HIDETEXT
280
     1
  9
$XCLIPFRAME
290
     0
  9
$HALOGAP
280
     0
  9
$OBSCOLOR
 70
   257
  9
$OBSLTYPE
280
     0
  9
$INTERSECTIONDISPLAY
280
     0
  9
$INTERSECTIONCOLOR
 70
   257
  9
$DIMASSOC
280
     2
  9
$PROJECTNAME
  1

  0
ENDSEC
  0
SECTION
  2
CLASSES
  0
CLASS
  1
ACDBDICTIONARYWDFLT
  2
AcDbDictionaryWithDefault
  3
ObjectDBX Classes
 90
        0
 91
        4
280
     0
281
     0
  0
CLASS
  1
VISUALSTYLE
  2
AcDbVisualStyle
  3
ObjectDBX Classes
 90
     4095
 91
        4
280
     0
281
     0
  0
CLASS
  1
MATERIAL
  2
AcDbMaterial
  3
ObjectDBX Classes
 90
     1153
 91
        4
280
     0
281
     0
  0
CLASS
  1
SCALE
  2
AcDbScale
  3
ObjectDBX Classes
 90
     1153
 91
        4
280
     0
281
     0
  0
CLASS
  1
SUN
  2
AcDbSun
  3
SCENEOE
 90
     1153
 91
        4
280
     0
281
     0
  0
CLASS
  1
DICTIONARYVAR
  2
AcDbDictionaryVar
  3
ObjectDBX Classes
 90
        0
 91
        4
280
     0
281
     0
  0
ENDSEC
  0
SECTION
  2
TABLES
  0
TABLE
  2
VPORT
  5
8
330
0
100
AcDbSymbolTable
 70
     1
  0
VPORT
  5
29
330
8
100
AcDbSymbolTableRecord
100
AcDbViewportTableRecord
  2
*Active
 70
     0
 10
0.0
 20
0.0
 11
1.0
 21
1.0
 12
370.8875703224223
 22
700.0201025452203
 13
0.0
 23
0.0
 14
0.5
 24
0.5
 15
0.5
 25
0.5
 16
0.0
 26
0.0
 36
1.0
 17
0.0
 27
0.0
 37
0.0
 40
1243.584
 41
1.999999999999999
 42
50.0
 43
0.0
 44
0.0
 50
0.0
 51
0.0
 71
     0
 72
   100
 73
     1
 74
     3
 75
     0
 76
     0
 77
     0
 78
     0
281
     0
 65
     1
110
0.0
120
0.0
130
0.0
111
1.0
121
0.0
131
0.0
112
0.0
122
1.0
132
0.0
 79
     0
146
0.0
  0
ENDTAB
  0
TABLE
  2
LTYPE
  5
5
330
0
100
AcDbSymbolTable
 70
     1
  0
LTYPE
  5
14
330
5
100
AcDbSymbolTableRecord
100
AcDbLinetypeTableRecord
  2
ByBlock
 70
     0
  3

 72
    65
 73
     0
 40
0.0
  0
LTYPE
  5
15
330
5
100
AcDbSymbolTableRecord
100
AcDbLinetypeTableRecord
  2
ByLayer
 70
     0
  3

 72
    65
 73
     0
 40
0.0
  0
LTYPE
  5
16
330
5
100
AcDbSymbolTableRecord
100
AcDbLinetypeTableRecord
  2
Continuous
 70
     0
  3
Solid line
 72
    65
 73
     0
 40
0.0
  0
ENDTAB
  0
TABLE
  2
LAYER
  5
2
330
0
100
AcDbSymbolTable
 70
     3
  0
LAYER
  5
10
330
2
100
AcDbSymbolTableRecord
100
AcDbLayerTableRecord
  2
0
 70
     0
 62
     7
  6
Continuous
370
    -3
390
F
  0
LAYER
  5
6A
330
2
100
AcDbSymbolTableRecord
100
AcDbLayerTableRecord
  2
side
 70
     0
 62
    18
420
        0
  6
Continuous
370
    -3
390
F
  0
LAYER
  5
71
330
2
100
AcDbSymbolTableRecord
100
AcDbLayerTableRecord
  2
Make2D$visible$lines
 70
     0
 62
    18
420
        0
  6
Continuous
370
    -3
390
F
  0
ENDTAB
  0
TABLE
  2
STYLE
  5
3
330
0
100
AcDbSymbolTable
 70
     1
  0
STYLE
  5
11
330
3
100
AcDbSymbolTableRecord
100
AcDbTextStyleTableRecord
  2
Standard
 70
     0
 40
0.0
 41
1.0
 50
0.0
 71
     0
 42
0.2
  3
txt
  4

  0
ENDTAB
  0
TABLE
  2
VIEW
  5
6
330
0
100
AcDbSymbolTable
 70
     0
  0
ENDTAB
  0
TABLE
  2
UCS
  5
7
330
0
100
AcDbSymbolTable
 70
     0
  0
ENDTAB
  0
TABLE
  2
APPID
  5
9
330
0
100
AcDbSymbolTable
 70
     1
  0
APPID
  5
12
330
9
100
AcDbSymbolTableRecord
100
AcDbRegAppTableRecord
  2
ACAD
 70
     0
  0
ENDTAB
  0
TABLE
  2
DIMSTYLE
  5
A
330
0
100
AcDbSymbolTable
 70
     1
100
AcDbDimStyleTable
  0
DIMSTYLE
105
27
330
A
100
AcDbSymbolTableRecord
100
AcDbDimStyleTableRecord
  2
Standard
 70
     0
178
     0
340
11
  0
ENDTAB
  0
TABLE
  2
BLOCK_RECORD
  5
1
330
0
100
AcDbSymbolTable
 70
     1
  0
BLOCK_RECORD
  5
1F
330
1
100
AcDbSymbolTableRecord
100
AcDbBlockTableRecord
  2
*Model_Space
340
22
  0
BLOCK_RECORD
  5
1B
330
1
100
AcDbSymbolTableRecord
100
AcDbBlockTableRecord
  2
*Paper_Space
340
1E
  0
BLOCK_RECORD
  5
23
330
1
100
AcDbSymbolTableRecord
100
AcDbBlockTableRecord
  2
*Paper_Space0
340
26
  0
ENDTAB
  0
ENDSEC
  0
SECTION
  2
BLOCKS
  0
BLOCK
  5
20
330
1F
100
AcDbEntity
  8
0
100
AcDbBlockBegin
  2
*Model_Space
 70
     0
 10
0.0
 20
0.0
 30
0.0
  3
*Model_Space
  1
*Model_Space
  0
ENDBLK
  5
21
330
1F
100
AcDbEntity
  8
0
100
AcDbBlockEnd
  0
BLOCK
  5
1C
330
1B
100
AcDbEntity
 67
     1
  8
0
100
AcDbBlockBegin
  2
*Paper_Space
 70
     0
 10
0.0
 20
0.0
 30
0.0
  3
*Paper_Space
  1
*Paper_Space
  0
ENDBLK
  5
1D
330
1B
100
AcDbEntity
 67
     1
  8
0
100
AcDbBlockEnd
  0
BLOCK
  5
24
330
23
100
AcDbEntity
  8
0
100
AcDbBlockBegin
  2
*Paper_Space0
 70
     0
 10
0.0
 20
0.0
 30
0.0
  3
*Paper_Space0
  1
*Paper_Space0
  0
ENDBLK
  5
25
330
23
100
AcDbEntity
  8
0
100
AcDbBlockEnd
  0
ENDSEC
  0
SECTION
  2
ENTITIES
  0
POLYLINE
  5
6B
330
1F
100
AcDbEntity
  8
side
100
AcDb2dPolyline
 66
     1
 10
0.0
 20
0.0
 30
0.0
 70
     1
  0
VERTEX
  5
6C
330
6B
100
AcDbEntity
  8
side
100
AcDbVertex
100
AcDb2dVertex
 10
-848.3124296775775
 20
90.42010254522022
 30
0.0
  0
VERTEX
  5
6D
330
6B
100
AcDbEntity
  8
side
100
AcDbVertex
100
AcDb2dVertex
 10
1590.087570322422
 20
90.42010254522022
 30
0.0
  0
VERTEX
  5
6E
330
6B
100
AcDbEntity
  8
side
100
AcDbVertex
100
AcDb2dVertex
 10
1590.087570322422
 20
1309.620102545221
 30
0.0
  0
VERTEX
  5
6F
330
6B
100
AcDbEntity
  8
side
100
AcDbVertex
100
AcDb2dVertex
 10
-848.3124296775775
 20
1309.620102545221
 30
0.0
  0
SEQEND
  5
70
330
6B
100
AcDbEntity
  8
side
  0
SPLINE
  5
72
330
1F
100
AcDbEntity
  8
Make2D$visible$lines
100
AcDbSpline
210
0.0
220
0.0
230
1.0
 70
    24
 71
     2
 72
     6
 73
     3
 74
     0
 42
0.000000001
 43
0.0000000001
 40
0.0
 40
0.0
 40
0.0
 40
350.0
 40
350.0
 40
350.0
 10
-815.4563847440464
 20
1277.975296434987
 30
0.0
 10
-815.4563847440464
 20
1102.975296434987
 30
0.0
 10
-815.4563847440464
 20
927.9752964349871
 30
0.0
  0
SPLINE
  5
73
330
1F
100
AcDbEntity
  8
Make2D$visible$lines
100
AcDbSpline
210
0.0
220
0.0
230
1.0
 70
    24
 71
     2
 72
     6
 73
     3
 74
     0
 42
0.000000001
 43
0.0000000001
 40
0.0
 40
0.0
 40
0.0
 40
899.9999999999999
 40
899.9999999999999
 40
899.9999999999999
 10
84.54361525595354
 20
1277.975296434987
 30
0.0
 10
-365.4563847440464
 20
1277.975296434987
 30
0.0
 10
-815.4563847440464
 20
1277.975296434987
 30
0.0
  0
SPLINE
  5
74
330
1F
100
AcDbEntity
  8
Make2D$visible$lines
100
AcDbSpline
210
0.0
220
0.0
230
1.0
 70
    24
 71
     2
 72
     6
 73
     3
 74
     0
 42
0.000000001
 43
0.0000000001
 40
0.0
 40
0.0
 40
0.0
 40
350.0
 40
350.0
 40
350.0
 10
84.54361525595354
 20
927.9752964349871
 30
0.0
 10
84.54361525595354
 20
1102.975296434987
 30
0.0
 10
84.54361525595354
 20
1277.975296434987
 30
0.0
  0
SPLINE
  5
75
330
1F
100
AcDbEntity
  8
Make2D$visible$lines
100
AcDbSpline
210
0.0
220
0.0
230
1.0
 70
    24
 71
     2
 72
     6
 73
     3
 74
     0
 42
0.000000001
 43
0.0000000001
 40
0.0
 40
0.0
 40
0.0
 40
899.9999999999999
 40
899.9999999999999
 40
899.9999999999999
 10
-815.4563847440464
 20
927.9752964349871
 30
0.0
 10
-365.4563847440464
 20
927.9752964349871
 30
0.0
 10
84.54361525595354
 20
927.9752964349871
 30
0.0
  0
ARC
  5
76
330
1F
100
AcDbEntity
  8
side
100
AcDbCircle
 10
-617.6133209555384
 20
1225.887730425605
 30
0.0
 40
3.0
100
AcDbArc
 50
315.9702273326325
 51
135.9045842847243
  0
SPLINE
  5
77
330
1F
100
AcDbEntity
  8
Make2D$visible$lines
100
AcDbSpline
210
0.0
220
0.0
230
1.0
 70
    24
 71
     2
 72
     6
 73
     3
 74
     0
 42
0.000000001
 43
0.0000000001
 40
0.0
 40
0.0
 40
0.0
 40
0.0023902833489839
 40
0.0023902833489839
 40
0.0023902833489839
 10
-615.4563847440464
 20
1227.975296434987
 30
0.0
 10
-615.4575798857209
 20
1227.975296434987
 30
0.0
 10
-615.4587750273953
 20
1227.975296434987
 30
0.0
  0
SPLINE
  5
78
330
1F
100
AcDbEntity
  8
Make2D$visible$lines
100
AcDbSpline
210
0.0
220
0.0
230
1.0
 70
    24
 71
     2
 72
     6
 73
     3
 74
     0
 42
0.000000001
 43
0.0000000001
 40
49.99753019453639
 40
49.99753019453639
 40
49.99753019453639
 40
50.0
 40
50.0
 40
50.0
 10
-615.4563847440464
 20
1227.972826629524
 30
0.0
 10
-615.4563847440464
 20
1227.974061532255
 30
0.0
 10
-615.4563847440464
 20
1227.975296434987
 30
0.0
  0
ARC
  5
79
330
1F
100
AcDbEntity
  8
side
100
AcDbCircle
 10
-630.8307365255308
 20
1226.076871720081
 30
0.0
 40
3.0
100
AcDbArc
 50
39.2576145014339
 51
222.1079559959838
  0
SPLINE
  5
7A
330
1F
100
AcDbEntity
  8
Make2D$visible$lines
100
AcDbSpline
210
0.0
220
0.0
230
1.0
 70
    24
 71
     2
 72
     6
 73
     3
 74
     0
 42
0.000000001
 43
0.0000000001
 40
4.31148213963518
 40
4.31148213963518
 40
4.31148213963518
 40
13.05142612580114
 40
13.05142612580114
 40
13.05142612580114
 10
-619.7678668836817
 20
1227.975296434987
 30
0.0
 10
-624.1378388767646
 20
1227.975296434987
 30
0.0
 10
-628.5078108698475
 20
1227.975296434987
 30
0.0
  0
ARC
  5
7B
330
1F
100
AcDbEntity
  8
side
100
AcDbCircle
 10
-631.1842007992533
 20
1180.298967060385
 30
0.0
 40
3.0
100
AcDbArc
 50
128.6133235840855
 51
309.2351253957548
  0
SPLINE
  5
7C
330
1F
100
AcDbEntity
  8
Make2D$visible$lines
100
AcDbSpline
210
0.0
220
0.0
230
1.0
 70
    24
 71
     2
 72
     6
 73
     3
 74
     0
 42
0.000000001
 43
0.0000000001
 40
3.910013640959321
 40
3.910013640959321
 40
3.910013640959321
 40
45.33220325238521
 40
45.33220325238521
 40
45.33220325238521
 10
-633.0563847440463
 20
1224.065282794028
 30
0.0
 10
-633.0563847440463
 20
1203.354187988315
 30
0.0
 10
-633.0563847440463
 20
1182.643093182602
 30
0.0
  0
ARC
  5
7D
330
1F
100
AcDbEntity
  8
side
100
AcDbCircle
 10
-617.477290664874
 20
1180.162160712084
 30
0.0
 40
3.0
100
AcDbArc
 50
226.7988392448203
 51
47.65173658826131
  0
SPLINE
  5
7E
330
1F
100
AcDbEntity
  8
Make2D$visible$lines
100
AcDbSpline
210
0.0
220
0.0
230
1.0
 70
    24
 71
     2
 72
     6
 73
     3
 74
     0
 42
0.000000001
 43
0.0000000001
 40
4.4040560277498
 40
4.4040560277498
 40
4.4040560277498
 40
45.82733778670013
 40
45.82733778670013
 40
45.82733778670013
 10
-615.4563847440464
 20
1182.379352462737
 30
0.0
 10
-615.4563847440464
 20
1203.090993342212
 30
0.0
 10
-615.4563847440464
 20
1223.802634221687
 30
0.0
  0
SPLINE
  5
7F
330
1F
100
AcDbEntity
  8
Make2D$visible$lines
100
AcDbSpline
210
0.0
220
0.0
230
1.0
 70
    24
 71
     2
 72
     6
 73
     3
 74
     0
 42
0.000000001
 43
0.0000000001
 40
3.769696744397443
 40
3.769696744397443
 40
3.769696744397443
 40
13.52540845728248
 40
13.52540845728248
 40
13.52540845728248
 10
-629.286687999649
 20
1177.975296434987
 30
0.0
 10
-624.4088321432064
 20
1177.975296434987
 30
0.0
 10
-619.5309762867638
 20
1177.975296434987
 30
0.0
  0
ARC
  5
80
330
1F
100
AcDbEntity
  8
side
100
AcDbCircle
 10
19.03331531058765
 20
1226.012148260397
 30
0.0
 40
3.0
100
AcDbArc
 50
40.87286144273336
 51
225.8478064120505
  0
ARC
  5
81
330
1F
100
AcDbEntity
  8
side
100
AcDbCircle
 10
32.33607087604682
 20
1226.012148260397
 30
0.0
 40
3.0
100
AcDbArc
 50
317.3789303589995
 51
139.1271385572666
  0
SPLINE
  5
82
330
1F
100
AcDbEntity
  8
Make2D$visible$lines
100
AcDbSpline
210
0.0
220
0.0
230
1.0
 70
    24
 71
     2
 72
     6
 73
     3
 74
     0
 42
0.000000001
 43
0.0000000001
 40
4.476034901069484
 40
4.476034901069484
 40
4.476034901069484
 40
13.24180942420309
 40
13.24180942420309
 40
13.24180942420309
 10
30.06758035488414
 20
1227.975296434987
 30
0.0
 10
25.68469309331735
 20
1227.975296434987
 30
0.0
 10
21.30180583175056
 20
1227.975296434987
 30
0.0
  0
SPLINE
  5
83
330
1F
100
AcDbEntity
  8
Make2D$visible$lines
100
AcDbSpline
210
0.0
220
0.0
230
1.0
 70
    24
 71
     2
 72
     6
 73
     3
 74
     0
 42
0.000000001
 43
0.0000000001
 40
4.289728035271821
 40
4.289728035271821
 40
4.289728035271821
 40
46.00541198855981
 40
46.00541198855981
 40
46.00541198855981
 10
34.54361525595354
 20
1182.265024470259
 30
0.0
 10
34.54361525595354
 20
1203.122866446903
 30
0.0
 10
34.54361525595354
 20
1223.980708423547
 30
0.0
  0
ARC
  5
84
330
1F
100
AcDbEntity
  8
side
100
AcDbCircle
 10
32.50500141311508
 20
1180.064103390396
 30
0.0
 40
3.0
100
AcDbArc
 50
224.1284253733028
 51
47.19245281654659
  0
ARC
  5
85
330
1F
100
AcDbEntity
  8
side
100
AcDbCircle
 10
19.00500725614333
 20
1180.151663010002
 30
0.0
 40
3.0
100
AcDbArc
 50
133.403403259074
 51
313.493244658625
  0
SPLINE
  5
86
330
1F
100
AcDbEntity
  8
Make2D$visible$lines
100
AcDbSpline
210
0.0
220
0.0
230
1.0
 70
    24
 71
     2
 72
     6
 73
     3
 74
     0
 42
0.000000001
 43
0.0000000001
 40
4.126199141585317
 40
4.126199141585317
 40
4.126199141585317
 40
13.40804329011964
 40
13.40804329011964
 40
13.40804329011964
 10
21.06981439753903
 20
1177.975296434987
 30
0.0
 10
25.71073647180614
 20
1177.975296434987
 30
0.0
 10
30.35165854607325
 20
1177.975296434987
 30
0.0
  0
SPLINE
  5
87
330
1F
100
AcDbEntity
  8
Make2D$visible$lines
100
AcDbSpline
210
0.0
220
0.0
230
1.0
 70
    24
 71
     2
 72
     6
 73
     3
 74
     0
 42
0.000000001
 43
0.0000000001
 40
4.115624349060894
 40
4.115624349060894
 40
4.115624349060894
 40
45.64403185093943
 40
45.64403185093943
 40
45.64403185093943
 10
16.94361525595363
 20
1223.859672085926
 30
0.0
 10
16.94361525595363
 20
1203.095468334987
 30
0.0
 10
16.94361525595363
 20
1182.331264584048
 30
0.0
  0
ARC
  5
88
330
1F
100
AcDbEntity
  8
side
100
AcDbCircle
 10
19.03287375248337
 20
1025.839822288877
 30
0.0
 40
3.0
100
AcDbArc
 50
45.38357378292127
 51
225.8595588753359
  0
ARC
  5
89
330
1F
100
AcDbEntity
  8
side
100
AcDbCircle
 10
32.2539236060455
 20
1026.082277823055
 30
0.0
 40
3.0
100
AcDbArc
 50
319.7498297586724
 51
140.8756024845194
  0
SPLINE
  5
8A
330
1F
100
AcDbEntity
  8
Make2D$visible$lines
100
AcDbSpline
210
0.0
220
0.0
230
1.0
 70
    24
 71
     2
 72
     6
 73
     3
 74
     0
 42
0.000000001
 43
0.0000000001
 40
4.617025002669727
 40
4.617025002669727
 40
4.617025002669727
 40
13.40367003546108
 40
13.40367003546108
 40
13.40367003546108
 10
29.92659025328371
 20
1027.975296434987
 30
0.0
 10
25.53326773688806
 20
1027.975296434987
 30
0.0
 10
21.13994522049242
 20
1027.975296434987
 30
0.0
  0
ARC
  5
8B
330
1F
100
AcDbEntity
  8
side
100
AcDbCircle
 10
32.53801019498209
 20
980.1992218005803
 30
0.0
 40
3.0
100
AcDbArc
 50
227.842995470173
 51
48.0459025818603
  0
SPLINE
  5
8C
330
1F
100
AcDbEntity
  8
Make2D$visible$lines
100
AcDbSpline
210
0.0
220
0.0
230
1.0
 70
    24
 71
     2
 72
     6
 73
     3
 74
     0
 42
0.000000001
 43
0.0000000001
 40
4.454967350721811
 40
4.454967350721811
 40
4.454967350721811
 40
46.16860264583511
 40
46.16860264583511
 40
46.16860264583511
 10
34.54361525595354
 20
982.4302637857089
 30
0.0
 10
34.54361525595354
 20
1003.287081433265
 30
0.0
 10
34.54361525595354
 20
1024.143899080822
 30
0.0
  0
ARC
  5
8D
330
1F
100
AcDbEntity
  8
side
100
AcDbCircle
 10
18.52804117541481
 20
980.5138687280478
 30
0.0
 40
3.0
100
AcDbArc
 50
121.8800011904925
 51
302.2002582419634
  0
SPLINE
  5
8E
330
1F
100
AcDbEntity
  8
Make2D$visible$lines
100
AcDbSpline
210
0.0
220
0.0
230
1.0
 70
    24
 71
     2
 72
     6
 73
     3
 74
     0
 42
0.000000001
 43
0.0000000001
 40
3.183066189473055
 40
3.183066189473055
 40
3.183066189473055
 40
13.58090146541799
 40
13.58090146541799
 40
13.58090146541799
 10
20.12668144542667
 20
977.9752964349871
 30
0.0
 10
25.32559908339906
 20
977.9752964349871
 30
0.0
 10
30.52451672137144
 20
977.9752964349871
 30
0.0
  0
SPLINE
  5
8F
330
1F
100
AcDbEntity
  8
Make2D$visible$lines
100
AcDbSpline
210
0.0
220
0.0
230
1.0
 70
    24
 71
     2
 72
     6
 73
     3
 74
     0
 42
0.000000001
 43
0.0000000001
 40
4.288378912856609
 40
4.288378912856609
 40
4.288378912856609
 40
44.91395945282095
 40
44.91395945282095
 40
44.91395945282095
 10
16.94361525595363
 20
1023.68691752213
 30
0.0
 10
16.94361525595363
 20
1003.374127252148
 30
0.0
 10
16.94361525595363
 20
983.0613369821662
 30
0.0
  0
ARC
  5
90
330
1F
100
AcDbEntity
  8
side
100
AcDbCircle
 10
-630.830830735826
 20
1025.924238310241
 30
0.0
 40
3.0
100
AcDbArc
 50
43.13235918425737
 51
222.1106393038855
  0
SPLINE
  5
91
330
1F
100
AcDbEntity
  8
Make2D$visible$lines
100
AcDbSpline
210
0.0
220
0.0
230
1.0
 70
    24
 71
     2
 72
     6
 73
     3
 74
     0
 42
0.000000001
 43
0.0000000001
 40
17.56377478594584
 40
17.56377478594584
 40
17.56377478594584
 40
17.60000000000002
 40
17.60000000000002
 40
17.60000000000002
 10
-633.0201595299922
 20
1027.975296434987
 30
0.0
 10
-633.0382721370192
 20
1027.975296434987
 30
0.0
 10
-633.0563847440463
 20
1027.975296434987
 30
0.0
  0
SPLINE
  5
92
330
1F
100
AcDbEntity
  8
Make2D$visible$lines
100
AcDbSpline
210
0.0
220
0.0
230
1.0
 70
    24
 71
     2
 72
     6
 73
     3
 74
     0
 42
0.000000001
 43
0.0000000001
 40
0.0
 40
0.0
 40
0.0
 40
0.0393649681002938
 40
0.0393649681002938
 40
0.0393649681002938
 10
-633.0563847440463
 20
1027.975296434987
 30
0.0
 10
-633.0563847440463
 20
1027.955613950937
 30
0.0
 10
-633.0563847440463
 20
1027.935931466887
 30
0.0
  0
ARC
  5
93
330
1F
100
AcDbEntity
  8
side
100
AcDbCircle
 10
-617.6594113175057
 20
1025.997083382057
 30
0.0
 40
3.0
100
AcDbArc
 50
317.2516613078767
 51
138.7455389789708
  0
SPLINE
  5
94
330
1F
100
AcDbEntity
  8
Make2D$visible$lines
100
AcDbSpline
210
0.0
220
0.0
230
1.0
 70
    24
 71
     2
 72
     6
 73
     3
 74
     0
 42
0.000000001
 43
0.0000000001
 40
4.458391980043614
 40
4.458391980043614
 40
4.458391980043614
 40
13.18511719761329
 40
13.18511719761329
 40
13.18511719761329
 10
-619.9147767240901
 20
1027.975296434987
 30
0.0
 10
-624.2781393328748
 20
1027.975296434987
 30
0.0
 10
-628.6415019416596
 20
1027.975296434987
 30
0.0
  0
ARC
  5
95
330
1F
100
AcDbEntity
  8
side
100
AcDbCircle
 10
-617.3874526877424
 20
980.2167529467577
 30
0.0
 40
3.0
100
AcDbArc
 50
228.3442886342202
 51
49.93252423443431
  0
SPLINE
  5
96
330
1F
100
AcDbEntity
  8
Make2D$visible$lines
100
AcDbSpline
210
0.0
220
0.0
230
1.0
 70
    24
 71
     2
 72
     6
 73
     3
 74
     0
 42
0.000000001
 43
0.0000000001
 40
4.537317264697694
 40
4.537317264697694
 40
4.537317264697694
 40
45.98544858701456
 40
45.98544858701456
 40
45.98544858701456
 10
-615.4563847440464
 20
982.5126136996847
 30
0.0
 10
-615.4563847440464
 20
1003.236679360843
 30
0.0
 10
-615.4563847440464
 20
1023.960745022002
 30
0.0
  0
ARC
  5
97
330
1F
100
AcDbEntity
  8
side
100
AcDbCircle
 10
-631.2341320772686
 20
980.3511867272385
 30
0.0
 40
3.0
100
AcDbArc
 50
127.4030087452773
 51
307.6306224222652
  0
SPLINE
  5
98
330
1F
100
AcDbEntity
  8
Make2D$visible$lines
100
AcDbSpline
210
0.0
220
0.0
230
1.0
 70
    24
 71
     2
 72
     6
 73
     3
 74
     0
 42
0.000000001
 43
0.0000000001
 40
3.65395824333364
 40
3.65395824333364
 40
3.65395824333364
 40
13.67497300310319
 40
13.67497300310319
 40
13.67497300310319
 10
-629.4024265007127
 20
977.9752964349871
 30
0.0
 10
-624.391919120828
 20
977.9752964349871
 30
0.0
 10
-619.3814117409432
 20
977.9752964349871
 30
0.0
  0
SPLINE
  5
99
330
1F
100
AcDbEntity
  8
Make2D$visible$lines
100
AcDbSpline
210
0.0
220
0.0
230
1.0
 70
    24
 71
     2
 72
     6
 73
     3
 74
     0
 42
0.000000001
 43
0.0000000001
 40
4.062751281390719
 40
4.062751281390719
 40
4.062751281390719
 40
45.24096153392013
 40
45.24096153392013
 40
45.24096153392013
 10
-633.0563847440463
 20
1023.912545153597
 30
0.0
 10
-633.0563847440463
 20
1003.323440027332
 30
0.0
 10
-633.0563847440463
 20
982.734334901067
 30
0.0
  0
SPLINE
  5
9A
330
1F
100
AcDbEntity
  8
side
100
AcDbSpline
210
0.0
220
0.0
230
1.0
 70
    24
 71
     2
 72
     6
 73
     3
 74
     0
 42
0.000000001
 43
0.0000000001
 40
4.251828160226104
 40
4.251828160226104
 40
4.251828160226104
 40
45.93760127383414
 40
45.93760127383414
 40
45.93760127383414
 10
34.03869890411966
 20
621.9903404791917
 30
0.0
 10
34.03869890411966
 20
642.8332270359967
 30
0.0
 10
34.03869890411966
 20
663.6761135928018
 30
0.0
  0
ARC
  5
9B
330
1F
100
AcDbEntity
  8
side
100
AcDbCircle
 10
31.92297960082419
 20
665.8030202267806
 30
0.0
 40
3.0
100
AcDbArc
 50
314.8489177796899
 51
139.8220249566879
  0
SPLINE
  5
9C
330
1F
100
AcDbEntity
  8
side
100
AcDbSpline
210
0.0
220
0.0
230
1.0
 70
    24
 71
     2
 72
     6
 73
     3
 74
     0
 42
0.000000001
 43
0.0000000001
 40
4.407851577201756
 40
4.407851577201756
 40
4.407851577201756
 40
13.55692181576142
 40
13.55692181576142
 40
13.55692181576142
 10
29.630847326918
 20
667.7385123189673
 30
0.0
 10
25.05631220763814
 20
667.7385123189674
 30
0.0
 10
20.48177708835829
 20
667.7385123189674
 30
0.0
  0
ARC
  5
9D
330
1F
100
AcDbEntity
  8
side
100
AcDbCircle
 10
18.47505900878878
 20
665.5084713890452
 30
0.0
 40
3.0
100
AcDbArc
 50
48.01731254303552
 51
227.2510957766769
  0
SPLINE
  5
9E
330
1F
100
AcDbEntity
  8
side
100
AcDbSpline
210
0.0
220
0.0
230
1.0
 70
    24
 71
     2
 72
     6
 73
     3
 74
     0
 42
0.000000001
 43
0.0000000001
 40
4.433047403837546
 40
4.433047403837546
 40
4.433047403837546
 40
45.76546593560053
 40
45.76546593560053
 40
45.76546593560053
 10
16.43869890411997
 20
663.3054649151297
 30
0.0
 10
16.43869890411986
 20
642.6392556492467
 30
0.0
 10
16.43869890411975
 20
621.9730463833638
 30
0.0
  0
ARC
  5
9F
330
1F
100
AcDbEntity
  8
side
100
AcDbCircle
 10
18.51357850507497
 20
619.8062804427185
 30
0.0
 40
3.0
100
AcDbArc
 50
133.7590014069214
 51
316.428753096963
  0
SPLINE
  5
A0
330
1F
100
AcDbEntity
  8
side
100
AcDbSpline
210
0.0
220
0.0
230
1.0
 70
    24
 71
     2
 72
     6
 73
     3
 74
     0
 42
0.000000001
 43
0.0000000001
 40
4.248433139845256
 40
4.248433139845256
 40
4.248433139845256
 40
13.36769076513756
 40
13.36769076513756
 40
13.36769076513756
 10
20.68713204395999
 20
617.7385123189677
 30
0.0
 10
25.24676085660894
 20
617.7385123189677
 30
0.0
 10
29.8063896692579
 20
617.7385123189677
 30
0.0
  0
ARC
  5
A1
330
1F
100
AcDbEntity
  8
side
100
AcDbCircle
 10
31.95711237381443
 20
619.8300170041417
 30
0.0
 40
3.0
100
AcDbArc
 50
224.2002497946665
 51
46.06338338775122
  0
ARC
  5
A2
330
1F
100
AcDbEntity
  8
Make2D$visible$lines
100
AcDbCircle
 10
-114.0334779560394
 20
619.9906724107866
 30
0.0
 40
3.0
100
AcDbArc
 50
129.986546094451
 51
311.3472122894619
  0
SPLINE
  5
A3
330
1F
100
AcDbEntity
  8
Make2D$visible$lines
100
AcDbSpline
210
0.0
220
0.0
230
1.0
 70
    24
 71
     2
 72
     6
 73
     3
 74
     0
 42
0.000000001
 43
0.0000000001
 40
3.909684618556407
 40
3.909684618556407
 40
3.909684618556407
 40
13.36118799669745
 40
13.36118799669745
 40
13.36118799669745
 10
-112.0516164773237
 20
617.7385123189675
 30
0.0
 10
-107.3258647882527
 20
617.7385123189677
 30
0.0
 10
-102.6001130991817
 20
617.7385123189677
 30
0.0
  0
ARC
  5
A4
330
1F
100
AcDbEntity
  8
Make2D$visible$lines
100
AcDbCircle
 10
-100.4445627535242
 20
619.8250411846524
 30
0.0
 40
3.0
100
AcDbArc
 50
224.067841409897
 51
46.01893929462024
  0
SPLINE
  5
A5
330
1F
100
AcDbEntity
  8
Make2D$visible$lines
100
AcDbSpline
210
0.0
220
0.0
230
1.0
 70
    24
 71
     2
 72
     6
 73
     3
 74
     0
 42
0.000000001
 43
0.0000000001
 40
4.245237013119126
 40
4.245237013119126
 40
4.245237013119126
 40
45.69782013582249
 40
45.69782013582249
 40
45.69782013582249
 10
-98.36130109588044
 20
621.9837493320848
 30
0.0
 10
-98.36130109588044
 20
642.7100408934405
 30
0.0
 10
-98.36130109588044
 20
663.4363324547962
 30
0.0
  0
ARC
  5
A6
330
1F
100
AcDbEntity
  8
Make2D$visible$lines
100
AcDbCircle
 10
-100.4248037018574
 20
665.6139359529396
 30
0.0
 40
3.0
100
AcDbArc
 50
313.4589107655391
 51
134.9119888645313
  0
SPLINE
  5
A7
330
1F
100
AcDbEntity
  8
Make2D$visible$lines
100
AcDbSpline
210
0.0
220
0.0
230
1.0
 70
    24
 71
     2
 72
     6
 73
     3
 74
     0
 42
0.000000001
 43
0.0000000001
 40
4.181561921698945
 40
4.181561921698945
 40
4.181561921698945
 40
13.22957176769055
 40
13.22957176769055
 40
13.22957176769055
 10
-102.5428630175791
 20
667.7385123189675
 30
0.0
 10
-107.0668679405837
 20
667.7385123189674
 30
0.0
 10
-111.5908728635884
 20
667.7385123189673
 30
0.0
  0
ARC
  5
A8
330
1F
100
AcDbEntity
  8
Make2D$visible$lines
100
AcDbCircle
 10
-113.7905423174177
 20
665.6985480315616
 30
0.0
 40
3.0
100
AcDbArc
 50
42.84271281458897
 51
223.648632000426
  0
SPLINE
  5
A9
330
1F
100
AcDbEntity
  8
Make2D$visible$lines
100
AcDbSpline
210
0.0
220
0.0
230
1.0
 70
    24
 71
     2
 72
     6
 73
     3
 74
     0
 42
0.000000001
 43
0.0000000001
 40
4.110666179452903
 40
4.110666179452903
 40
4.110666179452903
 40
45.44925383376614
 40
45.44925383376614
 40
45.44925383376614
 10
-115.9613010958803
 20
663.6278461395146
 30
0.0
 10
-115.9613010958803
 20
642.958552312358
 30
0.0
 10
-115.9613010958803
 20
622.2892584852016
 30
0.0
  0
SPLINE
  5
AA
330
1F
100
AcDbEntity
  8
Make2D$visible$lines
100
AcDbSpline
210
0.0
220
0.0
230
1.0
 70
    24
 71
     2
 72
     6
 73
     3
 74
     0
 42
0.000000001
 43
0.0000000001
 40
3.96103205758789
 40
3.96103205758789
 40
3.96103205758789
 40
13.70070300020816
 40
13.70070300020816
 40
13.70070300020816
 10
-629.600269038292
 20
617.7385123189677
 30
0.0
 10
-624.730433566981
 20
617.7385123189677
 30
0.0
 10
-619.86059809567
 20
617.7385123189675
 30
0.0
  0
ARC
  5
AB
330
1F
100
AcDbEntity
  8
Make2D$visible$lines
100
AcDbCircle
 10
-617.7640493789479
 20
619.8843183396534
 30
0.0
 40
3.0
100
AcDbArc
 50
225.6652222619005
 51
53.06446371590528
  0
SPLINE
  5
AC
330
1F
100
AcDbEntity
  8
Make2D$visible$lines
100
AcDbSpline
210
0.0
220
0.0
230
1.0
 70
    24
 71
     2
 72
     6
 73
     3
 74
     0
 42
0.000000001
 43
0.0000000001
 40
4.543742347592143
 40
4.543742347592143
 40
4.543742347592143
 40
45.53185236714597
 40
45.53185236714597
 40
45.53185236714597
 10
-615.9613010958803
 20
622.2822546665598
 30
0.0
 10
-615.9613010958803
 20
642.7763096763366
 30
0.0
 10
-615.9613010958803
 20
663.2703646861135
 30
0.0
  0
ARC
  5
AD
330
1F
100
AcDbEntity
  8
Make2D$visible$lines
100
AcDbCircle
 10
-617.9192728191174
 20
665.5433245913921
 30
0.0
 40
3.0
100
AcDbArc
 50
310.742247361737
 51
132.9684408821409
  0
SPLINE
  5
AE
330
1F
100
AcDbEntity
  8
Make2D$visible$lines
100
AcDbSpline
210
0.0
220
0.0
230
1.0
 70
    24
 71
     2
 72
     6
 73
     3
 74
     0
 42
0.000000001
 43
0.0000000001
 40
4.002757981187198
 40
4.002757981187198
 40
4.002757981187198
 40
12.65013930522886
 40
12.65013930522886
 40
12.65013930522886
 10
-619.964059077068
 20
667.7385123189673
 30
0.0
 10
-624.2877497390886
 20
667.7385123189673
 30
0.0
 10
-628.6114404011091
 20
667.7385123189673
 30
0.0
  0
ARC
  5
AF
330
1F
100
AcDbEntity
  8
Make2D$visible$lines
100
AcDbCircle
 10
-631.1256668032674
 20
666.1018493730039
 30
0.0
 40
3.0
100
AcDbArc
 50
33.06255174283787
 51
215.7201654196924
  0
SPLINE
  5
B0
330
1F
100
AcDbEntity
  8
Make2D$visible$lines
100
AcDbSpline
210
0.0
220
0.0
230
1.0
 70
    24
 71
     2
 72
     6
 73
     3
 74
     0
 42
0.000000001
 43
0.0000000001
 40
3.388143917212875
 40
3.388143917212875
 40
3.388143917212875
 40
45.49407073565684
 40
45.49407073565684
 40
45.49407073565684
 10
-633.5613010958803
 20
664.3503684017546
 30
0.0
 10
-633.5613010958803
 20
643.2974049925326
 30
0.0
 10
-633.5613010958803
 20
622.2444415833107
 30
0.0
  0
ARC
  5
B1
330
1F
100
AcDbEntity
  8
Make2D$visible$lines
100
AcDbCircle
 10
-631.5497578043985
 20
620.0187521201342
 30
0.0
 40
3.0
100
AcDbArc
 50
132.1067812172919
 51
310.5287548244694
  0
SPLINE
  5
B2
330
1F
100
AcDbEntity
  8
Make2D$visible$lines
100
AcDbSpline
210
0.0
220
0.0
230
1.0
 70
    24
 71
     2
 72
     6
 73
     3
 74
     0
 42
0.000000001
 43
0.0000000001
 40
4.245466219813741
 40
4.245466219813741
 40
4.245466219813741
 40
45.76987971463268
 40
45.76987971463268
 40
45.76987971463268
 10
-765.9613010958801
 20
663.4930460991534
 30
0.0
 10
-765.9613010958802
 20
642.730839351743
 30
0.0
 10
-765.9613010958803
 20
621.9686326043327
 30
0.0
  0
ARC
  5
B3
330
1F
100
AcDbEntity
  8
Make2D$visible$lines
100
AcDbCircle
 10
-763.8160327836488
 20
619.8715336871296
 30
0.0
 40
3.0
100
AcDbArc
 50
135.6505293608503
 51
314.6830832136702
  0
SPLINE
  5
B4
330
1F
100
AcDbEntity
  8
Make2D$visible$lines
100
AcDbSpline
210
0.0
220
0.0
230
1.0
 70
    24
 71
     2
 72
     6
 73
     3
 74
     0
 42
0.000000001
 43
0.0000000001
 40
4.254822730340683
 40
4.254822730340683
 40
4.254822730340683
 40
13.59915107461761
 40
13.59915107461761
 40
13.59915107461761
 10
-761.7064783655394
 20
617.7385123189678
 30
0.0
 10
-757.0343141934007
 20
617.7385123189678
 30
0.0
 10
-752.3621500212621
 20
617.7385123189678
 30
0.0
  0
ARC
  5
B5
330
1F
100
AcDbEntity
  8
Make2D$visible$lines
100
AcDbCircle
 10
-750.2108627281575
 20
619.8294362732346
 30
0.0
 40
3.0
100
AcDbArc
 50
224.1847810115473
 51
51.93751100001115
  0
SPLINE
  5
B6
330
1F
100
AcDbEntity
  8
Make2D$visible$lines
100
AcDbSpline
210
0.0
220
0.0
230
1.0
 70
    24
 71
     2
 72
     6
 73
     3
 74
     0
 42
0.000000001
 43
0.0000000001
 40
4.45294041661626
 40
4.45294041661626
 40
4.45294041661626
 40
45.70975705512586
 40
45.70975705512586
 40
45.70975705512586
 10
-748.3613010958802
 20
622.1914527355837
 30
0.0
 10
-748.3613010958802
 20
642.8198610548409
 30
0.0
 10
-748.3613010958802
 20
663.448269374098
 30
0.0
  0
ARC
  5
B7
330
1F
100
AcDbEntity
  8
Make2D$visible$lines
100
AcDbCircle
 10
-750.430133720196
 20
665.6208097241416
 30
0.0
 40
3.0
100
AcDbArc
 50
313.5993141238507
 51
135.0976304139022
  0
SPLINE
  5
B8
330
1F
100
AcDbEntity
  8
Make2D$visible$lines
100
AcDbSpline
210
0.0
220
0.0
230
1.0
 70
    24
 71
     2
 72
     6
 73
     3
 74
     0
 42
0.000000001
 43
0.0000000001
 40
4.193764557311946
 40
4.193764557311946
 40
4.193764557311946
 40
13.36030346367553
 40
13.36030346367553
 40
13.36030346367553
 10
-752.5550656531925
 20
667.7385123189672
 30
0.0
 10
-757.1383351063743
 20
667.7385123189673
 30
0.0
 10
-761.721604559556
 20
667.7385123189674
 30
0.0
  0
ARC
  5
B9
330
1F
100
AcDbEntity
  8
Make2D$visible$lines
100
AcDbCircle
 10
-763.8525838791677
 20
665.6268951331624
 30
0.0
 40
3.0
100
AcDbArc
 50
44.73851841760685
 51
225.3394007624152
  0
ARC
  5
BA
330
1F
100
AcDbEntity
  8
side
100
AcDbCircle
 10
18.59518440091142
 20
819.8093222722381
 30
0.0
 40
3.0
100
AcDbArc
 50
135.9578436528504
 51
316.3485157254625
  0
SPLINE
  5
BB
330
1F
100
AcDbEntity
  8
side
100
AcDbSpline
210
0.0
220
0.0
230
1.0
 70
    24
 71
     2
 72
     6
 73
     3
 74
     0
 42
0.000000001
 43
0.0000000001
 40
4.327141189768512
 40
4.327141189768512
 40
4.327141189768512
 40
13.25754870774094
 40
13.25754870774094
 40
13.25754870774094
 10
20.76584009388421
 20
817.7385123189673
 30
0.0
 10
25.23104385287502
 20
817.7385123189674
 30
0.0
 10
29.69624761186583
 20
817.7385123189675
 30
0.0
  0
ARC
  5
BC
330
1F
100
AcDbEntity
  8
side
100
AcDbCircle
 10
31.8703124320798
 20
819.8057428715446
 30
0.0
 40
3.0
100
AcDbArc
 50
223.5570779688077
 51
43.71423374211768
  0
SPLINE
  5
BD
330
1F
100
AcDbEntity
  8
side
100
AcDbSpline
210
0.0
220
0.0
230
1.0
 70
    24
 71
     2
 72
     6
 73
     3
 74
     0
 42
0.000000001
 43
0.0000000001
 40
4.140416532626881
 40
4.140416532626881
 40
4.140416532626881
 40
45.87215309758469
 40
45.87215309758469
 40
45.87215309758469
 10
34.03869890411966
 20
821.8789288515942
 30
0.0
 10
34.03869890411966
 20
842.7447971340732
 30
0.0
 10
34.03869890411966
 20
863.6106654165523
 30
0.0
  0
ARC
  5
BE
330
1F
100
AcDbEntity
  8
side
100
AcDbCircle
 10
31.87687501134565
 20
865.6906936511276
 30
0.0
 40
3.0
100
AcDbArc
 50
316.1046979275336
 51
136.9523603012809
  0
SPLINE
  5
BF
330
1F
100
AcDbEntity
  8
side
100
AcDbSpline
210
0.0
220
0.0
230
1.0
 70
    24
 71
     2
 72
     6
 73
     3
 74
     0
 42
0.000000001
 43
0.0000000001
 40
4.354183056712165
 40
4.354183056712165
 40
4.354183056712165
 40
13.27168121505174
 40
13.27168121505174
 40
13.27168121505174
 10
29.68451584742047
 20
867.7385123189673
 30
0.0
 10
25.2257667682386
 20
867.7385123189674
 30
0.0
 10
20.76701768905673
 20
867.7385123189675
 30
0.0
  0
ARC
  5
C0
330
1F
100
AcDbEntity
  8
side
100
AcDbCircle
 10
18.57840837986987
 20
865.686686475544
 30
0.0
 40
3.0
100
AcDbArc
 50
43.15245405020167
 51
224.5011409218675
  0
SPLINE
  5
C1
330
1F
100
AcDbEntity
  8
side
100
AcDbSpline
210
0.0
220
0.0
230
1.0
 70
    24
 71
     2
 72
     6
 73
     3
 74
     0
 42
0.000000001
 43
0.0000000001
 40
4.154596244439368
 40
4.154596244439368
 40
4.154596244439368
 40
45.84362769998381
 40
45.84362769998381
 40
45.84362769998381
 10
16.4386989041202
 20
863.5839160745285
 30
0.0
 10
16.43869890411997
 20
842.7394003467518
 30
0.0
 10
16.43869890411975
 20
821.8948846189752
 30
0.0
  0
SPLINE
  5
C2
330
1F
100
AcDbEntity
  8
Make2D$visible$lines
100
AcDbSpline
210
0.0
220
0.0
230
1.0
 70
    24
 71
     2
 72
     6
 73
     3
 74
     0
 42
0.000000001
 43
0.0000000001
 40
4.21933180130273
 40
4.21933180130273
 40
4.21933180130273
 40
45.90382928844723
 40
45.90382928844723
 40
45.90382928844723
 10
-98.36130109588044
 20
821.9578441202665
 30
0.0
 10
-98.36130109588032
 20
842.800092863844
 30
0.0
 10
-98.36130109588021
 20
863.6423416074216
 30
0.0
  0
ARC
  5
C3
330
1F
100
AcDbEntity
  8
Make2D$visible$lines
100
AcDbCircle
 10
-100.5151741150719
 20
865.7306018922517
 30
0.0
 40
3.0
100
AcDbArc
 50
315.8861185537199
 51
137.986670547173
  0
SPLINE
  5
C4
330
1F
100
AcDbEntity
  8
Make2D$visible$lines
100
AcDbSpline
210
0.0
220
0.0
230
1.0
 70
    24
 71
     2
 72
     6
 73
     3
 74
     0
 42
0.000000001
 43
0.0000000001
 40
4.382840429964309
 40
4.382840429964309
 40
4.382840429964309
 40
13.56360051653416
 40
13.56360051653416
 40
13.56360051653416
 10
-102.7441415258443
 20
867.7385123189675
 30
0.0
 10
-107.3345215691293
 20
867.7385123189674
 30
0.0
 10
-111.9249016124143
 20
867.7385123189673
 30
0.0
  0
ARC
  5
C5
330
1F
100
AcDbEntity
  8
Make2D$visible$lines
100
AcDbCircle
 10
-113.9488563408063
 20
865.5241033103558
 30
0.0
 40
3.0
100
AcDbArc
 50
47.57290106678398
 51
227.8700082143052
  0
SPLINE
  5
C6
330
1F
100
AcDbEntity
  8
Make2D$visible$lines
100
AcDbSpline
210
0.0
220
0.0
230
1.0
 70
    24
 71
     2
 72
     6
 73
     3
 74
     0
 42
0.000000001
 43
0.0000000001
 40
4.43928341130814
 40
4.43928341130814
 40
4.43928341130814
 40
45.674333081706
 40
45.674333081706
 40
45.674333081706
 10
-115.9613010958803
 20
863.2992289076591
 30
0.0
 10
-115.9613010958803
 20
842.6817040724604
 30
0.0
 10
-115.9613010958803
 20
822.0641792372618
 30
0.0
  0
ARC
  5
C7
330
1F
100
AcDbEntity
  8
Make2D$visible$lines
100
AcDbCircle
 10
-113.9204234848817
 20
819.8653571487506
 30
0.0
 40
3.0
100
AcDbArc
 50
132.8665071476895
 51
314.8505914741125
  0
SPLINE
  5
C8
330
1F
100
AcDbEntity
  8
Make2D$visible$lines
100
AcDbSpline
210
0.0
220
0.0
230
1.0
 70
    24
 71
     2
 72
     6
 73
     3
 74
     0
 42
0.000000001
 43
0.0000000001
 40
4.156659043478237
 40
4.156659043478237
 40
4.156659043478237
 40
13.33445153966914
 40
13.33445153966914
 40
13.33445153966914
 10
-111.804642052402
 20
817.7385123189678
 30
0.0
 10
-107.2157458043066
 20
817.7385123189677
 30
0.0
 10
-102.6268495562113
 20
817.7385123189675
 30
0.0
  0
ARC
  5
C9
330
1F
100
AcDbEntity
  8
Make2D$visible$lines
100
AcDbCircle
 10
-100.5110681237318
 20
819.8653571487506
 30
0.0
 40
3.0
100
AcDbArc
 50
225.1494085258957
 51
44.22642395816057
  0
SPLINE
  5
CA
330
1F
100
AcDbEntity
  8
Make2D$visible$lines
100
AcDbSpline
210
0.0
220
0.0
230
1.0
 70
    24
 71
     2
 72
     6
 73
     3
 74
     0
 42
0.000000001
 43
0.0000000001
 40
17.57035797490064
 40
17.57035797490064
 40
17.57035797490064
 40
17.59999999999991
 40
17.59999999999991
 40
17.59999999999991
 10
16.46834092921904
 20
667.7385123189675
 30
0.0
 10
16.45351991666939
 20
667.7385123189675
 30
0.0
 10
16.43869890411975
 20
667.7385123189675
 30
0.0
  0
SPLINE
  5
CB
330
1F
100
AcDbEntity
  8
Make2D$visible$lines
100
AcDbSpline
210
0.0
220
0.0
230
1.0
 70
    24
 71
     2
 72
     6
 73
     3
 74
     0
 42
0.000000001
 43
0.0000000001
 40
17.59999999999991
 40
17.59999999999991
 40
17.59999999999991
 40
17.62703445600679
 40
17.62703445600679
 40
17.62703445600679
 10
16.43869890411975
 20
667.7385123189675
 30
0.0
 10
16.43869890411975
 20
667.7249950909641
 30
0.0
 10
16.43869890411975
 20
667.7114778629607
 30
0.0
  0
SPLINE
  5
CC
330
1F
100
AcDbEntity
  8
Make2D$visible$lines
100
AcDbSpline
210
0.0
220
0.0
230
1.0
 70
    24
 71
     2
 72
     6
 73
     3
 74
     0
 42
0.000000001
 43
0.0000000001
 40
349.9999999999999
 40
349.9999999999999
 40
349.9999999999999
 40
1250.0
 40
1250.0
 40
1250.0
 10
-815.9613010958803
 20
567.7385123189677
 30
0.0
 10
-365.9613010958803
 20
567.7385123189677
 30
0.0
 10
84.03869890411966
 20
567.7385123189677
 30
0.0
  0
SPLINE
  5
CD
330
1F
100
AcDbEntity
  8
Make2D$visible$lines
100
AcDbSpline
210
0.0
220
0.0
230
1.0
 70
    24
 71
     2
 72
     6
 73
     3
 74
     0
 42
0.000000001
 43
0.0000000001
 40
1250.0
 40
1250.0
 40
1250.0
 40
1600.0
 40
1600.0
 40
1600.0
 10
84.03869890411966
 20
567.7385123189677
 30
0.0
 10
84.03869890411966
 20
742.7385123189677
 30
0.0
 10
84.03869890411966
 20
917.7385123189675
 30
0.0
  0
SPLINE
  5
CE
330
1F
100
AcDbEntity
  8
Make2D$visible$lines
100
AcDbSpline
210
0.0
220
0.0
230
1.0
 70
    24
 71
     2
 72
     6
 73
     3
 74
     0
 42
0.000000001
 43
0.0000000001
 40
1600.0
 40
1600.0
 40
1600.0
 40
2500.0
 40
2500.0
 40
2500.0
 10
84.03869890411966
 20
917.7385123189675
 30
0.0
 10
-365.9613010958803
 20
917.7385123189675
 30
0.0
 10
-815.9613010958803
 20
917.7385123189675
 30
0.0
  0
SPLINE
  5
CF
330
1F
100
AcDbEntity
  8
Make2D$visible$lines
100
AcDbSpline
210
0.0
220
0.0
230
1.0
 70
    24
 71
     2
 72
     6
 73
     3
 74
     0
 42
0.000000001
 43
0.0000000001
 40
2500.0
 40
2500.0
 40
2500.0
 40
2850.0
 40
2850.0
 40
2850.0
 10
-815.9613010958803
 20
917.7385123189675
 30
0.0
 10
-815.9613010958803
 20
742.7385123189677
 30
0.0
 10
-815.9613010958803
 20
567.7385123189677
 30
0.0
  0
SPLINE
  5
D0
330
1F
100
AcDbEntity
  8
Make2D$visible$lines
100
AcDbSpline
210
0.0
220
0.0
230
1.0
 70
    24
 71
     2
 72
     6
 73
     3
 74
     0
 42
0.000000001
 43
0.0000000001
 40
49.94544966200991
 40
49.94544966200991
 40
49.94544966200991
 40
50.0
 40
50.0
 40
50.0
 10
-633.5613010958803
 20
617.7930626569575
 30
0.0
 10
-633.5613010958803
 20
617.7657874879626
 30
0.0
 10
-633.5613010958803
 20
617.7385123189675
 30
0.0
  0
SPLINE
  5
D1
330
1F
100
AcDbEntity
  8
Make2D$visible$lines
100
AcDbSpline
210
0.0
220
0.0
230
1.0
 70
    24
 71
     2
 72
     6
 73
     3
 74
     0
 42
0.000000001
 43
0.0000000001
 40
50.0
 40
50.0
 40
50.0
 40
50.06205452537553
 40
50.06205452537553
 40
50.06205452537553
 10
-633.5613010958803
 20
617.7385123189675
 30
0.0
 10
-633.5302738331926
 20
617.7385123189677
 30
0.0
 10
-633.499246570505
 20
617.7385123189677
 30
0.0
  0
SPLINE
  5
D2
330
1F
100
AcDbEntity
  8
Make2D$visible$lines
100
AcDbSpline
210
0.0
220
0.0
230
1.0
 70
    24
 71
     2
 72
     6
 73
     3
 74
     0
 42
0.000000001
 43
0.0000000001
 40
49.96407754904297
 40
49.96407754904297
 40
49.96407754904297
 40
50.0
 40
50.0
 40
50.0
 10
-765.9613010958803
 20
617.7744347699246
 30
0.0
 10
-765.9613010958803
 20
617.7564735444461
 30
0.0
 10
-765.9613010958803
 20
617.7385123189675
 30
0.0
  0
SPLINE
  5
D3
330
1F
100
AcDbEntity
  8
Make2D$visible$lines
100
AcDbSpline
210
0.0
220
0.0
230
1.0
 70
    24
 71
     2
 72
     6
 73
     3
 74
     0
 42
0.000000001
 43
0.0000000001
 40
50.0
 40
50.0
 40
50.0
 40
50.03571389412244
 40
50.03571389412244
 40
50.03571389412244
 10
-765.9613010958803
 20
617.7385123189675
 30
0.0
 10
-765.9434441488191
 20
617.7385123189675
 30
0.0
 10
-765.9255872017579
 20
617.7385123189675
 30
0.0
  0
SPLINE
  5
D4
330
1F
100
AcDbEntity
  8
Make2D$visible$lines
100
AcDbSpline
210
0.0
220
0.0
230
1.0
 70
    24
 71
     2
 72
     6
 73
     3
 74
     0
 42
0.000000001
 43
0.0000000001
 40
17.56601440462827
 40
17.56601440462827
 40
17.56601440462827
 40
17.59999999999991
 40
17.59999999999991
 40
17.59999999999991
 10
-98.39528669125207
 20
817.7385123189675
 30
0.0
 10
-98.37829389356625
 20
817.7385123189675
 30
0.0
 10
-98.36130109588044
 20
817.7385123189675
 30
0.0
  0
SPLINE
  5
D5
330
1F
100
AcDbEntity
  8
Make2D$visible$lines
100
AcDbSpline
210
0.0
220
0.0
230
1.0
 70
    24
 71
     2
 72
     6
 73
     3
 74
     0
 42
0.000000001
 43
0.0000000001
 40
17.59999999999991
 40
17.59999999999991
 40
17.59999999999991
 40
17.63435785826326
 40
17.63435785826326
 40
17.63435785826326
 10
-98.36130109588044
 20
817.7385123189675
 30
0.0
 10
-98.36130109588044
 20
817.7556912480992
 30
0.0
 10
-98.36130109588044
 20
817.7728701772309
 30
0.0
  0
SPLINE
  5
D6
330
1F
100
AcDbEntity
  8
side
100
AcDbSpline
210
0.0
220
0.0
230
1.0
 70
    24
 71
     2
 72
     6
 73
     3
 74
     0
 42
0.000000001
 43
0.0000000001
 40
4.04455904361321
 40
4.04455904361321
 40
4.04455904361321
 40
45.51347597627696
 40
45.51347597627696
 40
45.51347597627696
 10
-633.5613010958803
 20
863.6939532753541
 30
0.0
 10
-633.5613010958803
 20
842.9594948090223
 30
0.0
 10
-633.5613010958803
 20
822.2250363426905
 30
0.0
  0
ARC
  5
D7
330
1F
100
AcDbEntity
  8
side
100
AcDbCircle
 10
-631.6172923160859
 20
819.9401228073281
 30
0.0
 40
3.0
100
AcDbArc
 50
130.3911997793133
 51
312.7881676371417
  0
SPLINE
  5
D8
330
1F
100
AcDbEntity
  8
side
100
AcDbSpline
210
0.0
220
0.0
230
1.0
 70
    24
 71
     2
 72
     6
 73
     3
 74
     0
 42
0.000000001
 43
0.0000000001
 40
3.98187807333119
 40
3.98187807333119
 40
3.98187807333119
 40
13.5908609431535
 40
13.5908609431535
 40
13.5908609431535
 10
-629.579423022549
 20
817.7385123189675
 30
0.0
 10
-624.774931587638
 20
817.7385123189677
 30
0.0
 10
-619.970440152727
 20
817.7385123189678
 30
0.0
  0
ARC
  5
D9
330
1F
100
AcDbEntity
  8
side
100
AcDbCircle
 10
-617.956615560734
 20
819.9621378523442
 30
0.0
 40
3.0
100
AcDbArc
 50
227.8344641745267
 51
48.30963247627901
  0
SPLINE
  5
DA
330
1F
100
AcDbEntity
  8
side
100
AcDbSpline
210
0.0
220
0.0
230
1.0
 70
    24
 71
     2
 72
     6
 73
     3
 74
     0
 42
0.000000001
 43
0.0000000001
 40
4.463875561018161
 40
4.463875561018161
 40
4.463875561018161
 40
46.07574324491983
 40
46.07574324491983
 40
46.07574324491983
 10
-615.9613010958803
 20
822.2023878799852
 30
0.0
 10
-615.9613010958803
 20
843.0083217219361
 30
0.0
 10
-615.9613010958803
 20
863.8142555638871
 30
0.0
  0
ARC
  5
DB
330
1F
100
AcDbEntity
  8
side
100
AcDbCircle
 10
-618.2059697877214
 20
865.8045978620531
 30
0.0
 40
3.0
100
AcDbArc
 50
318.4366733737118
 51
139.8614492075018
  0
SPLINE
  5
DC
330
1F
100
AcDbEntity
  8
side
100
AcDbSpline
210
0.0
220
0.0
230
1.0
 70
    24
 71
     2
 72
     6
 73
     3
 74
     0
 42
0.000000001
 43
0.0000000001
 40
4.53813220219762
 40
4.53813220219762
 40
4.53813220219762
 40
13.16835220486001
 40
13.16835220486001
 40
13.16835220486001
 10
-620.4994332980782
 20
867.7385123189673
 30
0.0
 10
-624.8145432994093
 20
867.7385123189673
 30
0.0
 10
-629.1296533007403
 20
867.7385123189673
 30
0.0
  0
ARC
  5
DD
330
1F
100
AcDbEntity
  8
side
100
AcDbCircle
 10
-631.3607006571331
 20
865.732913233025
 30
0.0
 40
3.0
100
AcDbArc
 50
41.95394397255716
 51
222.816558121603
  0
ARC
  5
DE
330
1F
100
AcDbEntity
  8
side
100
AcDbCircle
 10
-763.9463322009174
 20
819.7514529378249
 30
0.0
 40
3.0
100
AcDbArc
 50
132.1950277601207
 51
317.8572372612596
  0
SPLINE
  5
DF
330
1F
100
AcDbEntity
  8
side
100
AcDbSpline
210
0.0
220
0.0
230
1.0
 70
    24
 71
     2
 72
     6
 73
     3
 74
     0
 42
0.000000001
 43
0.0000000001
 40
4.239394678160294
 40
4.239394678160294
 40
4.239394678160294
 40
13.30376717130323
 40
13.30376717130323
 40
13.30376717130323
 10
-761.7219064177198
 20
817.7385123189675
 30
0.0
 10
-757.1897201711437
 20
817.7385123189678
 30
0.0
 10
-752.6575339245676
 20
817.738512318968
 30
0.0
  0
ARC
  5
E0
330
1F
100
AcDbEntity
  8
side
100
AcDbCircle
 10
-750.4710006011912
 20
819.7925502995721
 30
0.0
 40
3.0
100
AcDbArc
 50
223.2103932416739
 51
45.3130194208055
  0
SPLINE
  5
E1
330
1F
100
AcDbEntity
  8
side
100
AcDbSpline
210
0.0
220
0.0
230
1.0
 70
    24
 71
     2
 72
     6
 73
     3
 74
     0
 42
0.000000001
 43
0.0000000001
 40
4.186915848015824
 40
4.186915848015824
 40
4.186915848015824
 40
45.89425014746792
 40
45.89425014746792
 40
45.89425014746792
 10
-748.3613010958802
 20
821.9254281669829
 30
0.0
 10
-748.3613010958805
 20
842.7790953167095
 30
0.0
 10
-748.3613010958809
 20
863.632762466436
 30
0.0
  0
ARC
  5
E2
330
1F
100
AcDbEntity
  8
side
100
AcDbCircle
 10
-750.5019910095755
 20
865.7345347408287
 30
0.0
 40
3.0
100
AcDbArc
 50
315.5255801556147
 51
138.0876845618734
  0
SPLINE
  5
E3
330
1F
100
AcDbEntity
  8
side
100
AcDbSpline
210
0.0
220
0.0
230
1.0
 70
    24
 71
     2
 72
     6
 73
     3
 74
     0
 42
0.000000001
 43
0.0000000001
 40
4.373193859115505
 40
4.373193859115505
 40
4.373193859115505
 40
12.80710178041624
 40
12.80710178041624
 40
12.80710178041624
 10
-752.7344949549961
 20
867.7385123189673
 30
0.0
 10
-756.9514489156539
 20
867.7385123189672
 30
0.0
 10
-761.1684028763118
 20
867.7385123189671
 30
0.0
  0
ARC
  5
E4
330
1F
100
AcDbEntity
  8
side
100
AcDbCircle
 10
-763.5903143902465
 20
865.9681042816293
 30
0.0
 40
3.0
100
AcDbArc
 50
36.16666065026074
 51
217.7837414867664
  0
SPLINE
  5
E5
330
1F
100
AcDbEntity
  8
side
100
AcDbSpline
210
0.0
220
0.0
230
1.0
 70
    24
 71
     2
 72
     6
 73
     3
 74
     0
 42
0.000000001
 43
0.0000000001
 40
3.608456470243707
 40
3.608456470243707
 40
3.608456470243707
 40
45.76447072096975
 40
45.76447072096975
 40
45.76447072096975
 10
-765.9613010958803
 20
864.1300558487236
 30
0.0
 10
-765.9613010958803
 20
843.0520487233609
 30
0.0
 10
-765.9613010958803
 20
821.9740415979983
 30
0.0
  0
ARC
  5
E6
330
1F
100
AcDbEntity
  8
side
100
AcDbCircle
 10
-763.8994580400424
 20
819.8920754204493
 30
0.0
 40
3.0
100
AcDbArc
 50
225.8776159651563
 51
226.5847385577586
  0
ARC
  5
E7
330
1F
100
AcDbEntity
  8
side
100
AcDbCircle
 10
-763.8994580400424
 20
459.8920754204493
 30
0.0
 40
3.0
100
AcDbArc
 50
225.8776159651563
 51
226.5847385577579
  0
ARC
  5
E8
330
1F
100
AcDbEntity
  8
side
100
AcDbCircle
 10
-763.9463322009174
 20
459.7514529378249
 30
0.0
 40
3.0
100
AcDbArc
 50
132.1950277601214
 51
317.8572372612604
  0
SPLINE
  5
E9
330
1F
100
AcDbEntity
  8
side
100
AcDbSpline
210
0.0
220
0.0
230
1.0
 70
    24
 71
     2
 72
     6
 73
     3
 74
     0
 42
0.000000001
 43
0.0000000001
 40
4.239394678160294
 40
4.239394678160294
 40
4.239394678160294
 40
13.30376717130323
 40
13.30376717130323
 40
13.30376717130323
 10
-761.7219064177198
 20
457.7385123189675
 30
0.0
 10
-757.1897201711437
 20
457.7385123189678
 30
0.0
 10
-752.6575339245676
 20
457.738512318968
 30
0.0
  0
ARC
  5
EA
330
1F
100
AcDbEntity
  8
side
100
AcDbCircle
 10
-750.4710006011912
 20
459.7925502995721
 30
0.0
 40
3.0
100
AcDbArc
 50
223.2103932416731
 51
45.31301942080626
  0
SPLINE
  5
EB
330
1F
100
AcDbEntity
  8
side
100
AcDbSpline
210
0.0
220
0.0
230
1.0
 70
    24
 71
     2
 72
     6
 73
     3
 74
     0
 42
0.000000001
 43
0.0000000001
 40
4.186915848015824
 40
4.186915848015824
 40
4.186915848015824
 40
45.89425014746792
 40
45.89425014746792
 40
45.89425014746792
 10
-748.3613010958802
 20
461.9254281669829
 30
0.0
 10
-748.3613010958805
 20
482.7790953167095
 30
0.0
 10
-748.3613010958809
 20
503.632762466436
 30
0.0
  0
ARC
  5
EC
330
1F
100
AcDbEntity
  8
side
100
AcDbCircle
 10
-750.5019910095755
 20
505.7345347408287
 30
0.0
 40
3.0
100
AcDbArc
 50
315.5255801556147
 51
138.0876845618718
  0
SPLINE
  5
ED
330
1F
100
AcDbEntity
  8
side
100
AcDbSpline
210
0.0
220
0.0
230
1.0
 70
    24
 71
     2
 72
     6
 73
     3
 74
     0
 42
0.000000001
 43
0.0000000001
 40
4.373193859115505
 40
4.373193859115505
 40
4.373193859115505
 40
12.80710178041624
 40
12.80710178041624
 40
12.80710178041624
 10
-752.7344949549961
 20
507.7385123189673
 30
0.0
 10
-756.9514489156539
 20
507.7385123189672
 30
0.0
 10
-761.1684028763118
 20
507.7385123189671
 30
0.0
  0
ARC
  5
EE
330
1F
100
AcDbEntity
  8
side
100
AcDbCircle
 10
-763.5903143902465
 20
505.9681042816293
 30
0.0
 40
3.0
100
AcDbArc
 50
36.1666606502616
 51
217.7837414867664
  0
SPLINE
  5
EF
330
1F
100
AcDbEntity
  8
side
100
AcDbSpline
210
0.0
220
0.0
230
1.0
 70
    24
 71
     2
 72
     6
 73
     3
 74
     0
 42
0.000000001
 43
0.0000000001
 40
3.608456470243707
 40
3.608456470243707
 40
3.608456470243707
 40
45.76447072096975
 40
45.76447072096975
 40
45.76447072096975
 10
-765.9613010958803
 20
504.1300558487236
 30
0.0
 10
-765.9613010958803
 20
483.0520487233609
 30
0.0
 10
-765.9613010958803
 20
461.9740415979983
 30
0.0
  0
SPLINE
  5
F0
330
1F
100
AcDbEntity
  8
side
100
AcDbSpline
210
0.0
220
0.0
230
1.0
 70
    24
 71
     2
 72
     6
 73
     3
 74
     0
 42
0.000000001
 43
0.0000000001
 40
4.04455904361321
 40
4.04455904361321
 40
4.04455904361321
 40
45.51347597627696
 40
45.51347597627696
 40
45.51347597627696
 10
-633.5613010958803
 20
503.6939532753541
 30
0.0
 10
-633.5613010958803
 20
482.9594948090223
 30
0.0
 10
-633.5613010958803
 20
462.2250363426905
 30
0.0
  0
ARC
  5
F1
330
1F
100
AcDbEntity
  8
side
100
AcDbCircle
 10
-631.6172923160859
 20
459.9401228073281
 30
0.0
 40
3.0
100
AcDbArc
 50
130.391199779314
 51
312.788167637141
  0
SPLINE
  5
F2
330
1F
100
AcDbEntity
  8
side
100
AcDbSpline
210
0.0
220
0.0
230
1.0
 70
    24
 71
     2
 72
     6
 73
     3
 74
     0
 42
0.000000001
 43
0.0000000001
 40
3.98187807333119
 40
3.98187807333119
 40
3.98187807333119
 40
13.5908609431535
 40
13.5908609431535
 40
13.5908609431535
 10
-629.579423022549
 20
457.7385123189675
 30
0.0
 10
-624.774931587638
 20
457.7385123189677
 30
0.0
 10
-619.970440152727
 20
457.7385123189678
 30
0.0
  0
ARC
  5
F3
330
1F
100
AcDbEntity
  8
side
100
AcDbCircle
 10
-617.956615560734
 20
459.9621378523442
 30
0.0
 40
3.0
100
AcDbArc
 50
227.8344641745267
 51
48.30963247627901
  0
SPLINE
  5
F4
330
1F
100
AcDbEntity
  8
side
100
AcDbSpline
210
0.0
220
0.0
230
1.0
 70
    24
 71
     2
 72
     6
 73
     3
 74
     0
 42
0.000000001
 43
0.0000000001
 40
4.463875561018161
 40
4.463875561018161
 40
4.463875561018161
 40
46.07574324491983
 40
46.07574324491983
 40
46.07574324491983
 10
-615.9613010958803
 20
462.2023878799852
 30
0.0
 10
-615.9613010958803
 20
483.0083217219361
 30
0.0
 10
-615.9613010958803
 20
503.8142555638871
 30
0.0
  0
ARC
  5
F5
330
1F
100
AcDbEntity
  8
side
100
AcDbCircle
 10
-618.2059697877214
 20
505.8045978620531
 30
0.0
 40
3.0
100
AcDbArc
 50
318.436673373711
 51
139.8614492075002
  0
SPLINE
  5
F6
330
1F
100
AcDbEntity
  8
side
100
AcDbSpline
210
0.0
220
0.0
230
1.0
 70
    24
 71
     2
 72
     6
 73
     3
 74
     0
 42
0.000000001
 43
0.0000000001
 40
4.53813220219762
 40
4.53813220219762
 40
4.53813220219762
 40
13.16835220486001
 40
13.16835220486001
 40
13.16835220486001
 10
-620.4994332980782
 20
507.7385123189673
 30
0.0
 10
-624.8145432994093
 20
507.7385123189673
 30
0.0
 10
-629.1296533007403
 20
507.7385123189673
 30
0.0
  0
ARC
  5
F7
330
1F
100
AcDbEntity
  8
side
100
AcDbCircle
 10
-631.3607006571331
 20
505.732913233025
 30
0.0
 40
3.0
100
AcDbArc
 50
41.95394397255636
 51
222.816558121603
  0
SPLINE
  5
F8
330
1F
100
AcDbEntity
  8
Make2D$visible$lines
100
AcDbSpline
210
0.0
220
0.0
230
1.0
 70
    24
 71
     2
 72
     6
 73
     3
 74
     0
 42
0.000000001
 43
0.0000000001
 40
17.56601440462827
 40
17.56601440462827
 40
17.56601440462827
 40
17.59999999999991
 40
17.59999999999991
 40
17.59999999999991
 10
-98.39528669125207
 20
457.7385123189675
 30
0.0
 10
-98.37829389356625
 20
457.7385123189675
 30
0.0
 10
-98.36130109588044
 20
457.7385123189675
 30
0.0
  0
SPLINE
  5
F9
330
1F
100
AcDbEntity
  8
Make2D$visible$lines
100
AcDbSpline
210
0.0
220
0.0
230
1.0
 70
    24
 71
     2
 72
     6
 73
     3
 74
     0
 42
0.000000001
 43
0.0000000001
 40
17.59999999999991
 40
17.59999999999991
 40
17.59999999999991
 40
17.63435785826326
 40
17.63435785826326
 40
17.63435785826326
 10
-98.36130109588044
 20
457.7385123189675
 30
0.0
 10
-98.36130109588044
 20
457.7556912480992
 30
0.0
 10
-98.36130109588044
 20
457.7728701772309
 30
0.0
  0
SPLINE
  5
FA
330
1F
100
AcDbEntity
  8
Make2D$visible$lines
100
AcDbSpline
210
0.0
220
0.0
230
1.0
 70
    24
 71
     2
 72
     6
 73
     3
 74
     0
 42
0.000000001
 43
0.0000000001
 40
49.96407754904297
 40
49.96407754904297
 40
49.96407754904297
 40
50.0
 40
50.0
 40
50.0
 10
-765.9613010958803
 20
257.7744347699246
 30
0.0
 10
-765.9613010958803
 20
257.7564735444461
 30
0.0
 10
-765.9613010958803
 20
257.7385123189675
 30
0.0
  0
SPLINE
  5
FB
330
1F
100
AcDbEntity
  8
Make2D$visible$lines
100
AcDbSpline
210
0.0
220
0.0
230
1.0
 70
    24
 71
     2
 72
     6
 73
     3
 74
     0
 42
0.000000001
 43
0.0000000001
 40
50.0
 40
50.0
 40
50.0
 40
50.03571389412244
 40
50.03571389412244
 40
50.03571389412244
 10
-765.9613010958803
 20
257.7385123189675
 30
0.0
 10
-765.9434441488191
 20
257.7385123189675
 30
0.0
 10
-765.9255872017579
 20
257.7385123189675
 30
0.0
  0
SPLINE
  5
FC
330
1F
100
AcDbEntity
  8
Make2D$visible$lines
100
AcDbSpline
210
0.0
220
0.0
230
1.0
 70
    24
 71
     2
 72
     6
 73
     3
 74
     0
 42
0.000000001
 43
0.0000000001
 40
49.94544966200991
 40
49.94544966200991
 40
49.94544966200991
 40
50.0
 40
50.0
 40
50.0
 10
-633.5613010958803
 20
257.7930626569575
 30
0.0
 10
-633.5613010958803
 20
257.7657874879625
 30
0.0
 10
-633.5613010958803
 20
257.7385123189675
 30
0.0
  0
SPLINE
  5
FD
330
1F
100
AcDbEntity
  8
Make2D$visible$lines
100
AcDbSpline
210
0.0
220
0.0
230
1.0
 70
    24
 71
     2
 72
     6
 73
     3
 74
     0
 42
0.000000001
 43
0.0000000001
 40
50.0
 40
50.0
 40
50.0
 40
50.06205452537553
 40
50.06205452537553
 40
50.06205452537553
 10
-633.5613010958803
 20
257.7385123189675
 30
0.0
 10
-633.5302738331926
 20
257.7385123189676
 30
0.0
 10
-633.499246570505
 20
257.7385123189677
 30
0.0
  0
SPLINE
  5
FE
330
1F
100
AcDbEntity
  8
Make2D$visible$lines
100
AcDbSpline
210
0.0
220
0.0
230
1.0
 70
    24
 71
     2
 72
     6
 73
     3
 74
     0
 42
0.000000001
 43
0.0000000001
 40
349.9999999999999
 40
349.9999999999999
 40
349.9999999999999
 40
1250.0
 40
1250.0
 40
1250.0
 10
-815.9613010958803
 20
207.7385123189677
 30
0.0
 10
-365.9613010958803
 20
207.7385123189677
 30
0.0
 10
84.03869890411966
 20
207.7385123189677
 30
0.0
  0
SPLINE
  5
FF
330
1F
100
AcDbEntity
  8
Make2D$visible$lines
100
AcDbSpline
210
0.0
220
0.0
230
1.0
 70
    24
 71
     2
 72
     6
 73
     3
 74
     0
 42
0.000000001
 43
0.0000000001
 40
1250.0
 40
1250.0
 40
1250.0
 40
1600.0
 40
1600.0
 40
1600.0
 10
84.03869890411966
 20
207.7385123189677
 30
0.0
 10
84.03869890411966
 20
382.7385123189676
 30
0.0
 10
84.03869890411966
 20
557.7385123189675
 30
0.0
  0
SPLINE
  5
100
330
1F
100
AcDbEntity
  8
Make2D$visible$lines
100
AcDbSpline
210
0.0
220
0.0
230
1.0
 70
    24
 71
     2
 72
     6
 73
     3
 74
     0
 42
0.000000001
 43
0.0000000001
 40
1600.0
 40
1600.0
 40
1600.0
 40
2500.0
 40
2500.0
 40
2500.0
 10
84.03869890411966
 20
557.7385123189675
 30
0.0
 10
-365.9613010958803
 20
557.7385123189675
 30
0.0
 10
-815.9613010958803
 20
557.7385123189675
 30
0.0
  0
SPLINE
  5
101
330
1F
100
AcDbEntity
  8
Make2D$visible$lines
100
AcDbSpline
210
0.0
220
0.0
230
1.0
 70
    24
 71
     2
 72
     6
 73
     3
 74
     0
 42
0.000000001
 43
0.0000000001
 40
2500.0
 40
2500.0
 40
2500.0
 40
2850.0
 40
2850.0
 40
2850.0
 10
-815.9613010958803
 20
557.7385123189675
 30
0.0
 10
-815.9613010958803
 20
382.7385123189676
 30
0.0
 10
-815.9613010958803
 20
207.7385123189677
 30
0.0
  0
SPLINE
  5
102
330
1F
100
AcDbEntity
  8
Make2D$visible$lines
100
AcDbSpline
210
0.0
220
0.0
230
1.0
 70
    24
 71
     2
 72
     6
 73
     3
 74
     0
 42
0.000000001
 43
0.0000000001
 40
17.57035797490064
 40
17.57035797490064
 40
17.57035797490064
 40
17.59999999999991
 40
17.59999999999991
 40
17.59999999999991
 10
16.46834092921904
 20
307.7385123189675
 30
0.0
 10
16.45351991666939
 20
307.7385123189675
 30
0.0
 10
16.43869890411975
 20
307.7385123189675
 30
0.0
  0
SPLINE
  5
103
330
1F
100
AcDbEntity
  8
Make2D$visible$lines
100
AcDbSpline
210
0.0
220
0.0
230
1.0
 70
    24
 71
     2
 72
     6
 73
     3
 74
     0
 42
0.000000001
 43
0.0000000001
 40
17.59999999999991
 40
17.59999999999991
 40
17.59999999999991
 40
17.62703445600679
 40
17.62703445600679
 40
17.62703445600679
 10
16.43869890411975
 20
307.7385123189675
 30
0.0
 10
16.43869890411975
 20
307.7249950909641
 30
0.0
 10
16.43869890411975
 20
307.7114778629607
 30
0.0
  0
SPLINE
  5
104
330
1F
100
AcDbEntity
  8
Make2D$visible$lines
100
AcDbSpline
210
0.0
220
0.0
230
1.0
 70
    24
 71
     2
 72
     6
 73
     3
 74
     0
 42
0.000000001
 43
0.0000000001
 40
4.21933180130273
 40
4.21933180130273
 40
4.21933180130273
 40
45.90382928844723
 40
45.90382928844723
 40
45.90382928844723
 10
-98.36130109588044
 20
461.9578441202665
 30
0.0
 10
-98.36130109588032
 20
482.800092863844
 30
0.0
 10
-98.36130109588021
 20
503.6423416074216
 30
0.0
  0
ARC
  5
105
330
1F
100
AcDbEntity
  8
Make2D$visible$lines
100
AcDbCircle
 10
-100.5151741150719
 20
505.7306018922517
 30
0.0
 40
3.0
100
AcDbArc
 50
315.8861185537191
 51
137.986670547173
  0
SPLINE
  5
106
330
1F
100
AcDbEntity
  8
Make2D$visible$lines
100
AcDbSpline
210
0.0
220
0.0
230
1.0
 70
    24
 71
     2
 72
     6
 73
     3
 74
     0
 42
0.000000001
 43
0.0000000001
 40
4.382840429964309
 40
4.382840429964309
 40
4.382840429964309
 40
13.56360051653416
 40
13.56360051653416
 40
13.56360051653416
 10
-102.7441415258443
 20
507.7385123189675
 30
0.0
 10
-107.3345215691293
 20
507.7385123189674
 30
0.0
 10
-111.9249016124143
 20
507.7385123189673
 30
0.0
  0
ARC
  5
107
330
1F
100
AcDbEntity
  8
Make2D$visible$lines
100
AcDbCircle
 10
-113.9488563408063
 20
505.5241033103558
 30
0.0
 40
3.0
100
AcDbArc
 50
47.57290106678398
 51
227.8700082143044
  0
SPLINE
  5
108
330
1F
100
AcDbEntity
  8
Make2D$visible$lines
100
AcDbSpline
210
0.0
220
0.0
230
1.0
 70
    24
 71
     2
 72
     6
 73
     3
 74
     0
 42
0.000000001
 43
0.0000000001
 40
4.43928341130814
 40
4.43928341130814
 40
4.43928341130814
 40
45.674333081706
 40
45.674333081706
 40
45.674333081706
 10
-115.9613010958803
 20
503.2992289076591
 30
0.0
 10
-115.9613010958803
 20
482.6817040724604
 30
0.0
 10
-115.9613010958803
 20
462.0641792372618
 30
0.0
  0
ARC
  5
109
330
1F
100
AcDbEntity
  8
Make2D$visible$lines
100
AcDbCircle
 10
-113.9204234848817
 20
459.8653571487506
 30
0.0
 40
3.0
100
AcDbArc
 50
132.8665071476895
 51
314.8505914741118
  0
SPLINE
  5
10A
330
1F
100
AcDbEntity
  8
Make2D$visible$lines
100
AcDbSpline
210
0.0
220
0.0
230
1.0
 70
    24
 71
     2
 72
     6
 73
     3
 74
     0
 42
0.000000001
 43
0.0000000001
 40
4.156659043478237
 40
4.156659043478237
 40
4.156659043478237
 40
13.33445153966914
 40
13.33445153966914
 40
13.33445153966914
 10
-111.804642052402
 20
457.7385123189678
 30
0.0
 10
-107.2157458043066
 20
457.7385123189677
 30
0.0
 10
-102.6268495562113
 20
457.7385123189675
 30
0.0
  0
ARC
  5
10B
330
1F
100
AcDbEntity
  8
Make2D$visible$lines
100
AcDbCircle
 10
-100.5110681237318
 20
459.8653571487506
 30
0.0
 40
3.0
100
AcDbArc
 50
225.149408525895
 51
44.22642395816057
  0
ARC
  5
10C
330
1F
100
AcDbEntity
  8
side
100
AcDbCircle
 10
18.59518440091142
 20
459.8093222722381
 30
0.0
 40
3.0
100
AcDbArc
 50
135.9578436528504
 51
316.3485157254625
  0
SPLINE
  5
10D
330
1F
100
AcDbEntity
  8
side
100
AcDbSpline
210
0.0
220
0.0
230
1.0
 70
    24
 71
     2
 72
     6
 73
     3
 74
     0
 42
0.000000001
 43
0.0000000001
 40
4.327141189768512
 40
4.327141189768512
 40
4.327141189768512
 40
13.25754870774094
 40
13.25754870774094
 40
13.25754870774094
 10
20.76584009388421
 20
457.7385123189673
 30
0.0
 10
25.23104385287502
 20
457.7385123189674
 30
0.0
 10
29.69624761186583
 20
457.7385123189675
 30
0.0
  0
ARC
  5
10E
330
1F
100
AcDbEntity
  8
side
100
AcDbCircle
 10
31.8703124320798
 20
459.8057428715446
 30
0.0
 40
3.0
100
AcDbArc
 50
223.5570779688077
 51
43.71423374211768
  0
SPLINE
  5
10F
330
1F
100
AcDbEntity
  8
side
100
AcDbSpline
210
0.0
220
0.0
230
1.0
 70
    24
 71
     2
 72
     6
 73
     3
 74
     0
 42
0.000000001
 43
0.0000000001
 40
4.140416532626881
 40
4.140416532626881
 40
4.140416532626881
 40
45.87215309758469
 40
45.87215309758469
 40
45.87215309758469
 10
34.03869890411966
 20
461.8789288515942
 30
0.0
 10
34.03869890411966
 20
482.7447971340732
 30
0.0
 10
34.03869890411966
 20
503.6106654165523
 30
0.0
  0
ARC
  5
110
330
1F
100
AcDbEntity
  8
side
100
AcDbCircle
 10
31.87687501134565
 20
505.6906936511276
 30
0.0
 40
3.0
100
AcDbArc
 50
316.1046979275328
 51
136.9523603012809
  0
SPLINE
  5
111
330
1F
100
AcDbEntity
  8
side
100
AcDbSpline
210
0.0
220
0.0
230
1.0
 70
    24
 71
     2
 72
     6
 73
     3
 74
     0
 42
0.000000001
 43
0.0000000001
 40
4.354183056712165
 40
4.354183056712165
 40
4.354183056712165
 40
13.27168121505174
 40
13.27168121505174
 40
13.27168121505174
 10
29.68451584742047
 20
507.7385123189673
 30
0.0
 10
25.2257667682386
 20
507.7385123189674
 30
0.0
 10
20.76701768905673
 20
507.7385123189675
 30
0.0
  0
ARC
  5
112
330
1F
100
AcDbEntity
  8
side
100
AcDbCircle
 10
18.57840837986987
 20
505.686686475544
 30
0.0
 40
3.0
100
AcDbArc
 50
43.15245405020167
 51
224.5011409218675
  0
SPLINE
  5
113
330
1F
100
AcDbEntity
  8
side
100
AcDbSpline
210
0.0
220
0.0
230
1.0
 70
    24
 71
     2
 72
     6
 73
     3
 74
     0
 42
0.000000001
 43
0.0000000001
 40
4.154596244439368
 40
4.154596244439368
 40
4.154596244439368
 40
45.84362769998381
 40
45.84362769998381
 40
45.84362769998381
 10
16.4386989041202
 20
503.5839160745285
 30
0.0
 10
16.43869890411997
 20
482.7394003467518
 30
0.0
 10
16.43869890411975
 20
461.8948846189752
 30
0.0
  0
SPLINE
  5
114
330
1F
100
AcDbEntity
  8
Make2D$visible$lines
100
AcDbSpline
210
0.0
220
0.0
230
1.0
 70
    24
 71
     2
 72
     6
 73
     3
 74
     0
 42
0.000000001
 43
0.0000000001
 40
4.245466219813741
 40
4.245466219813741
 40
4.245466219813741
 40
45.76987971463268
 40
45.76987971463268
 40
45.76987971463268
 10
-765.9613010958801
 20
303.4930460991534
 30
0.0
 10
-765.9613010958802
 20
282.730839351743
 30
0.0
 10
-765.9613010958803
 20
261.9686326043327
 30
0.0
  0
ARC
  5
115
330
1F
100
AcDbEntity
  8
Make2D$visible$lines
100
AcDbCircle
 10
-763.8160327836488
 20
259.8715336871296
 30
0.0
 40
3.0
100
AcDbArc
 50
135.6505293608496
 51
314.6830832136702
  0
SPLINE
  5
116
330
1F
100
AcDbEntity
  8
Make2D$visible$lines
100
AcDbSpline
210
0.0
220
0.0
230
1.0
 70
    24
 71
     2
 72
     6
 73
     3
 74
     0
 42
0.000000001
 43
0.0000000001
 40
4.254822730340683
 40
4.254822730340683
 40
4.254822730340683
 40
13.59915107461761
 40
13.59915107461761
 40
13.59915107461761
 10
-761.7064783655394
 20
257.7385123189678
 30
0.0
 10
-757.0343141934007
 20
257.7385123189678
 30
0.0
 10
-752.3621500212621
 20
257.7385123189678
 30
0.0
  0
ARC
  5
117
330
1F
100
AcDbEntity
  8
Make2D$visible$lines
100
AcDbCircle
 10
-750.2108627281575
 20
259.8294362732346
 30
0.0
 40
3.0
100
AcDbArc
 50
224.1847810115473
 51
51.93751100001182
  0
SPLINE
  5
118
330
1F
100
AcDbEntity
  8
Make2D$visible$lines
100
AcDbSpline
210
0.0
220
0.0
230
1.0
 70
    24
 71
     2
 72
     6
 73
     3
 74
     0
 42
0.000000001
 43
0.0000000001
 40
4.45294041661626
 40
4.45294041661626
 40
4.45294041661626
 40
45.70975705512586
 40
45.70975705512586
 40
45.70975705512586
 10
-748.3613010958802
 20
262.1914527355837
 30
0.0
 10
-748.3613010958802
 20
282.8198610548408
 30
0.0
 10
-748.3613010958802
 20
303.448269374098
 30
0.0
  0
ARC
  5
119
330
1F
100
AcDbEntity
  8
Make2D$visible$lines
100
AcDbCircle
 10
-750.430133720196
 20
305.6208097241416
 30
0.0
 40
3.0
100
AcDbArc
 50
313.5993141238514
 51
135.0976304139022
  0
SPLINE
  5
11A
330
1F
100
AcDbEntity
  8
Make2D$visible$lines
100
AcDbSpline
210
0.0
220
0.0
230
1.0
 70
    24
 71
     2
 72
     6
 73
     3
 74
     0
 42
0.000000001
 43
0.0000000001
 40
4.193764557311946
 40
4.193764557311946
 40
4.193764557311946
 40
13.36030346367553
 40
13.36030346367553
 40
13.36030346367553
 10
-752.5550656531925
 20
307.7385123189672
 30
0.0
 10
-757.1383351063743
 20
307.7385123189673
 30
0.0
 10
-761.721604559556
 20
307.7385123189674
 30
0.0
  0
ARC
  5
11B
330
1F
100
AcDbEntity
  8
Make2D$visible$lines
100
AcDbCircle
 10
-763.8525838791677
 20
305.6268951331624
 30
0.0
 40
3.0
100
AcDbArc
 50
44.73851841760685
 51
225.3394007624152
  0
SPLINE
  5
11C
330
1F
100
AcDbEntity
  8
Make2D$visible$lines
100
AcDbSpline
210
0.0
220
0.0
230
1.0
 70
    24
 71
     2
 72
     6
 73
     3
 74
     0
 42
0.000000001
 43
0.0000000001
 40
3.96103205758789
 40
3.96103205758789
 40
3.96103205758789
 40
13.70070300020816
 40
13.70070300020816
 40
13.70070300020816
 10
-629.600269038292
 20
257.7385123189677
 30
0.0
 10
-624.730433566981
 20
257.7385123189676
 30
0.0
 10
-619.86059809567
 20
257.7385123189675
 30
0.0
  0
ARC
  5
11D
330
1F
100
AcDbEntity
  8
Make2D$visible$lines
100
AcDbCircle
 10
-617.7640493789479
 20
259.8843183396534
 30
0.0
 40
3.0
100
AcDbArc
 50
225.6652222619005
 51
53.06446371590462
  0
SPLINE
  5
11E
330
1F
100
AcDbEntity
  8
Make2D$visible$lines
100
AcDbSpline
210
0.0
220
0.0
230
1.0
 70
    24
 71
     2
 72
     6
 73
     3
 74
     0
 42
0.000000001
 43
0.0000000001
 40
4.543742347592143
 40
4.543742347592143
 40
4.543742347592143
 40
45.53185236714597
 40
45.53185236714597
 40
45.53185236714597
 10
-615.9613010958803
 20
262.2822546665598
 30
0.0
 10
-615.9613010958803
 20
282.7763096763366
 30
0.0
 10
-615.9613010958803
 20
303.2703646861135
 30
0.0
  0
ARC
  5
11F
330
1F
100
AcDbEntity
  8
Make2D$visible$lines
100
AcDbCircle
 10
-617.9192728191174
 20
305.5433245913921
 30
0.0
 40
3.0
100
AcDbArc
 50
310.7422473617363
 51
132.9684408821416
  0
SPLINE
  5
120
330
1F
100
AcDbEntity
  8
Make2D$visible$lines
100
AcDbSpline
210
0.0
220
0.0
230
1.0
 70
    24
 71
     2
 72
     6
 73
     3
 74
     0
 42
0.000000001
 43
0.0000000001
 40
4.002757981187198
 40
4.002757981187198
 40
4.002757981187198
 40
12.65013930522886
 40
12.65013930522886
 40
12.65013930522886
 10
-619.964059077068
 20
307.7385123189673
 30
0.0
 10
-624.2877497390886
 20
307.7385123189673
 30
0.0
 10
-628.6114404011091
 20
307.7385123189673
 30
0.0
  0
ARC
  5
121
330
1F
100
AcDbEntity
  8
Make2D$visible$lines
100
AcDbCircle
 10
-631.1256668032674
 20
306.1018493730039
 30
0.0
 40
3.0
100
AcDbArc
 50
33.06255174283878
 51
215.7201654196924
  0
SPLINE
  5
122
330
1F
100
AcDbEntity
  8
Make2D$visible$lines
100
AcDbSpline
210
0.0
220
0.0
230
1.0
 70
    24
 71
     2
 72
     6
 73
     3
 74
     0
 42
0.000000001
 43
0.0000000001
 40
3.388143917212875
 40
3.388143917212875
 40
3.388143917212875
 40
45.49407073565684
 40
45.49407073565684
 40
45.49407073565684
 10
-633.5613010958803
 20
304.3503684017546
 30
0.0
 10
-633.5613010958803
 20
283.2974049925327
 30
0.0
 10
-633.5613010958803
 20
262.2444415833107
 30
0.0
  0
ARC
  5
123
330
1F
100
AcDbEntity
  8
Make2D$visible$lines
100
AcDbCircle
 10
-631.5497578043985
 20
260.0187521201342
 30
0.0
 40
3.0
100
AcDbArc
 50
132.1067812172919
 51
310.5287548244694
  0
ARC
  5
124
330
1F
100
AcDbEntity
  8
Make2D$visible$lines
100
AcDbCircle
 10
-114.0334779560394
 20
259.9906724107866
 30
0.0
 40
3.0
100
AcDbArc
 50
129.986546094451
 51
311.3472122894626
  0
SPLINE
  5
125
330
1F
100
AcDbEntity
  8
Make2D$visible$lines
100
AcDbSpline
210
0.0
220
0.0
230
1.0
 70
    24
 71
     2
 72
     6
 73
     3
 74
     0
 42
0.000000001
 43
0.0000000001
 40
3.909684618556407
 40
3.909684618556407
 40
3.909684618556407
 40
13.36118799669745
 40
13.36118799669745
 40
13.36118799669745
 10
-112.0516164773237
 20
257.7385123189675
 30
0.0
 10
-107.3258647882527
 20
257.7385123189676
 30
0.0
 10
-102.6001130991817
 20
257.7385123189677
 30
0.0
  0
ARC
  5
126
330
1F
100
AcDbEntity
  8
Make2D$visible$lines
100
AcDbCircle
 10
-100.4445627535242
 20
259.8250411846524
 30
0.0
 40
3.0
100
AcDbArc
 50
224.067841409897
 51
46.01893929462024
  0
SPLINE
  5
127
330
1F
100
AcDbEntity
  8
Make2D$visible$lines
100
AcDbSpline
210
0.0
220
0.0
230
1.0
 70
    24
 71
     2
 72
     6
 73
     3
 74
     0
 42
0.000000001
 43
0.0000000001
 40
4.245237013119126
 40
4.245237013119126
 40
4.245237013119126
 40
45.69782013582249
 40
45.69782013582249
 40
45.69782013582249
 10
-98.36130109588044
 20
261.9837493320848
 30
0.0
 10
-98.36130109588044
 20
282.7100408934405
 30
0.0
 10
-98.36130109588044
 20
303.4363324547962
 30
0.0
  0
ARC
  5
128
330
1F
100
AcDbEntity
  8
Make2D$visible$lines
100
AcDbCircle
 10
-100.4248037018574
 20
305.6139359529396
 30
0.0
 40
3.0
100
AcDbArc
 50
313.4589107655399
 51
134.9119888645313
  0
SPLINE
  5
129
330
1F
100
AcDbEntity
  8
Make2D$visible$lines
100
AcDbSpline
210
0.0
220
0.0
230
1.0
 70
    24
 71
     2
 72
     6
 73
     3
 74
     0
 42
0.000000001
 43
0.0000000001
 40
4.181561921698945
 40
4.181561921698945
 40
4.181561921698945
 40
13.22957176769055
 40
13.22957176769055
 40
13.22957176769055
 10
-102.5428630175791
 20
307.7385123189675
 30
0.0
 10
-107.0668679405837
 20
307.7385123189674
 30
0.0
 10
-111.5908728635884
 20
307.7385123189673
 30
0.0
  0
ARC
  5
12A
330
1F
100
AcDbEntity
  8
Make2D$visible$lines
100
AcDbCircle
 10
-113.7905423174177
 20
305.6985480315616
 30
0.0
 40
3.0
100
AcDbArc
 50
42.84271281458897
 51
223.6486320004268
  0
SPLINE
  5
12B
330
1F
100
AcDbEntity
  8
Make2D$visible$lines
100
AcDbSpline
210
0.0
220
0.0
230
1.0
 70
    24
 71
     2
 72
     6
 73
     3
 74
     0
 42
0.000000001
 43
0.0000000001
 40
4.110666179452903
 40
4.110666179452903
 40
4.110666179452903
 40
45.44925383376614
 40
45.44925383376614
 40
45.44925383376614
 10
-115.9613010958803
 20
303.6278461395146
 30
0.0
 10
-115.9613010958803
 20
282.9585523123581
 30
0.0
 10
-115.9613010958803
 20
262.2892584852016
 30
0.0
  0
SPLINE
  5
12C
330
1F
100
AcDbEntity
  8
side
100
AcDbSpline
210
0.0
220
0.0
230
1.0
 70
    24
 71
     2
 72
     6
 73
     3
 74
     0
 42
0.000000001
 43
0.0000000001
 40
4.251828160226104
 40
4.251828160226104
 40
4.251828160226104
 40
45.93760127383414
 40
45.93760127383414
 40
45.93760127383414
 10
34.03869890411966
 20
261.9903404791917
 30
0.0
 10
34.03869890411966
 20
282.8332270359967
 30
0.0
 10
34.03869890411966
 20
303.6761135928018
 30
0.0
  0
ARC
  5
12D
330
1F
100
AcDbEntity
  8
side
100
AcDbCircle
 10
31.92297960082419
 20
305.8030202267806
 30
0.0
 40
3.0
100
AcDbArc
 50
314.8489177796899
 51
139.822024956687
  0
SPLINE
  5
12E
330
1F
100
AcDbEntity
  8
side
100
AcDbSpline
210
0.0
220
0.0
230
1.0
 70
    24
 71
     2
 72
     6
 73
     3
 74
     0
 42
0.000000001
 43
0.0000000001
 40
4.407851577201756
 40
4.407851577201756
 40
4.407851577201756
 40
13.55692181576142
 40
13.55692181576142
 40
13.55692181576142
 10
29.630847326918
 20
307.7385123189673
 30
0.0
 10
25.05631220763814
 20
307.7385123189674
 30
0.0
 10
20.48177708835829
 20
307.7385123189674
 30
0.0
  0
ARC
  5
12F
330
1F
100
AcDbEntity
  8
side
100
AcDbCircle
 10
18.47505900878878
 20
305.5084713890452
 30
0.0
 40
3.0
100
AcDbArc
 50
48.01731254303552
 51
227.2510957766761
  0
SPLINE
  5
130
330
1F
100
AcDbEntity
  8
side
100
AcDbSpline
210
0.0
220
0.0
230
1.0
 70
    24
 71
     2
 72
     6
 73
     3
 74
     0
 42
0.000000001
 43
0.0000000001
 40
4.433047403837546
 40
4.433047403837546
 40
4.433047403837546
 40
45.76546593560053
 40
45.76546593560053
 40
45.76546593560053
 10
16.43869890411997
 20
303.3054649151297
 30
0.0
 10
16.43869890411986
 20
282.6392556492468
 30
0.0
 10
16.43869890411975
 20
261.9730463833638
 30
0.0
  0
ARC
  5
131
330
1F
100
AcDbEntity
  8
side
100
AcDbCircle
 10
18.51357850507497
 20
259.8062804427185
 30
0.0
 40
3.0
100
AcDbArc
 50
133.7590014069222
 51
316.428753096963
  0
SPLINE
  5
132
330
1F
100
AcDbEntity
  8
side
100
AcDbSpline
210
0.0
220
0.0
230
1.0
 70
    24
 71
     2
 72
     6
 73
     3
 74
     0
 42
0.000000001
 43
0.0000000001
 40
4.248433139845256
 40
4.248433139845256
 40
4.248433139845256
 40
13.36769076513756
 40
13.36769076513756
 40
13.36769076513756
 10
20.68713204395999
 20
257.7385123189677
 30
0.0
 10
25.24676085660894
 20
257.7385123189677
 30
0.0
 10
29.8063896692579
 20
257.7385123189677
 30
0.0
  0
ARC
  5
133
330
1F
100
AcDbEntity
  8
side
100
AcDbCircle
 10
31.95711237381443
 20
259.8300170041417
 30
0.0
 40
3.0
100
AcDbArc
 50
224.2002497946657
 51
46.06338338774972
  0
ARC
  5
134
330
1F
100
AcDbEntity
  8
side
100
AcDbCircle
 10
147.0618430558379
 20
1177.153563101482
 30
0.0
 40
3.0
100
AcDbArc
 50
225.8776159651548
 51
226.5847385577594
  0
ARC
  5
135
330
1F
100
AcDbEntity
  8
side
100
AcDbCircle
 10
147.014968894963
 20
1177.012940618857
 30
0.0
 40
3.0
100
AcDbArc
 50
132.1950277601218
 51
317.8572372612603
  0
SPLINE
  5
136
330
1F
100
AcDbEntity
  8
side
100
AcDbSpline
210
0.0
220
0.0
230
1.0
 70
    24
 71
     2
 72
     6
 73
     3
 74
     0
 42
0.000000001
 43
0.0000000001
 40
4.239394678160294
 40
4.239394678160294
 40
4.239394678160294
 40
13.30376717130323
 40
13.30376717130323
 40
13.30376717130323
 10
149.2393946781606
 20
1175.0
 30
0.0
 10
153.7715809247367
 20
1175.0
 30
0.0
 10
158.3037671713128
 20
1175.0
 30
0.0
  0
ARC
  5
137
330
1F
100
AcDbEntity
  8
side
100
AcDbCircle
 10
160.4903004946891
 20
1177.054037980604
 30
0.0
 40
3.0
100
AcDbArc
 50
223.210393241673
 51
45.31301942080628
  0
SPLINE
  5
138
330
1F
100
AcDbEntity
  8
side
100
AcDbSpline
210
0.0
220
0.0
230
1.0
 70
    24
 71
     2
 72
     6
 73
     3
 74
     0
 42
0.000000001
 43
0.0000000001
 40
4.186915848015824
 40
4.186915848015824
 40
4.186915848015824
 40
45.89425014746792
 40
45.89425014746792
 40
45.89425014746792
 10
162.6000000000001
 20
1179.186915848015
 30
0.0
 10
162.5999999999998
 20
1200.040582997742
 30
0.0
 10
162.5999999999995
 20
1220.894250147468
 30
0.0
  0
ARC
  5
139
330
1F
100
AcDbEntity
  8
side
100
AcDbCircle
 10
160.4593100863049
 20
1222.996022421861
 30
0.0
 40
3.0
100
AcDbArc
 50
315.5255801556144
 51
138.0876845618718
  0
SPLINE
  5
13A
330
1F
100
AcDbEntity
  8
side
100
AcDbSpline
210
0.0
220
0.0
230
1.0
 70
    24
 71
     2
 72
     6
 73
     3
 74
     0
 42
0.000000001
 43
0.0000000001
 40
4.373193859115505
 40
4.373193859115505
 40
4.373193859115505
 40
12.80710178041624
 40
12.80710178041624
 40
12.80710178041624
 10
158.2268061408843
 20
1225.0
 30
0.0
 10
154.0098521802264
 20
1225.0
 30
0.0
 10
149.7928982195685
 20
1225.0
 30
0.0
  0
ARC
  5
13B
330
1F
100
AcDbEntity
  8
side
100
AcDbCircle
 10
147.3709867056339
 20
1223.229591962662
 30
0.0
 40
3.0
100
AcDbArc
 50
36.16666065026009
 51
217.7837414867664
  0
SPLINE
  5
13C
330
1F
100
AcDbEntity
  8
side
100
AcDbSpline
210
0.0
220
0.0
230
1.0
 70
    24
 71
     2
 72
     6
 73
     3
 74
     0
 42
0.000000001
 43
0.0000000001
 40
3.608456470243707
 40
3.608456470243707
 40
3.608456470243707
 40
45.76447072096975
 40
45.76447072096975
 40
45.76447072096975
 10
145.0
 20
1221.391543529756
 30
0.0
 10
145.0
 20
1200.313536404393
 30
0.0
 10
145.0
 20
1179.235529279031
 30
0.0
  0
SPLINE
  5
13D
330
1F
100
AcDbEntity
  8
side
100
AcDbSpline
210
0.0
220
0.0
230
1.0
 70
    24
 71
     2
 72
     6
 73
     3
 74
     0
 42
0.000000001
 43
0.0000000001
 40
4.04455904361321
 40
4.04455904361321
 40
4.04455904361321
 40
45.51347597627696
 40
45.51347597627696
 40
45.51347597627696
 10
277.4000000000001
 20
1220.955440956387
 30
0.0
 10
277.4000000000001
 20
1200.220982490055
 30
0.0
 10
277.4000000000001
 20
1179.486524023723
 30
0.0
  0
ARC
  5
13E
330
1F
100
AcDbEntity
  8
side
100
AcDbCircle
 10
279.3440087797944
 20
1177.201610488361
 30
0.0
 40
3.0
100
AcDbArc
 50
130.3911997793139
 51
312.7881676371425
  0
SPLINE
  5
13F
330
1F
100
AcDbEntity
  8
side
100
AcDbSpline
210
0.0
220
0.0
230
1.0
 70
    24
 71
     2
 72
     6
 73
     3
 74
     0
 42
0.000000001
 43
0.0000000001
 40
3.98187807333119
 40
3.98187807333119
 40
3.98187807333119
 40
13.5908609431535
 40
13.5908609431535
 40
13.5908609431535
 10
281.3818780733313
 20
1175.0
 30
0.0
 10
286.1863695082424
 20
1175.0
 30
0.0
 10
290.9908609431534
 20
1175.0
 30
0.0
  0
ARC
  5
140
330
1F
100
AcDbEntity
  8
side
100
AcDbCircle
 10
293.0046855351463
 20
1177.223625533376
 30
0.0
 40
3.0
100
AcDbArc
 50
227.8344641745252
 51
48.30963247627901
  0
SPLINE
  5
141
330
1F
100
AcDbEntity
  8
side
100
AcDbSpline
210
0.0
220
0.0
230
1.0
 70
    24
 71
     2
 72
     6
 73
     3
 74
     0
 42
0.000000001
 43
0.0000000001
 40
4.463875561018161
 40
4.463875561018161
 40
4.463875561018161
 40
46.07574324491983
 40
46.07574324491983
 40
46.07574324491983
 10
295.0
 20
1179.463875561018
 30
0.0
 10
295.0
 20
1200.269809402969
 30
0.0
 10
295.0
 20
1221.07574324492
 30
0.0
  0
ARC
  5
142
330
1F
100
AcDbEntity
  8
side
100
AcDbCircle
 10
292.7553313081589
 20
1223.066085543086
 30
0.0
 40
3.0
100
AcDbArc
 50
318.4366733737095
 51
139.8614492074995
  0
SPLINE
  5
143
330
1F
100
AcDbEntity
  8
side
100
AcDbSpline
210
0.0
220
0.0
230
1.0
 70
    24
 71
     2
 72
     6
 73
     3
 74
     0
 42
0.000000001
 43
0.0000000001
 40
4.53813220219762
 40
4.53813220219762
 40
4.53813220219762
 40
13.16835220486001
 40
13.16835220486001
 40
13.16835220486001
 10
290.4618677978021
 20
1225.0
 30
0.0
 10
286.1467577964711
 20
1225.0
 30
0.0
 10
281.83164779514
 20
1225.0
 30
0.0
  0
ARC
  5
144
330
1F
100
AcDbEntity
  8
side
100
AcDbCircle
 10
279.6006004387473
 20
1222.994400914057
 30
0.0
 40
3.0
100
AcDbArc
 50
41.95394397255555
 51
222.816558121603
  0
SPLINE
  5
145
330
1F
100
AcDbEntity
  8
Make2D$visible$lines
100
AcDbSpline
210
0.0
220
0.0
230
1.0
 70
    24
 71
     2
 72
     6
 73
     3
 74
     0
 42
0.000000001
 43
0.0000000001
 40
17.56601440462827
 40
17.56601440462827
 40
17.56601440462827
 40
17.59999999999991
 40
17.59999999999991
 40
17.59999999999991
 10
812.5660144046283
 20
1175.0
 30
0.0
 10
812.5830072023141
 20
1175.0
 30
0.0
 10
812.5999999999999
 20
1175.0
 30
0.0
  0
SPLINE
  5
146
330
1F
100
AcDbEntity
  8
Make2D$visible$lines
100
AcDbSpline
210
0.0
220
0.0
230
1.0
 70
    24
 71
     2
 72
     6
 73
     3
 74
     0
 42
0.000000001
 43
0.0000000001
 40
17.59999999999991
 40
17.59999999999991
 40
17.59999999999991
 40
17.63435785826326
 40
17.63435785826326
 40
17.63435785826326
 10
812.5999999999999
 20
1175.0
 30
0.0
 10
812.5999999999999
 20
1175.017178929132
 30
0.0
 10
812.5999999999999
 20
1175.034357858263
 30
0.0
  0
SPLINE
  5
147
330
1F
100
AcDbEntity
  8
Make2D$visible$lines
100
AcDbSpline
210
0.0
220
0.0
230
1.0
 70
    24
 71
     2
 72
     6
 73
     3
 74
     0
 42
0.000000001
 43
0.0000000001
 40
49.96407754904297
 40
49.96407754904297
 40
49.96407754904297
 40
50.0
 40
50.0
 40
50.0
 10
145.0
 20
975.035922450957
 30
0.0
 10
145.0
 20
975.0179612254784
 30
0.0
 10
145.0
 20
974.9999999999999
 30
0.0
  0
SPLINE
  5
148
330
1F
100
AcDbEntity
  8
Make2D$visible$lines
100
AcDbSpline
210
0.0
220
0.0
230
1.0
 70
    24
 71
     2
 72
     6
 73
     3
 74
     0
 42
0.000000001
 43
0.0000000001
 40
50.0
 40
50.0
 40
50.0
 40
50.03571389412244
 40
50.03571389412244
 40
50.03571389412244
 10
145.0
 20
974.9999999999999
 30
0.0
 10
145.0178569470612
 20
974.9999999999999
 30
0.0
 10
145.0357138941224
 20
974.9999999999999
 30
0.0
  0
SPLINE
  5
149
330
1F
100
AcDbEntity
  8
Make2D$visible$lines
100
AcDbSpline
210
0.0
220
0.0
230
1.0
 70
    24
 71
     2
 72
     6
 73
     3
 74
     0
 42
0.000000001
 43
0.0000000001
 40
49.94544966200991
 40
49.94544966200991
 40
49.94544966200991
 40
50.0
 40
50.0
 40
50.0
 10
277.4000000000001
 20
975.0545503379899
 30
0.0
 10
277.4000000000001
 20
975.027275168995
 30
0.0
 10
277.4000000000001
 20
974.9999999999999
 30
0.0
  0
SPLINE
  5
14A
330
1F
100
AcDbEntity
  8
Make2D$visible$lines
100
AcDbSpline
210
0.0
220
0.0
230
1.0
 70
    24
 71
     2
 72
     6
 73
     3
 74
     0
 42
0.000000001
 43
0.0000000001
 40
50.0
 40
50.0
 40
50.0
 40
50.06205452537553
 40
50.06205452537553
 40
50.06205452537553
 10
277.4000000000001
 20
974.9999999999999
 30
0.0
 10
277.4310272626877
 20
975.0
 30
0.0
 10
277.4620545253754
 20
975.0
 30
0.0
  0
SPLINE
  5
14B
330
1F
100
AcDbEntity
  8
Make2D$visible$lines
100
AcDbSpline
210
0.0
220
0.0
230
1.0
 70
    24
 71
     2
 72
     6
 73
     3
 74
     0
 42
0.000000001
 43
0.0000000001
 40
349.9999999999999
 40
349.9999999999999
 40
349.9999999999999
 40
1250.0
 40
1250.0
 40
1250.0
 10
95.0
 20
925.0
 30
0.0
 10
545.0
 20
925.0
 30
0.0
 10
995.0
 20
925.0
 30
0.0
  0
SPLINE
  5
14C
330
1F
100
AcDbEntity
  8
Make2D$visible$lines
100
AcDbSpline
210
0.0
220
0.0
230
1.0
 70
    24
 71
     2
 72
     6
 73
     3
 74
     0
 42
0.000000001
 43
0.0000000001
 40
1250.0
 40
1250.0
 40
1250.0
 40
1600.0
 40
1600.0
 40
1600.0
 10
995.0
 20
925.0
 30
0.0
 10
995.0
 20
1100.0
 30
0.0
 10
995.0
 20
1275.0
 30
0.0
  0
SPLINE
  5
14D
330
1F
100
AcDbEntity
  8
Make2D$visible$lines
100
AcDbSpline
210
0.0
220
0.0
230
1.0
 70
    24
 71
     2
 72
     6
 73
     3
 74
     0
 42
0.000000001
 43
0.0000000001
 40
1600.0
 40
1600.0
 40
1600.0
 40
2500.0
 40
2500.0
 40
2500.0
 10
995.0
 20
1275.0
 30
0.0
 10
545.0
 20
1275.0
 30
0.0
 10
95.0
 20
1275.0
 30
0.0
  0
SPLINE
  5
14E
330
1F
100
AcDbEntity
  8
Make2D$visible$lines
100
AcDbSpline
210
0.0
220
0.0
230
1.0
 70
    24
 71
     2
 72
     6
 73
     3
 74
     0
 42
0.000000001
 43
0.0000000001
 40
2500.0
 40
2500.0
 40
2500.0
 40
2850.0
 40
2850.0
 40
2850.0
 10
95.0
 20
1275.0
 30
0.0
 10
95.0
 20
1100.0
 30
0.0
 10
95.0
 20
925.0
 30
0.0
  0
SPLINE
  5
14F
330
1F
100
AcDbEntity
  8
Make2D$visible$lines
100
AcDbSpline
210
0.0
220
0.0
230
1.0
 70
    24
 71
     2
 72
     6
 73
     3
 74
     0
 42
0.000000001
 43
0.0000000001
 40
17.57035797490064
 40
17.57035797490064
 40
17.57035797490064
 40
17.59999999999991
 40
17.59999999999991
 40
17.59999999999991
 10
927.4296420250994
 20
1025.0
 30
0.0
 10
927.4148210125497
 20
1025.0
 30
0.0
 10
927.4000000000001
 20
1025.0
 30
0.0
  0
SPLINE
  5
150
330
1F
100
AcDbEntity
  8
Make2D$visible$lines
100
AcDbSpline
210
0.0
220
0.0
230
1.0
 70
    24
 71
     2
 72
     6
 73
     3
 74
     0
 42
0.000000001
 43
0.0000000001
 40
17.59999999999991
 40
17.59999999999991
 40
17.59999999999991
 40
17.62703445600679
 40
17.62703445600679
 40
17.62703445600679
 10
927.4000000000001
 20
1025.0
 30
0.0
 10
927.4000000000001
 20
1024.986482771997
 30
0.0
 10
927.4000000000001
 20
1024.972965543993
 30
0.0
  0
SPLINE
  5
151
330
1F
100
AcDbEntity
  8
Make2D$visible$lines
100
AcDbSpline
210
0.0
220
0.0
230
1.0
 70
    24
 71
     2
 72
     6
 73
     3
 74
     0
 42
0.000000001
 43
0.0000000001
 40
4.21933180130273
 40
4.21933180130273
 40
4.21933180130273
 40
45.90382928844723
 40
45.90382928844723
 40
45.90382928844723
 10
812.5999999999999
 20
1179.219331801299
 30
0.0
 10
812.6
 20
1200.061580544876
 30
0.0
 10
812.6000000000001
 20
1220.903829288454
 30
0.0
  0
ARC
  5
152
330
1F
100
AcDbEntity
  8
Make2D$visible$lines
100
AcDbCircle
 10
810.4461269808085
 20
1222.992089573284
 30
0.0
 40
3.0
100
AcDbArc
 50
315.886118553719
 51
137.9866705471732
  0
SPLINE
  5
153
330
1F
100
AcDbEntity
  8
Make2D$visible$lines
100
AcDbSpline
210
0.0
220
0.0
230
1.0
 70
    24
 71
     2
 72
     6
 73
     3
 74
     0
 42
0.000000001
 43
0.0000000001
 40
4.382840429964309
 40
4.382840429964309
 40
4.382840429964309
 40
13.56360051653416
 40
13.56360051653416
 40
13.56360051653416
 10
808.2171595700361
 20
1225.0
 30
0.0
 10
803.6267795267511
 20
1225.0
 30
0.0
 10
799.0363994834661
 20
1225.0
 30
0.0
  0
ARC
  5
154
330
1F
100
AcDbEntity
  8
Make2D$visible$lines
100
AcDbCircle
 10
797.0124447550741
 20
1222.785590991388
 30
0.0
 40
3.0
100
AcDbArc
 50
47.57290106678212
 51
227.8700082143048
  0
SPLINE
  5
155
330
1F
100
AcDbEntity
  8
Make2D$visible$lines
100
AcDbSpline
210
0.0
220
0.0
230
1.0
 70
    24
 71
     2
 72
     6
 73
     3
 74
     0
 42
0.000000001
 43
0.0000000001
 40
4.43928341130814
 40
4.43928341130814
 40
4.43928341130814
 40
45.674333081706
 40
45.674333081706
 40
45.674333081706
 10
795.0
 20
1220.560716588691
 30
0.0
 10
795.0
 20
1199.943191753493
 30
0.0
 10
795.0
 20
1179.325666918294
 30
0.0
  0
ARC
  5
156
330
1F
100
AcDbEntity
  8
Make2D$visible$lines
100
AcDbCircle
 10
797.0408776109987
 20
1177.126844829783
 30
0.0
 40
3.0
100
AcDbArc
 50
132.8665071476893
 51
314.8505914741112
  0
SPLINE
  5
157
330
1F
100
AcDbEntity
  8
Make2D$visible$lines
100
AcDbSpline
210
0.0
220
0.0
230
1.0
 70
    24
 71
     2
 72
     6
 73
     3
 74
     0
 42
0.000000001
 43
0.0000000001
 40
4.156659043478237
 40
4.156659043478237
 40
4.156659043478237
 40
13.33445153966914
 40
13.33445153966914
 40
13.33445153966914
 10
799.1566590434784
 20
1175.0
 30
0.0
 10
803.7455552915737
 20
1175.0
 30
0.0
 10
808.3344515396691
 20
1175.0
 30
0.0
  0
ARC
  5
158
330
1F
100
AcDbEntity
  8
Make2D$visible$lines
100
AcDbCircle
 10
810.4502329721486
 20
1177.126844829783
 30
0.0
 40
3.0
100
AcDbArc
 50
225.149408525895
 51
44.22642395816113
  0
ARC
  5
159
330
1F
100
AcDbEntity
  8
side
100
AcDbCircle
 10
929.5564854967918
 20
1177.07080995327
 30
0.0
 40
3.0
100
AcDbArc
 50
135.95784365285
 51
316.3485157254623
  0
SPLINE
  5
15A
330
1F
100
AcDbEntity
  8
side
100
AcDbSpline
210
0.0
220
0.0
230
1.0
 70
    24
 71
     2
 72
     6
 73
     3
 74
     0
 42
0.000000001
 43
0.0000000001
 40
4.327141189768512
 40
4.327141189768512
 40
4.327141189768512
 40
13.25754870774094
 40
13.25754870774094
 40
13.25754870774094
 10
931.7271411897646
 20
1175.0
 30
0.0
 10
936.1923449487554
 20
1175.0
 30
0.0
 10
940.6575487077462
 20
1175.0
 30
0.0
  0
ARC
  5
15B
330
1F
100
AcDbEntity
  8
side
100
AcDbCircle
 10
942.8316135279601
 20
1177.067230552577
 30
0.0
 40
3.0
100
AcDbArc
 50
223.5570779688082
 51
43.71423374211843
  0
SPLINE
  5
15C
330
1F
100
AcDbEntity
  8
side
100
AcDbSpline
210
0.0
220
0.0
230
1.0
 70
    24
 71
     2
 72
     6
 73
     3
 74
     0
 42
0.000000001
 43
0.0000000001
 40
4.140416532626881
 40
4.140416532626881
 40
4.140416532626881
 40
45.87215309758469
 40
45.87215309758469
 40
45.87215309758469
 10
945.0
 20
1179.140416532627
 30
0.0
 10
945.0
 20
1200.006284815106
 30
0.0
 10
945.0
 20
1220.872153097584
 30
0.0
  0
ARC
  5
15D
330
1F
100
AcDbEntity
  8
side
100
AcDbCircle
 10
942.838176107226
 20
1222.95218133216
 30
0.0
 40
3.0
100
AcDbArc
 50
316.1046979275334
 51
136.9523603012837
  0
SPLINE
  5
15E
330
1F
100
AcDbEntity
  8
side
100
AcDbSpline
210
0.0
220
0.0
230
1.0
 70
    24
 71
     2
 72
     6
 73
     3
 74
     0
 42
0.000000001
 43
0.0000000001
 40
4.354183056712165
 40
4.354183056712165
 40
4.354183056712165
 40
13.27168121505174
 40
13.27168121505174
 40
13.27168121505174
 10
940.6458169433008
 20
1225.0
 30
0.0
 10
936.187067864119
 20
1225.0
 30
0.0
 10
931.7283187849371
 20
1225.0
 30
0.0
  0
ARC
  5
15F
330
1F
100
AcDbEntity
  8
side
100
AcDbCircle
 10
929.5397094757502
 20
1222.948174156576
 30
0.0
 40
3.0
100
AcDbArc
 50
43.15245405020138
 51
224.5011409218679
  0
SPLINE
  5
160
330
1F
100
AcDbEntity
  8
side
100
AcDbSpline
210
0.0
220
0.0
230
1.0
 70
    24
 71
     2
 72
     6
 73
     3
 74
     0
 42
0.000000001
 43
0.0000000001
 40
4.154596244439368
 40
4.154596244439368
 40
4.154596244439368
 40
45.84362769998381
 40
45.84362769998381
 40
45.84362769998381
 10
927.4000000000005
 20
1220.845403755561
 30
0.0
 10
927.4000000000003
 20
1200.000888027784
 30
0.0
 10
927.4000000000001
 20
1179.156372300008
 30
0.0
  0
SPLINE
  5
161
330
1F
100
AcDbEntity
  8
Make2D$visible$lines
100
AcDbSpline
210
0.0
220
0.0
230
1.0
 70
    24
 71
     2
 72
     6
 73
     3
 74
     0
 42
0.000000001
 43
0.0000000001
 40
4.245466219813741
 40
4.245466219813741
 40
4.245466219813741
 40
45.76987971463268
 40
45.76987971463268
 40
45.76987971463268
 10
145.0000000000002
 20
1020.754533780186
 30
0.0
 10
145.0000000000001
 20
999.9923270327754
 30
0.0
 10
145.0
 20
979.230120285365
 30
0.0
  0
ARC
  5
162
330
1F
100
AcDbEntity
  8
Make2D$visible$lines
100
AcDbCircle
 10
147.1452683122316
 20
977.133021368162
 30
0.0
 40
3.0
100
AcDbArc
 50
135.6505293608507
 51
314.6830832136706
  0
SPLINE
  5
163
330
1F
100
AcDbEntity
  8
Make2D$visible$lines
100
AcDbSpline
210
0.0
220
0.0
230
1.0
 70
    24
 71
     2
 72
     6
 73
     3
 74
     0
 42
0.000000001
 43
0.0000000001
 40
4.254822730340683
 40
4.254822730340683
 40
4.254822730340683
 40
13.59915107461761
 40
13.59915107461761
 40
13.59915107461761
 10
149.2548227303409
 20
975.0000000000001
 30
0.0
 10
153.9269869024796
 20
975.0000000000001
 30
0.0
 10
158.5991510746182
 20
975.0000000000001
 30
0.0
  0
ARC
  5
164
330
1F
100
AcDbEntity
  8
Make2D$visible$lines
100
AcDbCircle
 10
160.7504383677228
 20
977.0909239542669
 30
0.0
 40
3.0
100
AcDbArc
 50
224.1847810115473
 51
51.93751100001243
  0
SPLINE
  5
165
330
1F
100
AcDbEntity
  8
Make2D$visible$lines
100
AcDbSpline
210
0.0
220
0.0
230
1.0
 70
    24
 71
     2
 72
     6
 73
     3
 74
     0
 42
0.000000001
 43
0.0000000001
 40
4.45294041661626
 40
4.45294041661626
 40
4.45294041661626
 40
45.70975705512586
 40
45.70975705512586
 40
45.70975705512586
 10
162.6000000000001
 20
979.452940416616
 30
0.0
 10
162.6000000000001
 20
1000.081348735873
 30
0.0
 10
162.6000000000001
 20
1020.70975705513
 30
0.0
  0
ARC
  5
166
330
1F
100
AcDbEntity
  8
Make2D$visible$lines
100
AcDbCircle
 10
160.5311673756844
 20
1022.882297405174
 30
0.0
 40
3.0
100
AcDbArc
 50
313.5993141238499
 51
135.0976304139026
  0
SPLINE
  5
167
330
1F
100
AcDbEntity
  8
Make2D$visible$lines
100
AcDbSpline
210
0.0
220
0.0
230
1.0
 70
    24
 71
     2
 72
     6
 73
     3
 74
     0
 42
0.000000001
 43
0.0000000001
 40
4.193764557311946
 40
4.193764557311946
 40
4.193764557311946
 40
13.36030346367553
 40
13.36030346367553
 40
13.36030346367553
 10
158.4062354426878
 20
1025.0
 30
0.0
 10
153.8229659895061
 20
1025.0
 30
0.0
 10
149.2396965363243
 20
1025.0
 30
0.0
  0
ARC
  5
168
330
1F
100
AcDbEntity
  8
Make2D$visible$lines
100
AcDbCircle
 10
147.1087172167126
 20
1022.888382814195
 30
0.0
 40
3.0
100
AcDbArc
 50
44.73851841760646
 51
225.3394007624152
  0
SPLINE
  5
169
330
1F
100
AcDbEntity
  8
Make2D$visible$lines
100
AcDbSpline
210
0.0
220
0.0
230
1.0
 70
    24
 71
     2
 72
     6
 73
     3
 74
     0
 42
0.000000001
 43
0.0000000001
 40
3.96103205758789
 40
3.96103205758789
 40
3.96103205758789
 40
13.70070300020816
 40
13.70070300020816
 40
13.70070300020816
 10
281.3610320575883
 20
975.0
 30
0.0
 10
286.2308675288994
 20
975.0
 30
0.0
 10
291.1007030002104
 20
974.9999999999999
 30
0.0
  0
ARC
  5
16A
330
1F
100
AcDbEntity
  8
Make2D$visible$lines
100
AcDbCircle
 10
293.1972517169324
 20
977.1458060206858
 30
0.0
 40
3.0
100
AcDbArc
 50
225.6652222619005
 51
53.06446371590441
  0
SPLINE
  5
16B
330
1F
100
AcDbEntity
  8
Make2D$visible$lines
100
AcDbSpline
210
0.0
220
0.0
230
1.0
 70
    24
 71
     2
 72
     6
 73
     3
 74
     0
 42
0.000000001
 43
0.0000000001
 40
4.543742347592143
 40
4.543742347592143
 40
4.543742347592143
 40
45.53185236714597
 40
45.53185236714597
 40
45.53185236714597
 10
295.0
 20
979.5437423475921
 30
0.0
 10
295.0
 20
1000.037797357369
 30
0.0
 10
295.0
 20
1020.531852367146
 30
0.0
  0
ARC
  5
16C
330
1F
100
AcDbEntity
  8
Make2D$visible$lines
100
AcDbCircle
 10
293.0420282767629
 20
1022.804812272424
 30
0.0
 40
3.0
100
AcDbArc
 50
310.7422473617378
 51
132.9684408821416
  0
SPLINE
  5
16D
330
1F
100
AcDbEntity
  8
Make2D$visible$lines
100
AcDbSpline
210
0.0
220
0.0
230
1.0
 70
    24
 71
     2
 72
     6
 73
     3
 74
     0
 42
0.000000001
 43
0.0000000001
 40
4.002757981187198
 40
4.002757981187198
 40
4.002757981187198
 40
12.65013930522886
 40
12.65013930522886
 40
12.65013930522886
 10
290.9972420188124
 20
1025.0
 30
0.0
 10
286.6735513567918
 20
1025.0
 30
0.0
 10
282.3498606947712
 20
1025.0
 30
0.0
  0
ARC
  5
16E
330
1F
100
AcDbEntity
  8
Make2D$visible$lines
100
AcDbCircle
 10
279.8356342926129
 20
1023.363337054036
 30
0.0
 40
3.0
100
AcDbArc
 50
33.06255174283909
 51
215.7201654196924
  0
SPLINE
  5
16F
330
1F
100
AcDbEntity
  8
Make2D$visible$lines
100
AcDbSpline
210
0.0
220
0.0
230
1.0
 70
    24
 71
     2
 72
     6
 73
     3
 74
     0
 42
0.000000001
 43
0.0000000001
 40
3.388143917212875
 40
3.388143917212875
 40
3.388143917212875
 40
45.49407073565684
 40
45.49407073565684
 40
45.49407073565684
 10
277.4000000000001
 20
1021.611856082787
 30
0.0
 10
277.4000000000001
 20
1000.558892673565
 30
0.0
 10
277.4000000000001
 20
979.5059292643431
 30
0.0
  0
ARC
  5
170
330
1F
100
AcDbEntity
  8
Make2D$visible$lines
100
AcDbCircle
 10
279.4115432914818
 20
977.2802398011665
 30
0.0
 40
3.0
100
AcDbArc
 50
132.1067812172919
 51
310.5287548244694
  0
ARC
  5
171
330
1F
100
AcDbEntity
  8
Make2D$visible$lines
100
AcDbCircle
 10
796.9278231398409
 20
977.252160091819
 30
0.0
 40
3.0
100
AcDbArc
 50
129.9865460944503
 51
311.3472122894617
  0
SPLINE
  5
172
330
1F
100
AcDbEntity
  8
Make2D$visible$lines
100
AcDbSpline
210
0.0
220
0.0
230
1.0
 70
    24
 71
     2
 72
     6
 73
     3
 74
     0
 42
0.000000001
 43
0.0000000001
 40
3.909684618556407
 40
3.909684618556407
 40
3.909684618556407
 40
13.36118799669745
 40
13.36118799669745
 40
13.36118799669745
 10
798.9096846185566
 20
974.9999999999999
 30
0.0
 10
803.6354363076276
 20
975.0
 30
0.0
 10
808.3611879966986
 20
975.0
 30
0.0
  0
ARC
  5
173
330
1F
100
AcDbEntity
  8
Make2D$visible$lines
100
AcDbCircle
 10
810.5167383423561
 20
977.0865288656847
 30
0.0
 40
3.0
100
AcDbArc
 50
224.0678414098977
 51
46.01893929462024
  0
SPLINE
  5
174
330
1F
100
AcDbEntity
  8
Make2D$visible$lines
100
AcDbSpline
210
0.0
220
0.0
230
1.0
 70
    24
 71
     2
 72
     6
 73
     3
 74
     0
 42
0.000000001
 43
0.0000000001
 40
4.245237013119126
 40
4.245237013119126
 40
4.245237013119126
 40
45.69782013582249
 40
45.69782013582249
 40
45.69782013582249
 10
812.5999999999999
 20
979.2452370131172
 30
0.0
 10
812.5999999999999
 20
999.9715285744728
 30
0.0
 10
812.5999999999999
 20
1020.697820135829
 30
0.0
  0
ARC
  5
175
330
1F
100
AcDbEntity
  8
Make2D$visible$lines
100
AcDbCircle
 10
810.536497394023
 20
1022.875423633972
 30
0.0
 40
3.0
100
AcDbArc
 50
313.4589107655391
 51
134.9119888645316
  0
SPLINE
  5
176
330
1F
100
AcDbEntity
  8
Make2D$visible$lines
100
AcDbSpline
210
0.0
220
0.0
230
1.0
 70
    24
 71
     2
 72
     6
 73
     3
 74
     0
 42
0.000000001
 43
0.0000000001
 40
4.181561921698945
 40
4.181561921698945
 40
4.181561921698945
 40
13.22957176769055
 40
13.22957176769055
 40
13.22957176769055
 10
808.4184380783013
 20
1025.0
 30
0.0
 10
803.8944331552966
 20
1025.0
 30
0.0
 10
799.3704282322919
 20
1025.0
 30
0.0
  0
ARC
  5
177
330
1F
100
AcDbEntity
  8
Make2D$visible$lines
100
AcDbCircle
 10
797.1707587784626
 20
1022.960035712594
 30
0.0
 40
3.0
100
AcDbArc
 50
42.84271281458775
 51
223.6486320004258
  0
SPLINE
  5
178
330
1F
100
AcDbEntity
  8
Make2D$visible$lines
100
AcDbSpline
210
0.0
220
0.0
230
1.0
 70
    24
 71
     2
 72
     6
 73
     3
 74
     0
 42
0.000000001
 43
0.0000000001
 40
4.110666179452903
 40
4.110666179452903
 40
4.110666179452903
 40
45.44925383376614
 40
45.44925383376614
 40
45.44925383376614
 10
795.0
 20
1020.889333820547
 30
0.0
 10
795.0
 20
1000.22003999339
 30
0.0
 10
795.0
 20
979.5507461662339
 30
0.0
  0
SPLINE
  5
179
330
1F
100
AcDbEntity
  8
side
100
AcDbSpline
210
0.0
220
0.0
230
1.0
 70
    24
 71
     2
 72
     6
 73
     3
 74
     0
 42
0.000000001
 43
0.0000000001
 40
4.251828160226104
 40
4.251828160226104
 40
4.251828160226104
 40
45.93760127383414
 40
45.93760127383414
 40
45.93760127383414
 10
945.0
 20
979.251828160224
 30
0.0
 10
945.0
 20
1000.094714717029
 30
0.0
 10
945.0
 20
1020.937601273834
 30
0.0
  0
ARC
  5
17A
330
1F
100
AcDbEntity
  8
side
100
AcDbCircle
 10
942.8842806967045
 20
1023.064507907813
 30
0.0
 40
3.0
100
AcDbArc
 50
314.8489177796902
 51
139.8220249566854
  0
SPLINE
  5
17B
330
1F
100
AcDbEntity
  8
side
100
AcDbSpline
210
0.0
220
0.0
230
1.0
 70
    24
 71
     2
 72
     6
 73
     3
 74
     0
 42
0.000000001
 43
0.0000000001
 40
4.407851577201756
 40
4.407851577201756
 40
4.407851577201756
 40
13.55692181576142
 40
13.55692181576142
 40
13.55692181576142
 10
940.5921484227983
 20
1025.0
 30
0.0
 10
936.0176133035185
 20
1025.0
 30
0.0
 10
931.4430781842386
 20
1025.0
 30
0.0
  0
ARC
  5
17C
330
1F
100
AcDbEntity
  8
side
100
AcDbCircle
 10
929.4363601046691
 20
1022.769959070078
 30
0.0
 40
3.0
100
AcDbArc
 50
48.01731254303603
 51
227.2510957766766
  0
SPLINE
  5
17D
330
1F
100
AcDbEntity
  8
side
100
AcDbSpline
210
0.0
220
0.0
230
1.0
 70
    24
 71
     2
 72
     6
 73
     3
 74
     0
 42
0.000000001
 43
0.0000000001
 40
4.433047403837546
 40
4.433047403837546
 40
4.433047403837546
 40
45.76546593560053
 40
45.76546593560053
 40
45.76546593560053
 10
927.4000000000003
 20
1020.566952596162
 30
0.0
 10
927.4000000000002
 20
999.900743330279
 30
0.0
 10
927.4000000000001
 20
979.2345340643961
 30
0.0
  0
ARC
  5
17E
330
1F
100
AcDbEntity
  8
side
100
AcDbCircle
 10
929.4748796009553
 20
977.0677681237509
 30
0.0
 40
3.0
100
AcDbArc
 50
133.7590014069214
 51
316.4287530969623
  0
SPLINE
  5
17F
330
1F
100
AcDbEntity
  8
side
100
AcDbSpline
210
0.0
220
0.0
230
1.0
 70
    24
 71
     2
 72
     6
 73
     3
 74
     0
 42
0.000000001
 43
0.0000000001
 40
4.248433139845256
 40
4.248433139845256
 40
4.248433139845256
 40
13.36769076513756
 40
13.36769076513756
 40
13.36769076513756
 10
931.6484331398403
 20
975.0
 30
0.0
 10
936.2080619524893
 20
975.0
 30
0.0
 10
940.7676907651382
 20
975.0
 30
0.0
  0
ARC
  5
180
330
1F
100
AcDbEntity
  8
side
100
AcDbCircle
 10
942.9184134696948
 20
977.0915046851741
 30
0.0
 40
3.0
100
AcDbArc
 50
224.2002497946669
 51
46.0633833877522
  0
ARC
  5
181
330
1F
100
AcDbEntity
  8
side
100
AcDbCircle
 10
465.2227693810758
 20
812.0946065154279
 30
0.0
 40
3.0
100
AcDbArc
 50
39.35557408914391
 51
222.2041056900673
  0
SPLINE
  5
182
330
1F
100
AcDbEntity
  8
Make2D$visible$lines
100
AcDbSpline
210
0.0
220
0.0
230
1.0
 70
    24
 71
     2
 72
     6
 73
     3
 74
     0
 42
0.000000001
 43
0.0000000001
 40
3.917685700495198
 40
3.917685700495198
 40
3.917685700495198
 40
145.35534570424
 40
145.35534570424
 40
145.35534570424
 10
463.0004738820951
 20
810.0793142995918
 30
0.0
 10
463.0000024232285
 20
739.360484299291
 30
0.0
 10
462.9995309643618
 20
668.6416542989901
 30
0.0
  0
SPLINE
  5
183
330
1F
100
AcDbEntity
  8
Make2D$visible$lines
100
AcDbSpline
210
0.0
220
0.0
230
1.0
 70
    24
 71
     2
 72
     6
 73
     3
 74
     0
 42
0.000000001
 43
0.0000000001
 40
0.0
 40
0.0
 40
0.0
 40
13.45705412642412
 40
13.45705412642412
 40
13.45705412642412
 10
480.9994999999999
 20
813.997
 30
0.0
 10
474.2709729367879
 20
813.997
 30
0.0
 10
467.5424458735758
 20
813.997
 30
0.0
  0
SPLINE
  5
184
330
1F
100
AcDbEntity
  8
Make2D$visible$lines
100
AcDbSpline
210
0.0
220
0.0
230
1.0
 70
    24
 71
     2
 72
     6
 73
     3
 74
     0
 42
0.000000001
 43
0.0000000001
 40
0.0
 40
0.0
 40
0.0
 40
45.7070054623802
 40
45.7070054623802
 40
45.7070054623802
 10
463.0004999999996
 20
914.0
 30
0.0
 10
463.0000429573679
 20
891.14649727338
 30
0.0
 10
462.9995859147361
 20
868.2929945467599
 30
0.0
  0
SPLINE
  5
185
330
1F
100
AcDbEntity
  8
Make2D$visible$lines
100
AcDbSpline
210
0.0
220
0.0
230
1.0
 70
    24
 71
     2
 72
     6
 73
     3
 74
     0
 42
0.000000001
 43
0.0000000001
 40
4.188574869916531
 40
4.188574869916531
 40
4.188574869916531
 40
18.0
 40
18.0
 40
18.0
 10
467.1880748699166
 20
863.9969999999998
 30
0.0
 10
474.0937874349582
 20
863.9969999999998
 30
0.0
 10
480.9994999999999
 20
863.9969999999998
 30
0.0
  0
SPLINE
  5
186
330
1F
100
AcDbEntity
  8
Make2D$visible$lines
100
AcDbSpline
210
0.0
220
0.0
230
1.0
 70
    24
 71
     2
 72
     6
 73
     3
 74
     0
 42
0.000000001
 43
0.0000000001
 40
0.0
 40
0.0
 40
0.0
 40
0.0013333333329786
 40
0.0013333333329786
 40
0.0013333333329786
 10
462.9994999999999
 20
863.9969999999998
 30
0.0
 10
463.0001666666665
 20
863.9969999999998
 30
0.0
 10
463.000833333333
 20
863.9969999999998
 30
0.0
  0
ARC
  5
187
330
1F
100
AcDbEntity
  8
side
100
AcDbCircle
 10
465.082559637302
 20
866.1340085646129
 30
0.0
 40
3.0
100
AcDbArc
 50
133.9395639392889
 51
314.574686684295
  0
ARC
  5
188
330
1F
100
AcDbEntity
  8
side
100
AcDbCircle
 10
110.6650092269306
 20
812.214260504674
 30
0.0
 40
3.0
100
AcDbArc
 50
321.1231604825087
 51
143.5410646958051
  0
SPLINE
  5
189
330
1F
100
AcDbEntity
  8
Make2D$visible$lines
100
AcDbSpline
210
0.0
220
0.0
230
1.0
 70
    24
 71
     2
 72
     6
 73
     3
 74
     0
 42
0.000000001
 43
0.0000000001
 40
3.968762979916773
 40
3.968762979916773
 40
3.968762979916773
 40
146.3343152455369
 40
146.3343152455369
 40
146.3343152455369
 10
113.0005000000001
 20
667.9657629799166
 30
0.0
 10
113.0005000000001
 20
739.1485391127267
 30
0.0
 10
113.0005000000001
 20
810.3313152455368
 30
0.0
  0
SPLINE
  5
18A
330
1F
100
AcDbEntity
  8
Make2D$visible$lines
100
AcDbSpline
210
0.0
220
0.0
230
1.0
 70
    24
 71
     2
 72
     6
 73
     3
 74
     0
 42
0.000000001
 43
0.0000000001
 40
4.748339689144607
 40
4.748339689144607
 40
4.748339689144607
 40
18.0
 40
18.0
 40
18.0
 10
108.2521603108553
 20
813.997
 30
0.0
 10
101.6263301554277
 20
813.997
 30
0.0
 10
95.0005000000001
 20
813.997
 30
0.0
  0
ARC
  5
18B
330
1F
100
AcDbEntity
  8
side
100
AcDbCircle
 10
110.8314222610916
 20
865.9971811169626
 30
0.0
 40
3.0
100
AcDbArc
 50
221.8149559056186
 51
43.6951261541426
  0
SPLINE
  5
18C
330
1F
100
AcDbEntity
  8
Make2D$visible$lines
100
AcDbSpline
210
0.0
220
0.0
230
1.0
 70
    24
 71
     2
 72
     6
 73
     3
 74
     0
 42
0.000000001
 43
0.0000000001
 40
0.0
 40
0.0
 40
0.0
 40
13.59501629273202
 40
13.59501629273202
 40
13.59501629273202
 10
95.0005000000001
 20
863.9969999999998
 30
0.0
 10
101.7980081463661
 20
863.9969999999998
 30
0.0
 10
108.5955162927321
 20
863.9969999999998
 30
0.0
  0
SPLINE
  5
18D
330
1F
100
AcDbEntity
  8
Make2D$visible$lines
100
AcDbSpline
210
0.0
220
0.0
230
1.0
 70
    24
 71
     2
 72
     6
 73
     3
 74
     0
 42
0.000000001
 43
0.0000000001
 40
4.072643845836661
 40
4.072643845836661
 40
4.072643845836661
 40
50.00300000000004
 40
50.00300000000004
 40
50.00300000000004
 10
113.0005000000001
 20
868.0696438458367
 30
0.0
 10
113.0005000000001
 20
891.0348219229184
 30
0.0
 10
113.0005000000001
 20
914.0
 30
0.0
  0
SPLINE
  5
18E
330
1F
100
AcDbEntity
  8
Make2D$visible$lines
100
AcDbSpline
210
0.0
220
0.0
230
1.0
 70
    24
 71
     2
 72
     6
 73
     3
 74
     0
 42
0.000000001
 43
0.0000000001
 40
0.0
 40
0.0
 40
0.0
 40
13.50252767816049
 40
13.50252767816049
 40
13.50252767816049
 10
95.0005000000001
 20
663.997
 30
0.0
 10
101.7517638390802
 20
663.9969999999998
 30
0.0
 10
108.5030276781604
 20
663.9969999999998
 30
0.0
  0
ARC
  5
18F
330
1F
100
AcDbEntity
  8
side
100
AcDbCircle
 10
110.8004566855911
 20
665.9262018960741
 30
0.0
 40
3.0
100
AcDbArc
 50
220.0209223570947
 51
42.83221128250263
  0
SPLINE
  5
190
330
1F
100
AcDbEntity
  8
Make2D$visible$lines
100
AcDbSpline
210
0.0
220
0.0
230
1.0
 70
    24
 71
     2
 72
     6
 73
     3
 74
     0
 42
0.000000001
 43
0.0000000001
 40
0.0
 40
0.0
 40
0.0
 40
46.22274976601276
 40
46.22274976601276
 40
46.22274976601276
 10
113.0005000000001
 20
564.0
 30
0.0
 10
113.0005000000001
 20
587.1113748830064
 30
0.0
 10
113.0005000000001
 20
610.2227497660127
 30
0.0
  0
SPLINE
  5
191
330
1F
100
AcDbEntity
  8
Make2D$visible$lines
100
AcDbSpline
210
0.0
220
0.0
230
1.0
 70
    24
 71
     2
 72
     6
 73
     3
 74
     0
 42
0.000000001
 43
0.0000000001
 40
4.663256548012137
 40
4.663256548012137
 40
4.663256548012137
 40
18.0
 40
18.0
 40
18.0
 10
108.3372434519879
 20
613.997
 30
0.0
 10
101.668871725994
 20
613.997
 30
0.0
 10
95.0005000000001
 20
613.997
 30
0.0
  0
ARC
  5
192
330
1F
100
AcDbEntity
  8
side
100
AcDbCircle
 10
110.6988352251456
 20
612.1468961388736
 30
0.0
 40
3.0
100
AcDbArc
 50
320.1050416003283
 51
141.9243568928929
  0
SPLINE
  5
193
330
1F
100
AcDbEntity
  8
Make2D$visible$lines
100
AcDbSpline
210
0.0
220
0.0
230
1.0
 70
    24
 71
     2
 72
     6
 73
     3
 74
     0
 42
0.000000001
 43
0.0000000001
 40
4.148224721623509
 40
4.148224721623509
 40
4.148224721623509
 40
49.99699999999984
 40
49.99699999999984
 40
49.99699999999984
 10
463.0004999999996
 20
609.8487752783764
 30
0.0
 10
463.0004999999996
 20
586.9243876391881
 30
0.0
 10
463.0004999999996
 20
564.0
 30
0.0
  0
SPLINE
  5
194
330
1F
100
AcDbEntity
  8
Make2D$visible$lines
100
AcDbSpline
210
0.0
220
0.0
230
1.0
 70
    24
 71
     2
 72
     6
 73
     3
 74
     0
 42
0.000000001
 43
0.0000000001
 40
0.0
 40
0.0
 40
0.0
 40
13.66400091829635
 40
13.66400091829635
 40
13.66400091829635
 10
480.9994999999999
 20
613.997
 30
0.0
 10
474.1674995408518
 20
613.9969999999998
 30
0.0
 10
467.3354990817038
 20
613.9969999999997
 30
0.0
  0
ARC
  5
195
330
1F
100
AcDbEntity
  8
side
100
AcDbCircle
 10
465.1666777483611
 20
611.9242689455565
 30
0.0
 40
3.0
100
AcDbArc
 50
43.70221434240225
 51
223.7752413607846
  0
SPLINE
  5
196
330
1F
100
AcDbEntity
  8
Make2D$visible$lines
100
AcDbSpline
210
0.0
220
0.0
230
1.0
 70
    24
 71
     2
 72
     6
 73
     3
 74
     0
 42
0.000000001
 43
0.0000000001
 40
149.9990068669797
 40
149.9990068669797
 40
149.9990068669797
 40
150.0000000033334
 40
150.0000000033334
 40
150.0000000033334
 10
462.999500006621
 20
663.9979931363536
 30
0.0
 10
462.9995000033105
 20
663.9974965681768
 30
0.0
 10
462.9994999999999
 20
663.997
 30
0.0
  0
SPLINE
  5
197
330
1F
100
AcDbEntity
  8
Make2D$visible$lines
100
AcDbSpline
210
0.0
220
0.0
230
1.0
 70
    24
 71
     2
 72
     6
 73
     3
 74
     0
 42
0.000000001
 43
0.0000000001
 40
3.798344288149774
 40
3.798344288149774
 40
3.798344288149774
 40
18.0
 40
18.0
 40
18.0
 10
466.7978442881499
 20
663.997
 30
0.0
 10
473.8986721440749
 20
663.997
 30
0.0
 10
480.9994999999999
 20
663.997
 30
0.0
  0
SPLINE
  5
198
330
1F
100
AcDbEntity
  8
Make2D$visible$lines
100
AcDbSpline
210
0.0
220
0.0
230
1.0
 70
    24
 71
     2
 72
     6
 73
     3
 74
     0
 42
0.000000001
 43
0.0000000001
 40
0.0
 40
0.0
 40
0.0
 40
0.0012144173051583
 40
0.0012144173051583
 40
0.0012144173051583
 10
462.9994999999999
 20
663.997
 30
0.0
 10
463.0001072086525
 20
663.997
 30
0.0
 10
463.0007144173051
 20
663.997
 30
0.0
  0
ARC
  5
199
330
1F
100
AcDbEntity
  8
side
100
AcDbCircle
 10
464.8992793527275
 20
666.3198110525792
 30
0.0
 40
3.0
100
AcDbArc
 50
129.2663623140155
 51
309.26107317517
  0
SPLINE
  5
19A
330
1F
100
AcDbEntity
  8
Make2D$visible$lines
100
AcDbSpline
210
0.0
220
0.0
230
1.0
 70
    24
 71
     2
 72
     6
 73
     3
 74
     0
 42
0.000000001
 43
0.0000000001
 40
0.0
 40
0.0
 40
0.0
 40
50.0
 40
50.0
 40
50.0
 10
480.9994999999999
 20
863.9969999999998
 30
0.0
 10
480.9994999999999
 20
838.9969999999998
 30
0.0
 10
480.9994999999999
 20
813.997
 30
0.0
  0
SPLINE
  5
19B
330
1F
100
AcDbEntity
  8
Make2D$visible$lines
100
AcDbSpline
210
0.0
220
0.0
230
1.0
 70
    24
 71
     2
 72
     6
 73
     3
 74
     0
 42
0.000000001
 43
0.0000000001
 40
0.0
 40
0.0
 40
0.0
 40
349.9999999999998
 40
349.9999999999998
 40
349.9999999999998
 10
113.0005000000001
 20
914.0
 30
0.0
 10
288.0004999999999
 20
914.0
 30
0.0
 10
463.0004999999996
 20
914.0
 30
0.0
  0
SPLINE
  5
19C
330
1F
100
AcDbEntity
  8
Make2D$visible$lines
100
AcDbSpline
210
0.0
220
0.0
230
1.0
 70
    24
 71
     2
 72
     6
 73
     3
 74
     0
 42
0.000000001
 43
0.0000000001
 40
0.0
 40
0.0
 40
0.0
 40
50.0
 40
50.0
 40
50.0
 10
95.0005000000001
 20
813.997
 30
0.0
 10
95.0005000000001
 20
838.9969999999998
 30
0.0
 10
95.0005000000001
 20
863.9969999999998
 30
0.0
  0
SPLINE
  5
19D
330
1F
100
AcDbEntity
  8
Make2D$visible$lines
100
AcDbSpline
210
0.0
220
0.0
230
1.0
 70
    24
 71
     2
 72
     6
 73
     3
 74
     0
 42
0.000000001
 43
0.0000000001
 40
0.0
 40
0.0
 40
0.0
 40
50.0
 40
50.0
 40
50.0
 10
95.0005000000001
 20
613.997
 30
0.0
 10
95.0005000000001
 20
638.997
 30
0.0
 10
95.0005000000001
 20
663.997
 30
0.0
  0
SPLINE
  5
19E
330
1F
100
AcDbEntity
  8
Make2D$visible$lines
100
AcDbSpline
210
0.0
220
0.0
230
1.0
 70
    24
 71
     2
 72
     6
 73
     3
 74
     0
 42
0.000000001
 43
0.0000000001
 40
0.0
 40
0.0
 40
0.0
 40
349.9999999999998
 40
349.9999999999998
 40
349.9999999999998
 10
463.0004999999996
 20
564.0
 30
0.0
 10
288.0004999999999
 20
564.0
 30
0.0
 10
113.0005000000001
 20
564.0
 30
0.0
  0
SPLINE
  5
19F
330
1F
100
AcDbEntity
  8
Make2D$visible$lines
100
AcDbSpline
210
0.0
220
0.0
230
1.0
 70
    24
 71
     2
 72
     6
 73
     3
 74
     0
 42
0.000000001
 43
0.0000000001
 40
0.0
 40
0.0
 40
0.0
 40
50.0
 40
50.0
 40
50.0
 10
480.9994999999999
 20
663.997
 30
0.0
 10
480.9994999999999
 20
638.997
 30
0.0
 10
480.9994999999999
 20
613.997
 30
0.0
  0
ARC
  5
1A0
330
1F
100
AcDbEntity
  8
side
100
AcDbCircle
 10
465.2227693810758
 20
452.0946065154279
 30
0.0
 40
3.0
100
AcDbArc
 50
39.35557408914391
 51
222.204105690068
  0
SPLINE
  5
1A1
330
1F
100
AcDbEntity
  8
Make2D$visible$lines
100
AcDbSpline
210
0.0
220
0.0
230
1.0
 70
    24
 71
     2
 72
     6
 73
     3
 74
     0
 42
0.000000001
 43
0.0000000001
 40
3.917685700495198
 40
3.917685700495198
 40
3.917685700495198
 40
145.35534570424
 40
145.35534570424
 40
145.35534570424
 10
463.0004738820951
 20
450.0793142995918
 30
0.0
 10
463.0000024232285
 20
379.360484299291
 30
0.0
 10
462.9995309643618
 20
308.6416542989901
 30
0.0
  0
SPLINE
  5
1A2
330
1F
100
AcDbEntity
  8
Make2D$visible$lines
100
AcDbSpline
210
0.0
220
0.0
230
1.0
 70
    24
 71
     2
 72
     6
 73
     3
 74
     0
 42
0.000000001
 43
0.0000000001
 40
0.0
 40
0.0
 40
0.0
 40
13.45705412642412
 40
13.45705412642412
 40
13.45705412642412
 10
480.9994999999999
 20
453.997
 30
0.0
 10
474.2709729367879
 20
453.997
 30
0.0
 10
467.5424458735758
 20
453.997
 30
0.0
  0
SPLINE
  5
1A3
330
1F
100
AcDbEntity
  8
Make2D$visible$lines
100
AcDbSpline
210
0.0
220
0.0
230
1.0
 70
    24
 71
     2
 72
     6
 73
     3
 74
     0
 42
0.000000001
 43
0.0000000001
 40
0.0
 40
0.0
 40
0.0
 40
45.7070054623802
 40
45.7070054623802
 40
45.7070054623802
 10
463.0004999999996
 20
554.0
 30
0.0
 10
463.0000429573679
 20
531.14649727338
 30
0.0
 10
462.9995859147361
 20
508.2929945467599
 30
0.0
  0
SPLINE
  5
1A4
330
1F
100
AcDbEntity
  8
Make2D$visible$lines
100
AcDbSpline
210
0.0
220
0.0
230
1.0
 70
    24
 71
     2
 72
     6
 73
     3
 74
     0
 42
0.000000001
 43
0.0000000001
 40
4.188574869916531
 40
4.188574869916531
 40
4.188574869916531
 40
18.0
 40
18.0
 40
18.0
 10
467.1880748699166
 20
503.9969999999998
 30
0.0
 10
474.0937874349582
 20
503.9969999999998
 30
0.0
 10
480.9994999999999
 20
503.9969999999998
 30
0.0
  0
SPLINE
  5
1A5
330
1F
100
AcDbEntity
  8
Make2D$visible$lines
100
AcDbSpline
210
0.0
220
0.0
230
1.0
 70
    24
 71
     2
 72
     6
 73
     3
 74
     0
 42
0.000000001
 43
0.0000000001
 40
0.0
 40
0.0
 40
0.0
 40
0.0013333333329786
 40
0.0013333333329786
 40
0.0013333333329786
 10
462.9994999999999
 20
503.9969999999998
 30
0.0
 10
463.0001666666665
 20
503.9969999999998
 30
0.0
 10
463.000833333333
 20
503.9969999999998
 30
0.0
  0
ARC
  5
1A6
330
1F
100
AcDbEntity
  8
side
100
AcDbCircle
 10
465.082559637302
 20
506.1340085646129
 30
0.0
 40
3.0
100
AcDbArc
 50
133.9395639392889
 51
314.574686684295
  0
ARC
  5
1A7
330
1F
100
AcDbEntity
  8
side
100
AcDbCircle
 10
110.6650092269306
 20
452.214260504674
 30
0.0
 40
3.0
100
AcDbArc
 50
321.1231604825087
 51
143.5410646958051
  0
SPLINE
  5
1A8
330
1F
100
AcDbEntity
  8
Make2D$visible$lines
100
AcDbSpline
210
0.0
220
0.0
230
1.0
 70
    24
 71
     2
 72
     6
 73
     3
 74
     0
 42
0.000000001
 43
0.0000000001
 40
3.968762979916773
 40
3.968762979916773
 40
3.968762979916773
 40
146.3343152455369
 40
146.3343152455369
 40
146.3343152455369
 10
113.0005000000001
 20
307.9657629799166
 30
0.0
 10
113.0005000000001
 20
379.1485391127267
 30
0.0
 10
113.0005000000001
 20
450.3313152455368
 30
0.0
  0
SPLINE
  5
1A9
330
1F
100
AcDbEntity
  8
Make2D$visible$lines
100
AcDbSpline
210
0.0
220
0.0
230
1.0
 70
    24
 71
     2
 72
     6
 73
     3
 74
     0
 42
0.000000001
 43
0.0000000001
 40
4.748339689144607
 40
4.748339689144607
 40
4.748339689144607
 40
18.0
 40
18.0
 40
18.0
 10
108.2521603108553
 20
453.997
 30
0.0
 10
101.6263301554277
 20
453.997
 30
0.0
 10
95.0005000000001
 20
453.997
 30
0.0
  0
ARC
  5
1AA
330
1F
100
AcDbEntity
  8
side
100
AcDbCircle
 10
110.8314222610916
 20
505.9971811169626
 30
0.0
 40
3.0
100
AcDbArc
 50
221.8149559056186
 51
43.69512615414181
  0
SPLINE
  5
1AB
330
1F
100
AcDbEntity
  8
Make2D$visible$lines
100
AcDbSpline
210
0.0
220
0.0
230
1.0
 70
    24
 71
     2
 72
     6
 73
     3
 74
     0
 42
0.000000001
 43
0.0000000001
 40
0.0
 40
0.0
 40
0.0
 40
13.59501629273202
 40
13.59501629273202
 40
13.59501629273202
 10
95.0005000000001
 20
503.9969999999998
 30
0.0
 10
101.7980081463661
 20
503.9969999999998
 30
0.0
 10
108.5955162927321
 20
503.9969999999998
 30
0.0
  0
SPLINE
  5
1AC
330
1F
100
AcDbEntity
  8
Make2D$visible$lines
100
AcDbSpline
210
0.0
220
0.0
230
1.0
 70
    24
 71
     2
 72
     6
 73
     3
 74
     0
 42
0.000000001
 43
0.0000000001
 40
4.072643845836661
 40
4.072643845836661
 40
4.072643845836661
 40
50.00300000000004
 40
50.00300000000004
 40
50.00300000000004
 10
113.0005000000001
 20
508.0696438458367
 30
0.0
 10
113.0005000000001
 20
531.0348219229184
 30
0.0
 10
113.0005000000001
 20
554.0
 30
0.0
  0
SPLINE
  5
1AD
330
1F
100
AcDbEntity
  8
Make2D$visible$lines
100
AcDbSpline
210
0.0
220
0.0
230
1.0
 70
    24
 71
     2
 72
     6
 73
     3
 74
     0
 42
0.000000001
 43
0.0000000001
 40
0.0
 40
0.0
 40
0.0
 40
13.50252767816049
 40
13.50252767816049
 40
13.50252767816049
 10
95.0005000000001
 20
303.997
 30
0.0
 10
101.7517638390802
 20
303.9969999999999
 30
0.0
 10
108.5030276781604
 20
303.9969999999998
 30
0.0
  0
ARC
  5
1AE
330
1F
100
AcDbEntity
  8
side
100
AcDbCircle
 10
110.8004566855911
 20
305.9262018960741
 30
0.0
 40
3.0
100
AcDbArc
 50
220.0209223570938
 51
42.83221128250423
  0
SPLINE
  5
1AF
330
1F
100
AcDbEntity
  8
Make2D$visible$lines
100
AcDbSpline
210
0.0
220
0.0
230
1.0
 70
    24
 71
     2
 72
     6
 73
     3
 74
     0
 42
0.000000001
 43
0.0000000001
 40
0.0
 40
0.0
 40
0.0
 40
46.22274976601276
 40
46.22274976601276
 40
46.22274976601276
 10
113.0005000000001
 20
204.0
 30
0.0
 10
113.0005000000001
 20
227.1113748830064
 30
0.0
 10
113.0005000000001
 20
250.2227497660127
 30
0.0
  0
SPLINE
  5
1B0
330
1F
100
AcDbEntity
  8
Make2D$visible$lines
100
AcDbSpline
210
0.0
220
0.0
230
1.0
 70
    24
 71
     2
 72
     6
 73
     3
 74
     0
 42
0.000000001
 43
0.0000000001
 40
4.663256548012137
 40
4.663256548012137
 40
4.663256548012137
 40
18.0
 40
18.0
 40
18.0
 10
108.3372434519879
 20
253.997
 30
0.0
 10
101.668871725994
 20
253.997
 30
0.0
 10
95.0005000000001
 20
253.997
 30
0.0
  0
ARC
  5
1B1
330
1F
100
AcDbEntity
  8
side
100
AcDbCircle
 10
110.6988352251456
 20
252.1468961388736
 30
0.0
 40
3.0
100
AcDbArc
 50
320.1050416003283
 51
141.9243568928929
  0
SPLINE
  5
1B2
330
1F
100
AcDbEntity
  8
Make2D$visible$lines
100
AcDbSpline
210
0.0
220
0.0
230
1.0
 70
    24
 71
     2
 72
     6
 73
     3
 74
     0
 42
0.000000001
 43
0.0000000001
 40
4.148224721623509
 40
4.148224721623509
 40
4.148224721623509
 40
49.99699999999984
 40
49.99699999999984
 40
49.99699999999984
 10
463.0004999999996
 20
249.8487752783764
 30
0.0
 10
463.0004999999996
 20
226.9243876391882
 30
0.0
 10
463.0004999999996
 20
204.0
 30
0.0
  0
SPLINE
  5
1B3
330
1F
100
AcDbEntity
  8
Make2D$visible$lines
100
AcDbSpline
210
0.0
220
0.0
230
1.0
 70
    24
 71
     2
 72
     6
 73
     3
 74
     0
 42
0.000000001
 43
0.0000000001
 40
0.0
 40
0.0
 40
0.0
 40
13.66400091829635
 40
13.66400091829635
 40
13.66400091829635
 10
480.9994999999999
 20
253.997
 30
0.0
 10
474.1674995408518
 20
253.9969999999998
 30
0.0
 10
467.3354990817038
 20
253.9969999999997
 30
0.0
  0
ARC
  5
1B4
330
1F
100
AcDbEntity
  8
side
100
AcDbCircle
 10
465.1666777483611
 20
251.9242689455565
 30
0.0
 40
3.0
100
AcDbArc
 50
43.70221434240185
 51
223.7752413607846
  0
SPLINE
  5
1B5
330
1F
100
AcDbEntity
  8
Make2D$visible$lines
100
AcDbSpline
210
0.0
220
0.0
230
1.0
 70
    24
 71
     2
 72
     6
 73
     3
 74
     0
 42
0.000000001
 43
0.0000000001
 40
149.9990068669797
 40
149.9990068669797
 40
149.9990068669797
 40
150.0000000033334
 40
150.0000000033334
 40
150.0000000033334
 10
462.999500006621
 20
303.9979931363536
 30
0.0
 10
462.9995000033105
 20
303.9974965681768
 30
0.0
 10
462.9994999999999
 20
303.997
 30
0.0
  0
SPLINE
  5
1B6
330
1F
100
AcDbEntity
  8
Make2D$visible$lines
100
AcDbSpline
210
0.0
220
0.0
230
1.0
 70
    24
 71
     2
 72
     6
 73
     3
 74
     0
 42
0.000000001
 43
0.0000000001
 40
3.798344288149774
 40
3.798344288149774
 40
3.798344288149774
 40
18.0
 40
18.0
 40
18.0
 10
466.7978442881499
 20
303.997
 30
0.0
 10
473.8986721440749
 20
303.997
 30
0.0
 10
480.9994999999999
 20
303.997
 30
0.0
  0
SPLINE
  5
1B7
330
1F
100
AcDbEntity
  8
Make2D$visible$lines
100
AcDbSpline
210
0.0
220
0.0
230
1.0
 70
    24
 71
     2
 72
     6
 73
     3
 74
     0
 42
0.000000001
 43
0.0000000001
 40
0.0
 40
0.0
 40
0.0
 40
0.0012144173051583
 40
0.0012144173051583
 40
0.0012144173051583
 10
462.9994999999999
 20
303.997
 30
0.0
 10
463.0001072086525
 20
303.997
 30
0.0
 10
463.0007144173051
 20
303.997
 30
0.0
  0
ARC
  5
1B8
330
1F
100
AcDbEntity
  8
side
100
AcDbCircle
 10
464.8992793527275
 20
306.3198110525792
 30
0.0
 40
3.0
100
AcDbArc
 50
129.2663623140155
 51
309.2610731751694
  0
SPLINE
  5
1B9
330
1F
100
AcDbEntity
  8
Make2D$visible$lines
100
AcDbSpline
210
0.0
220
0.0
230
1.0
 70
    24
 71
     2
 72
     6
 73
     3
 74
     0
 42
0.000000001
 43
0.0000000001
 40
0.0
 40
0.0
 40
0.0
 40
50.0
 40
50.0
 40
50.0
 10
480.9994999999999
 20
503.9969999999998
 30
0.0
 10
480.9994999999999
 20
478.9969999999999
 30
0.0
 10
480.9994999999999
 20
453.997
 30
0.0
  0
SPLINE
  5
1BA
330
1F
100
AcDbEntity
  8
Make2D$visible$lines
100
AcDbSpline
210
0.0
220
0.0
230
1.0
 70
    24
 71
     2
 72
     6
 73
     3
 74
     0
 42
0.000000001
 43
0.0000000001
 40
0.0
 40
0.0
 40
0.0
 40
349.9999999999998
 40
349.9999999999998
 40
349.9999999999998
 10
113.0005000000001
 20
554.0
 30
0.0
 10
288.0004999999999
 20
554.0
 30
0.0
 10
463.0004999999996
 20
554.0
 30
0.0
  0
SPLINE
  5
1BB
330
1F
100
AcDbEntity
  8
Make2D$visible$lines
100
AcDbSpline
210
0.0
220
0.0
230
1.0
 70
    24
 71
     2
 72
     6
 73
     3
 74
     0
 42
0.000000001
 43
0.0000000001
 40
0.0
 40
0.0
 40
0.0
 40
50.0
 40
50.0
 40
50.0
 10
95.0005000000001
 20
453.997
 30
0.0
 10
95.0005000000001
 20
478.9969999999999
 30
0.0
 10
95.0005000000001
 20
503.9969999999998
 30
0.0
  0
SPLINE
  5
1BC
330
1F
100
AcDbEntity
  8
Make2D$visible$lines
100
AcDbSpline
210
0.0
220
0.0
230
1.0
 70
    24
 71
     2
 72
     6
 73
     3
 74
     0
 42
0.000000001
 43
0.0000000001
 40
0.0
 40
0.0
 40
0.0
 40
50.0
 40
50.0
 40
50.0
 10
95.0005000000001
 20
253.997
 30
0.0
 10
95.0005000000001
 20
278.997
 30
0.0
 10
95.0005000000001
 20
303.997
 30
0.0
  0
SPLINE
  5
1BD
330
1F
100
AcDbEntity
  8
Make2D$visible$lines
100
AcDbSpline
210
0.0
220
0.0
230
1.0
 70
    24
 71
     2
 72
     6
 73
     3
 74
     0
 42
0.000000001
 43
0.0000000001
 40
0.0
 40
0.0
 40
0.0
 40
349.9999999999998
 40
349.9999999999998
 40
349.9999999999998
 10
463.0004999999996
 20
204.0
 30
0.0
 10
288.0004999999999
 20
204.0
 30
0.0
 10
113.0005000000001
 20
204.0
 30
0.0
  0
SPLINE
  5
1BE
330
1F
100
AcDbEntity
  8
Make2D$visible$lines
100
AcDbSpline
210
0.0
220
0.0
230
1.0
 70
    24
 71
     2
 72
     6
 73
     3
 74
     0
 42
0.000000001
 43
0.0000000001
 40
0.0
 40
0.0
 40
0.0
 40
50.0
 40
50.0
 40
50.0
 10
480.9994999999999
 20
303.997
 30
0.0
 10
480.9994999999999
 20
278.997
 30
0.0
 10
480.9994999999999
 20
253.997
 30
0.0
  0
ARC
  5
1BF
330
1F
100
AcDbEntity
  8
side
100
AcDbCircle
 10
861.2227693810758
 20
813.0946065154279
 30
0.0
 40
3.0
100
AcDbArc
 50
39.3555740891446
 51
222.204105690068
  0
SPLINE
  5
1C0
330
1F
100
AcDbEntity
  8
Make2D$visible$lines
100
AcDbSpline
210
0.0
220
0.0
230
1.0
 70
    24
 71
     2
 72
     6
 73
     3
 74
     0
 42
0.000000001
 43
0.0000000001
 40
3.917685700495198
 40
3.917685700495198
 40
3.917685700495198
 40
145.35534570424
 40
145.35534570424
 40
145.35534570424
 10
859.0004738820951
 20
811.0793142995918
 30
0.0
 10
859.0000024232285
 20
740.360484299291
 30
0.0
 10
858.9995309643618
 20
669.6416542989901
 30
0.0
  0
SPLINE
  5
1C1
330
1F
100
AcDbEntity
  8
Make2D$visible$lines
100
AcDbSpline
210
0.0
220
0.0
230
1.0
 70
    24
 71
     2
 72
     6
 73
     3
 74
     0
 42
0.000000001
 43
0.0000000001
 40
0.0
 40
0.0
 40
0.0
 40
13.45705412642412
 40
13.45705412642412
 40
13.45705412642412
 10
876.9994999999999
 20
814.997
 30
0.0
 10
870.2709729367879
 20
814.997
 30
0.0
 10
863.5424458735758
 20
814.997
 30
0.0
  0
SPLINE
  5
1C2
330
1F
100
AcDbEntity
  8
Make2D$visible$lines
100
AcDbSpline
210
0.0
220
0.0
230
1.0
 70
    24
 71
     2
 72
     6
 73
     3
 74
     0
 42
0.000000001
 43
0.0000000001
 40
0.0
 40
0.0
 40
0.0
 40
45.7070054623802
 40
45.7070054623802
 40
45.7070054623802
 10
859.0004999999996
 20
915.0
 30
0.0
 10
859.0000429573679
 20
892.14649727338
 30
0.0
 10
858.9995859147361
 20
869.2929945467599
 30
0.0
  0
SPLINE
  5
1C3
330
1F
100
AcDbEntity
  8
Make2D$visible$lines
100
AcDbSpline
210
0.0
220
0.0
230
1.0
 70
    24
 71
     2
 72
     6
 73
     3
 74
     0
 42
0.000000001
 43
0.0000000001
 40
4.188574869916531
 40
4.188574869916531
 40
4.188574869916531
 40
18.0
 40
18.0
 40
18.0
 10
863.1880748699166
 20
864.9969999999998
 30
0.0
 10
870.0937874349582
 20
864.9969999999998
 30
0.0
 10
876.9994999999999
 20
864.9969999999998
 30
0.0
  0
SPLINE
  5
1C4
330
1F
100
AcDbEntity
  8
Make2D$visible$lines
100
AcDbSpline
210
0.0
220
0.0
230
1.0
 70
    24
 71
     2
 72
     6
 73
     3
 74
     0
 42
0.000000001
 43
0.0000000001
 40
0.0
 40
0.0
 40
0.0
 40
0.0013333333329786
 40
0.0013333333329786
 40
0.0013333333329786
 10
858.9994999999999
 20
864.9969999999998
 30
0.0
 10
859.0001666666665
 20
864.9969999999998
 30
0.0
 10
859.000833333333
 20
864.9969999999998
 30
0.0
  0
ARC
  5
1C5
330
1F
100
AcDbEntity
  8
side
100
AcDbCircle
 10
861.082559637302
 20
867.1340085646129
 30
0.0
 40
3.0
100
AcDbArc
 50
133.9395639392889
 51
314.574686684295
  0
ARC
  5
1C6
330
1F
100
AcDbEntity
  8
side
100
AcDbCircle
 10
506.6650092269306
 20
813.214260504674
 30
0.0
 40
3.0
100
AcDbArc
 50
321.1231604825085
 51
143.5410646958053
  0
SPLINE
  5
1C7
330
1F
100
AcDbEntity
  8
Make2D$visible$lines
100
AcDbSpline
210
0.0
220
0.0
230
1.0
 70
    24
 71
     2
 72
     6
 73
     3
 74
     0
 42
0.000000001
 43
0.0000000001
 40
3.968762979916773
 40
3.968762979916773
 40
3.968762979916773
 40
146.3343152455369
 40
146.3343152455369
 40
146.3343152455369
 10
509.0005000000001
 20
668.9657629799166
 30
0.0
 10
509.0005000000001
 20
740.1485391127267
 30
0.0
 10
509.0005000000001
 20
811.3313152455368
 30
0.0
  0
SPLINE
  5
1C8
330
1F
100
AcDbEntity
  8
Make2D$visible$lines
100
AcDbSpline
210
0.0
220
0.0
230
1.0
 70
    24
 71
     2
 72
     6
 73
     3
 74
     0
 42
0.000000001
 43
0.0000000001
 40
4.748339689144607
 40
4.748339689144607
 40
4.748339689144607
 40
18.0
 40
18.0
 40
18.0
 10
504.2521603108553
 20
814.997
 30
0.0
 10
497.6263301554277
 20
814.997
 30
0.0
 10
491.0005000000001
 20
814.997
 30
0.0
  0
ARC
  5
1C9
330
1F
100
AcDbEntity
  8
side
100
AcDbCircle
 10
506.8314222610916
 20
866.9971811169626
 30
0.0
 40
3.0
100
AcDbArc
 50
221.8149559056183
 51
43.69512615414223
  0
SPLINE
  5
1CA
330
1F
100
AcDbEntity
  8
Make2D$visible$lines
100
AcDbSpline
210
0.0
220
0.0
230
1.0
 70
    24
 71
     2
 72
     6
 73
     3
 74
     0
 42
0.000000001
 43
0.0000000001
 40
0.0
 40
0.0
 40
0.0
 40
13.59501629273202
 40
13.59501629273202
 40
13.59501629273202
 10
491.0005000000001
 20
864.9969999999998
 30
0.0
 10
497.7980081463661
 20
864.9969999999998
 30
0.0
 10
504.5955162927321
 20
864.9969999999998
 30
0.0
  0
SPLINE
  5
1CB
330
1F
100
AcDbEntity
  8
Make2D$visible$lines
100
AcDbSpline
210
0.0
220
0.0
230
1.0
 70
    24
 71
     2
 72
     6
 73
     3
 74
     0
 42
0.000000001
 43
0.0000000001
 40
4.072643845836661
 40
4.072643845836661
 40
4.072643845836661
 40
50.00300000000004
 40
50.00300000000004
 40
50.00300000000004
 10
509.0005000000001
 20
869.0696438458367
 30
0.0
 10
509.0005000000001
 20
892.0348219229184
 30
0.0
 10
509.0005000000001
 20
915.0
 30
0.0
  0
SPLINE
  5
1CC
330
1F
100
AcDbEntity
  8
Make2D$visible$lines
100
AcDbSpline
210
0.0
220
0.0
230
1.0
 70
    24
 71
     2
 72
     6
 73
     3
 74
     0
 42
0.000000001
 43
0.0000000001
 40
0.0
 40
0.0
 40
0.0
 40
13.50252767816049
 40
13.50252767816049
 40
13.50252767816049
 10
491.0005000000001
 20
664.997
 30
0.0
 10
497.7517638390802
 20
664.9969999999998
 30
0.0
 10
504.5030276781604
 20
664.9969999999998
 30
0.0
  0
ARC
  5
1CD
330
1F
100
AcDbEntity
  8
side
100
AcDbCircle
 10
506.8004566855911
 20
666.9262018960741
 30
0.0
 40
3.0
100
AcDbArc
 50
220.0209223570947
 51
42.83221128250263
  0
SPLINE
  5
1CE
330
1F
100
AcDbEntity
  8
Make2D$visible$lines
100
AcDbSpline
210
0.0
220
0.0
230
1.0
 70
    24
 71
     2
 72
     6
 73
     3
 74
     0
 42
0.000000001
 43
0.0000000001
 40
0.0
 40
0.0
 40
0.0
 40
46.22274976601276
 40
46.22274976601276
 40
46.22274976601276
 10
509.0005000000001
 20
565.0
 30
0.0
 10
509.0005000000001
 20
588.1113748830064
 30
0.0
 10
509.0005000000001
 20
611.2227497660127
 30
0.0
  0
SPLINE
  5
1CF
330
1F
100
AcDbEntity
  8
Make2D$visible$lines
100
AcDbSpline
210
0.0
220
0.0
230
1.0
 70
    24
 71
     2
 72
     6
 73
     3
 74
     0
 42
0.000000001
 43
0.0000000001
 40
4.663256548012137
 40
4.663256548012137
 40
4.663256548012137
 40
18.0
 40
18.0
 40
18.0
 10
504.3372434519879
 20
614.997
 30
0.0
 10
497.668871725994
 20
614.997
 30
0.0
 10
491.0005000000001
 20
614.997
 30
0.0
  0
ARC
  5
1D0
330
1F
100
AcDbEntity
  8
side
100
AcDbCircle
 10
506.6988352251456
 20
613.1468961388736
 30
0.0
 40
3.0
100
AcDbArc
 50
320.1050416003283
 51
141.9243568928929
  0
SPLINE
  5
1D1
330
1F
100
AcDbEntity
  8
Make2D$visible$lines
100
AcDbSpline
210
0.0
220
0.0
230
1.0
 70
    24
 71
     2
 72
     6
 73
     3
 74
     0
 42
0.000000001
 43
0.0000000001
 40
4.148224721623509
 40
4.148224721623509
 40
4.148224721623509
 40
49.99699999999984
 40
49.99699999999984
 40
49.99699999999984
 10
859.0004999999996
 20
610.8487752783764
 30
0.0
 10
859.0004999999996
 20
587.9243876391881
 30
0.0
 10
859.0004999999996
 20
565.0
 30
0.0
  0
SPLINE
  5
1D2
330
1F
100
AcDbEntity
  8
Make2D$visible$lines
100
AcDbSpline
210
0.0
220
0.0
230
1.0
 70
    24
 71
     2
 72
     6
 73
     3
 74
     0
 42
0.000000001
 43
0.0000000001
 40
0.0
 40
0.0
 40
0.0
 40
13.66400091829635
 40
13.66400091829635
 40
13.66400091829635
 10
876.9994999999999
 20
614.997
 30
0.0
 10
870.1674995408518
 20
614.9969999999998
 30
0.0
 10
863.3354990817038
 20
614.9969999999997
 30
0.0
  0
ARC
  5
1D3
330
1F
100
AcDbEntity
  8
side
100
AcDbCircle
 10
861.166677748361
 20
612.9242689455565
 30
0.0
 40
3.0
100
AcDbArc
 50
43.70221434240225
 51
223.7752413607846
  0
SPLINE
  5
1D4
330
1F
100
AcDbEntity
  8
Make2D$visible$lines
100
AcDbSpline
210
0.0
220
0.0
230
1.0
 70
    24
 71
     2
 72
     6
 73
     3
 74
     0
 42
0.000000001
 43
0.0000000001
 40
149.9990068669797
 40
149.9990068669797
 40
149.9990068669797
 40
150.0000000033334
 40
150.0000000033334
 40
150.0000000033334
 10
858.999500006621
 20
664.9979931363536
 30
0.0
 10
858.9995000033105
 20
664.9974965681768
 30
0.0
 10
858.9994999999999
 20
664.997
 30
0.0
  0
SPLINE
  5
1D5
330
1F
100
AcDbEntity
  8
Make2D$visible$lines
100
AcDbSpline
210
0.0
220
0.0
230
1.0
 70
    24
 71
     2
 72
     6
 73
     3
 74
     0
 42
0.000000001
 43
0.0000000001
 40
3.798344288149774
 40
3.798344288149774
 40
3.798344288149774
 40
18.0
 40
18.0
 40
18.0
 10
862.7978442881499
 20
664.997
 30
0.0
 10
869.8986721440749
 20
664.997
 30
0.0
 10
876.9994999999999
 20
664.997
 30
0.0
  0
SPLINE
  5
1D6
330
1F
100
AcDbEntity
  8
Make2D$visible$lines
100
AcDbSpline
210
0.0
220
0.0
230
1.0
 70
    24
 71
     2
 72
     6
 73
     3
 74
     0
 42
0.000000001
 43
0.0000000001
 40
0.0
 40
0.0
 40
0.0
 40
0.0012144173051583
 40
0.0012144173051583
 40
0.0012144173051583
 10
858.9994999999999
 20
664.997
 30
0.0
 10
859.0001072086525
 20
664.997
 30
0.0
 10
859.0007144173051
 20
664.997
 30
0.0
  0
ARC
  5
1D7
330
1F
100
AcDbEntity
  8
side
100
AcDbCircle
 10
860.8992793527275
 20
667.3198110525792
 30
0.0
 40
3.0
100
AcDbArc
 50
129.2663623140146
 51
309.2610731751709
  0
SPLINE
  5
1D8
330
1F
100
AcDbEntity
  8
Make2D$visible$lines
100
AcDbSpline
210
0.0
220
0.0
230
1.0
 70
    24
 71
     2
 72
     6
 73
     3
 74
     0
 42
0.000000001
 43
0.0000000001
 40
0.0
 40
0.0
 40
0.0
 40
50.0
 40
50.0
 40
50.0
 10
876.9994999999999
 20
864.9969999999998
 30
0.0
 10
876.9994999999999
 20
839.9969999999998
 30
0.0
 10
876.9994999999999
 20
814.997
 30
0.0
  0
SPLINE
  5
1D9
330
1F
100
AcDbEntity
  8
Make2D$visible$lines
100
AcDbSpline
210
0.0
220
0.0
230
1.0
 70
    24
 71
     2
 72
     6
 73
     3
 74
     0
 42
0.000000001
 43
0.0000000001
 40
0.0
 40
0.0
 40
0.0
 40
349.9999999999998
 40
349.9999999999998
 40
349.9999999999998
 10
509.0005000000001
 20
915.0
 30
0.0
 10
684.0004999999999
 20
915.0
 30
0.0
 10
859.0004999999996
 20
915.0
 30
0.0
  0
SPLINE
  5
1DA
330
1F
100
AcDbEntity
  8
Make2D$visible$lines
100
AcDbSpline
210
0.0
220
0.0
230
1.0
 70
    24
 71
     2
 72
     6
 73
     3
 74
     0
 42
0.000000001
 43
0.0000000001
 40
0.0
 40
0.0
 40
0.0
 40
50.0
 40
50.0
 40
50.0
 10
491.0005000000001
 20
814.997
 30
0.0
 10
491.0005000000001
 20
839.9969999999998
 30
0.0
 10
491.0005000000001
 20
864.9969999999998
 30
0.0
  0
SPLINE
  5
1DB
330
1F
100
AcDbEntity
  8
Make2D$visible$lines
100
AcDbSpline
210
0.0
220
0.0
230
1.0
 70
    24
 71
     2
 72
     6
 73
     3
 74
     0
 42
0.000000001
 43
0.0000000001
 40
0.0
 40
0.0
 40
0.0
 40
50.0
 40
50.0
 40
50.0
 10
491.0005000000001
 20
614.997
 30
0.0
 10
491.0005000000001
 20
639.997
 30
0.0
 10
491.0005000000001
 20
664.997
 30
0.0
  0
SPLINE
  5
1DC
330
1F
100
AcDbEntity
  8
Make2D$visible$lines
100
AcDbSpline
210
0.0
220
0.0
230
1.0
 70
    24
 71
     2
 72
     6
 73
     3
 74
     0
 42
0.000000001
 43
0.0000000001
 40
0.0
 40
0.0
 40
0.0
 40
349.9999999999998
 40
349.9999999999998
 40
349.9999999999998
 10
859.0004999999996
 20
565.0
 30
0.0
 10
684.0004999999999
 20
565.0
 30
0.0
 10
509.0005000000001
 20
565.0
 30
0.0
  0
SPLINE
  5
1DD
330
1F
100
AcDbEntity
  8
Make2D$visible$lines
100
AcDbSpline
210
0.0
220
0.0
230
1.0
 70
    24
 71
     2
 72
     6
 73
     3
 74
     0
 42
0.000000001
 43
0.0000000001
 40
0.0
 40
0.0
 40
0.0
 40
50.0
 40
50.0
 40
50.0
 10
876.9994999999999
 20
664.997
 30
0.0
 10
876.9994999999999
 20
639.997
 30
0.0
 10
876.9994999999999
 20
614.997
 30
0.0
  0
ARC
  5
1DE
330
1F
100
AcDbEntity
  8
side
100
AcDbCircle
 10
861.2227693810758
 20
453.0946065154279
 30
0.0
 40
3.0
100
AcDbArc
 50
39.3555740891446
 51
222.2041056900688
  0
SPLINE
  5
1DF
330
1F
100
AcDbEntity
  8
Make2D$visible$lines
100
AcDbSpline
210
0.0
220
0.0
230
1.0
 70
    24
 71
     2
 72
     6
 73
     3
 74
     0
 42
0.000000001
 43
0.0000000001
 40
3.917685700495198
 40
3.917685700495198
 40
3.917685700495198
 40
145.35534570424
 40
145.35534570424
 40
145.35534570424
 10
859.0004738820951
 20
451.0793142995918
 30
0.0
 10
859.0000024232285
 20
380.360484299291
 30
0.0
 10
858.9995309643618
 20
309.6416542989901
 30
0.0
  0
SPLINE
  5
1E0
330
1F
100
AcDbEntity
  8
Make2D$visible$lines
100
AcDbSpline
210
0.0
220
0.0
230
1.0
 70
    24
 71
     2
 72
     6
 73
     3
 74
     0
 42
0.000000001
 43
0.0000000001
 40
0.0
 40
0.0
 40
0.0
 40
13.45705412642412
 40
13.45705412642412
 40
13.45705412642412
 10
876.9994999999999
 20
454.997
 30
0.0
 10
870.2709729367879
 20
454.997
 30
0.0
 10
863.5424458735758
 20
454.997
 30
0.0
  0
SPLINE
  5
1E1
330
1F
100
AcDbEntity
  8
Make2D$visible$lines
100
AcDbSpline
210
0.0
220
0.0
230
1.0
 70
    24
 71
     2
 72
     6
 73
     3
 74
     0
 42
0.000000001
 43
0.0000000001
 40
0.0
 40
0.0
 40
0.0
 40
45.7070054623802
 40
45.7070054623802
 40
45.7070054623802
 10
859.0004999999996
 20
555.0
 30
0.0
 10
859.0000429573679
 20
532.14649727338
 30
0.0
 10
858.9995859147361
 20
509.2929945467599
 30
0.0
  0
SPLINE
  5
1E2
330
1F
100
AcDbEntity
  8
Make2D$visible$lines
100
AcDbSpline
210
0.0
220
0.0
230
1.0
 70
    24
 71
     2
 72
     6
 73
     3
 74
     0
 42
0.000000001
 43
0.0000000001
 40
4.188574869916531
 40
4.188574869916531
 40
4.188574869916531
 40
18.0
 40
18.0
 40
18.0
 10
863.1880748699166
 20
504.9969999999998
 30
0.0
 10
870.0937874349582
 20
504.9969999999998
 30
0.0
 10
876.9994999999999
 20
504.9969999999998
 30
0.0
  0
SPLINE
  5
1E3
330
1F
100
AcDbEntity
  8
Make2D$visible$lines
100
AcDbSpline
210
0.0
220
0.0
230
1.0
 70
    24
 71
     2
 72
     6
 73
     3
 74
     0
 42
0.000000001
 43
0.0000000001
 40
0.0
 40
0.0
 40
0.0
 40
0.0013333333329786
 40
0.0013333333329786
 40
0.0013333333329786
 10
858.9994999999999
 20
504.9969999999998
 30
0.0
 10
859.0001666666665
 20
504.9969999999998
 30
0.0
 10
859.000833333333
 20
504.9969999999998
 30
0.0
  0
ARC
  5
1E4
330
1F
100
AcDbEntity
  8
side
100
AcDbCircle
 10
861.082559637302
 20
507.1340085646129
 30
0.0
 40
3.0
100
AcDbArc
 50
133.9395639392889
 51
314.574686684295
  0
ARC
  5
1E5
330
1F
100
AcDbEntity
  8
side
100
AcDbCircle
 10
506.6650092269306
 20
453.214260504674
 30
0.0
 40
3.0
100
AcDbArc
 50
321.1231604825085
 51
143.5410646958053
  0
SPLINE
  5
1E6
330
1F
100
AcDbEntity
  8
Make2D$visible$lines
100
AcDbSpline
210
0.0
220
0.0
230
1.0
 70
    24
 71
     2
 72
     6
 73
     3
 74
     0
 42
0.000000001
 43
0.0000000001
 40
3.968762979916773
 40
3.968762979916773
 40
3.968762979916773
 40
146.3343152455369
 40
146.3343152455369
 40
146.3343152455369
 10
509.0005000000001
 20
308.9657629799166
 30
0.0
 10
509.0005000000001
 20
380.1485391127267
 30
0.0
 10
509.0005000000001
 20
451.3313152455368
 30
0.0
  0
SPLINE
  5
1E7
330
1F
100
AcDbEntity
  8
Make2D$visible$lines
100
AcDbSpline
210
0.0
220
0.0
230
1.0
 70
    24
 71
     2
 72
     6
 73
     3
 74
     0
 42
0.000000001
 43
0.0000000001
 40
4.748339689144607
 40
4.748339689144607
 40
4.748339689144607
 40
18.0
 40
18.0
 40
18.0
 10
504.2521603108553
 20
454.997
 30
0.0
 10
497.6263301554277
 20
454.997
 30
0.0
 10
491.0005000000001
 20
454.997
 30
0.0
  0
ARC
  5
1E8
330
1F
100
AcDbEntity
  8
side
100
AcDbCircle
 10
506.8314222610916
 20
506.9971811169626
 30
0.0
 40
3.0
100
AcDbArc
 50
221.8149559056183
 51
43.69512615414143
  0
SPLINE
  5
1E9
330
1F
100
AcDbEntity
  8
Make2D$visible$lines
100
AcDbSpline
210
0.0
220
0.0
230
1.0
 70
    24
 71
     2
 72
     6
 73
     3
 74
     0
 42
0.000000001
 43
0.0000000001
 40
0.0
 40
0.0
 40
0.0
 40
13.59501629273202
 40
13.59501629273202
 40
13.59501629273202
 10
491.0005000000001
 20
504.9969999999998
 30
0.0
 10
497.7980081463661
 20
504.9969999999998
 30
0.0
 10
504.5955162927321
 20
504.9969999999998
 30
0.0
  0
SPLINE
  5
1EA
330
1F
100
AcDbEntity
  8
Make2D$visible$lines
100
AcDbSpline
210
0.0
220
0.0
230
1.0
 70
    24
 71
     2
 72
     6
 73
     3
 74
     0
 42
0.000000001
 43
0.0000000001
 40
4.072643845836661
 40
4.072643845836661
 40
4.072643845836661
 40
50.00300000000004
 40
50.00300000000004
 40
50.00300000000004
 10
509.0005000000001
 20
509.0696438458367
 30
0.0
 10
509.0005000000001
 20
532.0348219229184
 30
0.0
 10
509.0005000000001
 20
555.0
 30
0.0
  0
SPLINE
  5
1EB
330
1F
100
AcDbEntity
  8
Make2D$visible$lines
100
AcDbSpline
210
0.0
220
0.0
230
1.0
 70
    24
 71
     2
 72
     6
 73
     3
 74
     0
 42
0.000000001
 43
0.0000000001
 40
0.0
 40
0.0
 40
0.0
 40
13.50252767816049
 40
13.50252767816049
 40
13.50252767816049
 10
491.0005000000001
 20
304.997
 30
0.0
 10
497.7517638390802
 20
304.9969999999999
 30
0.0
 10
504.5030276781604
 20
304.9969999999998
 30
0.0
  0
ARC
  5
1EC
330
1F
100
AcDbEntity
  8
side
100
AcDbCircle
 10
506.8004566855911
 20
306.9262018960741
 30
0.0
 40
3.0
100
AcDbArc
 50
220.0209223570938
 51
42.83221128250423
  0
SPLINE
  5
1ED
330
1F
100
AcDbEntity
  8
Make2D$visible$lines
100
AcDbSpline
210
0.0
220
0.0
230
1.0
 70
    24
 71
     2
 72
     6
 73
     3
 74
     0
 42
0.000000001
 43
0.0000000001
 40
0.0
 40
0.0
 40
0.0
 40
46.22274976601276
 40
46.22274976601276
 40
46.22274976601276
 10
509.0005000000001
 20
205.0
 30
0.0
 10
509.0005000000001
 20
228.1113748830064
 30
0.0
 10
509.0005000000001
 20
251.2227497660127
 30
0.0
  0
SPLINE
  5
1EE
330
1F
100
AcDbEntity
  8
Make2D$visible$lines
100
AcDbSpline
210
0.0
220
0.0
230
1.0
 70
    24
 71
     2
 72
     6
 73
     3
 74
     0
 42
0.000000001
 43
0.0000000001
 40
4.663256548012137
 40
4.663256548012137
 40
4.663256548012137
 40
18.0
 40
18.0
 40
18.0
 10
504.3372434519879
 20
254.997
 30
0.0
 10
497.668871725994
 20
254.997
 30
0.0
 10
491.0005000000001
 20
254.997
 30
0.0
  0
ARC
  5
1EF
330
1F
100
AcDbEntity
  8
side
100
AcDbCircle
 10
506.6988352251456
 20
253.1468961388736
 30
0.0
 40
3.0
100
AcDbArc
 50
320.1050416003283
 51
141.9243568928929
  0
SPLINE
  5
1F0
330
1F
100
AcDbEntity
  8
Make2D$visible$lines
100
AcDbSpline
210
0.0
220
0.0
230
1.0
 70
    24
 71
     2
 72
     6
 73
     3
 74
     0
 42
0.000000001
 43
0.0000000001
 40
4.148224721623509
 40
4.148224721623509
 40
4.148224721623509
 40
49.99699999999984
 40
49.99699999999984
 40
49.99699999999984
 10
859.0004999999996
 20
250.8487752783764
 30
0.0
 10
859.0004999999996
 20
227.9243876391882
 30
0.0
 10
859.0004999999996
 20
205.0
 30
0.0
  0
SPLINE
  5
1F1
330
1F
100
AcDbEntity
  8
Make2D$visible$lines
100
AcDbSpline
210
0.0
220
0.0
230
1.0
 70
    24
 71
     2
 72
     6
 73
     3
 74
     0
 42
0.000000001
 43
0.0000000001
 40
0.0
 40
0.0
 40
0.0
 40
13.66400091829635
 40
13.66400091829635
 40
13.66400091829635
 10
876.9994999999999
 20
254.997
 30
0.0
 10
870.1674995408518
 20
254.9969999999998
 30
0.0
 10
863.3354990817038
 20
254.9969999999997
 30
0.0
  0
ARC
  5
1F2
330
1F
100
AcDbEntity
  8
side
100
AcDbCircle
 10
861.166677748361
 20
252.9242689455565
 30
0.0
 40
3.0
100
AcDbArc
 50
43.70221434240185
 51
223.7752413607846
  0
SPLINE
  5
1F3
330
1F
100
AcDbEntity
  8
Make2D$visible$lines
100
AcDbSpline
210
0.0
220
0.0
230
1.0
 70
    24
 71
     2
 72
     6
 73
     3
 74
     0
 42
0.000000001
 43
0.0000000001
 40
149.9990068669797
 40
149.9990068669797
 40
149.9990068669797
 40
150.0000000033334
 40
150.0000000033334
 40
150.0000000033334
 10
858.999500006621
 20
304.9979931363536
 30
0.0
 10
858.9995000033105
 20
304.9974965681768
 30
0.0
 10
858.9994999999999
 20
304.997
 30
0.0
  0
SPLINE
  5
1F4
330
1F
100
AcDbEntity
  8
Make2D$visible$lines
100
AcDbSpline
210
0.0
220
0.0
230
1.0
 70
    24
 71
     2
 72
     6
 73
     3
 74
     0
 42
0.000000001
 43
0.0000000001
 40
3.798344288149774
 40
3.798344288149774
 40
3.798344288149774
 40
18.0
 40
18.0
 40
18.0
 10
862.7978442881499
 20
304.997
 30
0.0
 10
869.8986721440749
 20
304.997
 30
0.0
 10
876.9994999999999
 20
304.997
 30
0.0
  0
SPLINE
  5
1F5
330
1F
100
AcDbEntity
  8
Make2D$visible$lines
100
AcDbSpline
210
0.0
220
0.0
230
1.0
 70
    24
 71
     2
 72
     6
 73
     3
 74
     0
 42
0.000000001
 43
0.0000000001
 40
0.0
 40
0.0
 40
0.0
 40
0.0012144173051583
 40
0.0012144173051583
 40
0.0012144173051583
 10
858.9994999999999
 20
304.997
 30
0.0
 10
859.0001072086525
 20
304.997
 30
0.0
 10
859.0007144173051
 20
304.997
 30
0.0
  0
ARC
  5
1F6
330
1F
100
AcDbEntity
  8
side
100
AcDbCircle
 10
860.8992793527275
 20
307.3198110525792
 30
0.0
 40
3.0
100
AcDbArc
 50
129.2663623140146
 51
309.2610731751702
  0
SPLINE
  5
1F7
330
1F
100
AcDbEntity
  8
Make2D$visible$lines
100
AcDbSpline
210
0.0
220
0.0
230
1.0
 70
    24
 71
     2
 72
     6
 73
     3
 74
     0
 42
0.000000001
 43
0.0000000001
 40
0.0
 40
0.0
 40
0.0
 40
50.0
 40
50.0
 40
50.0
 10
876.9994999999999
 20
504.9969999999998
 30
0.0
 10
876.9994999999999
 20
479.9969999999999
 30
0.0
 10
876.9994999999999
 20
454.997
 30
0.0
  0
SPLINE
  5
1F8
330
1F
100
AcDbEntity
  8
Make2D$visible$lines
100
AcDbSpline
210
0.0
220
0.0
230
1.0
 70
    24
 71
     2
 72
     6
 73
     3
 74
     0
 42
0.000000001
 43
0.0000000001
 40
0.0
 40
0.0
 40
0.0
 40
349.9999999999998
 40
349.9999999999998
 40
349.9999999999998
 10
509.0005000000001
 20
555.0
 30
0.0
 10
684.0004999999999
 20
555.0
 30
0.0
 10
859.0004999999996
 20
555.0
 30
0.0
  0
SPLINE
  5
1F9
330
1F
100
AcDbEntity
  8
Make2D$visible$lines
100
AcDbSpline
210
0.0
220
0.0
230
1.0
 70
    24
 71
     2
 72
     6
 73
     3
 74
     0
 42
0.000000001
 43
0.0000000001
 40
0.0
 40
0.0
 40
0.0
 40
50.0
 40
50.0
 40
50.0
 10
491.0005000000001
 20
454.997
 30
0.0
 10
491.0005000000001
 20
479.9969999999999
 30
0.0
 10
491.0005000000001
 20
504.9969999999998
 30
0.0
  0
SPLINE
  5
1FA
330
1F
100
AcDbEntity
  8
Make2D$visible$lines
100
AcDbSpline
210
0.0
220
0.0
230
1.0
 70
    24
 71
     2
 72
     6
 73
     3
 74
     0
 42
0.000000001
 43
0.0000000001
 40
0.0
 40
0.0
 40
0.0
 40
50.0
 40
50.0
 40
50.0
 10
491.0005000000001
 20
254.997
 30
0.0
 10
491.0005000000001
 20
279.997
 30
0.0
 10
491.0005000000001
 20
304.997
 30
0.0
  0
SPLINE
  5
1FB
330
1F
100
AcDbEntity
  8
Make2D$visible$lines
100
AcDbSpline
210
0.0
220
0.0
230
1.0
 70
    24
 71
     2
 72
     6
 73
     3
 74
     0
 42
0.000000001
 43
0.0000000001
 40
0.0
 40
0.0
 40
0.0
 40
349.9999999999998
 40
349.9999999999998
 40
349.9999999999998
 10
859.0004999999996
 20
205.0
 30
0.0
 10
684.0004999999999
 20
205.0
 30
0.0
 10
509.0005000000001
 20
205.0
 30
0.0
  0
SPLINE
  5
1FC
330
1F
100
AcDbEntity
  8
Make2D$visible$lines
100
AcDbSpline
210
0.0
220
0.0
230
1.0
 70
    24
 71
     2
 72
     6
 73
     3
 74
     0
 42
0.000000001
 43
0.0000000001
 40
0.0
 40
0.0
 40
0.0
 40
50.0
 40
50.0
 40
50.0
 10
876.9994999999999
 20
304.997
 30
0.0
 10
876.9994999999999
 20
279.997
 30
0.0
 10
876.9994999999999
 20
254.997
 30
0.0
  0
SPLINE
  5
1FD
330
1F
100
AcDbEntity
  8
Make2D$visible$lines
100
AcDbSpline
210
0.0
220
0.0
230
1.0
 70
    24
 71
     2
 72
     6
 73
     3
 74
     0
 42
0.000000001
 43
0.0000000001
 40
0.0
 40
0.0
 40
0.0
 40
50.0
 40
50.0
 40
50.0
 10
1272.9995
 20
664.997
 30
0.0
 10
1272.9995
 20
639.997
 30
0.0
 10
1272.9995
 20
614.997
 30
0.0
  0
SPLINE
  5
1FE
330
1F
100
AcDbEntity
  8
Make2D$visible$lines
100
AcDbSpline
210
0.0
220
0.0
230
1.0
 70
    24
 71
     2
 72
     6
 73
     3
 74
     0
 42
0.000000001
 43
0.0000000001
 40
0.0
 40
0.0
 40
0.0
 40
349.9999999999998
 40
349.9999999999998
 40
349.9999999999998
 10
1255.0005
 20
565.0
 30
0.0
 10
1080.0005
 20
565.0
 30
0.0
 10
905.0005000000001
 20
565.0
 30
0.0
  0
SPLINE
  5
1FF
330
1F
100
AcDbEntity
  8
Make2D$visible$lines
100
AcDbSpline
210
0.0
220
0.0
230
1.0
 70
    24
 71
     2
 72
     6
 73
     3
 74
     0
 42
0.000000001
 43
0.0000000001
 40
0.0
 40
0.0
 40
0.0
 40
50.0
 40
50.0
 40
50.0
 10
887.0005000000001
 20
614.997
 30
0.0
 10
887.0005000000001
 20
639.997
 30
0.0
 10
887.0005000000001
 20
664.997
 30
0.0
  0
SPLINE
  5
200
330
1F
100
AcDbEntity
  8
Make2D$visible$lines
100
AcDbSpline
210
0.0
220
0.0
230
1.0
 70
    24
 71
     2
 72
     6
 73
     3
 74
     0
 42
0.000000001
 43
0.0000000001
 40
0.0
 40
0.0
 40
0.0
 40
50.0
 40
50.0
 40
50.0
 10
887.0005000000001
 20
814.997
 30
0.0
 10
887.0005000000001
 20
839.9969999999998
 30
0.0
 10
887.0005000000001
 20
864.9969999999998
 30
0.0
  0
SPLINE
  5
201
330
1F
100
AcDbEntity
  8
Make2D$visible$lines
100
AcDbSpline
210
0.0
220
0.0
230
1.0
 70
    24
 71
     2
 72
     6
 73
     3
 74
     0
 42
0.000000001
 43
0.0000000001
 40
0.0
 40
0.0
 40
0.0
 40
349.9999999999998
 40
349.9999999999998
 40
349.9999999999998
 10
905.0005000000001
 20
915.0
 30
0.0
 10
1080.0005
 20
915.0
 30
0.0
 10
1255.0005
 20
915.0
 30
0.0
  0
SPLINE
  5
202
330
1F
100
AcDbEntity
  8
Make2D$visible$lines
100
AcDbSpline
210
0.0
220
0.0
230
1.0
 70
    24
 71
     2
 72
     6
 73
     3
 74
     0
 42
0.000000001
 43
0.0000000001
 40
0.0
 40
0.0
 40
0.0
 40
50.0
 40
50.0
 40
50.0
 10
1272.9995
 20
864.9969999999998
 30
0.0
 10
1272.9995
 20
839.9969999999998
 30
0.0
 10
1272.9995
 20
814.997
 30
0.0
  0
ARC
  5
203
330
1F
100
AcDbEntity
  8
side
100
AcDbCircle
 10
1256.899279352727
 20
667.3198110525792
 30
0.0
 40
3.0
100
AcDbArc
 50
129.2663623140163
 51
309.2610731751692
  0
SPLINE
  5
204
330
1F
100
AcDbEntity
  8
Make2D$visible$lines
100
AcDbSpline
210
0.0
220
0.0
230
1.0
 70
    24
 71
     2
 72
     6
 73
     3
 74
     0
 42
0.000000001
 43
0.0000000001
 40
0.0
 40
0.0
 40
0.0
 40
0.0012144173051583
 40
0.0012144173051583
 40
0.0012144173051583
 10
1254.9995
 20
664.997
 30
0.0
 10
1255.000107208652
 20
664.997
 30
0.0
 10
1255.000714417305
 20
664.997
 30
0.0
  0
SPLINE
  5
205
330
1F
100
AcDbEntity
  8
Make2D$visible$lines
100
AcDbSpline
210
0.0
220
0.0
230
1.0
 70
    24
 71
     2
 72
     6
 73
     3
 74
     0
 42
0.000000001
 43
0.0000000001
 40
3.798344288149774
 40
3.798344288149774
 40
3.798344288149774
 40
18.0
 40
18.0
 40
18.0
 10
1258.79784428815
 20
664.997
 30
0.0
 10
1265.898672144075
 20
664.997
 30
0.0
 10
1272.9995
 20
664.997
 30
0.0
  0
SPLINE
  5
206
330
1F
100
AcDbEntity
  8
Make2D$visible$lines
100
AcDbSpline
210
0.0
220
0.0
230
1.0
 70
    24
 71
     2
 72
     6
 73
     3
 74
     0
 42
0.000000001
 43
0.0000000001
 40
149.9990068669797
 40
149.9990068669797
 40
149.9990068669797
 40
150.0000000033334
 40
150.0000000033334
 40
150.0000000033334
 10
1254.999500006621
 20
664.9979931363536
 30
0.0
 10
1254.99950000331
 20
664.9974965681768
 30
0.0
 10
1254.9995
 20
664.997
 30
0.0
  0
ARC
  5
207
330
1F
100
AcDbEntity
  8
side
100
AcDbCircle
 10
1257.166677748361
 20
612.9242689455565
 30
0.0
 40
3.0
100
AcDbArc
 50
43.70221434240225
 51
223.7752413607846
  0
SPLINE
  5
208
330
1F
100
AcDbEntity
  8
Make2D$visible$lines
100
AcDbSpline
210
0.0
220
0.0
230
1.0
 70
    24
 71
     2
 72
     6
 73
     3
 74
     0
 42
0.000000001
 43
0.0000000001
 40
0.0
 40
0.0
 40
0.0
 40
13.66400091829635
 40
13.66400091829635
 40
13.66400091829635
 10
1272.9995
 20
614.997
 30
0.0
 10
1266.167499540852
 20
614.9969999999998
 30
0.0
 10
1259.335499081704
 20
614.9969999999997
 30
0.0
  0
SPLINE
  5
209
330
1F
100
AcDbEntity
  8
Make2D$visible$lines
100
AcDbSpline
210
0.0
220
0.0
230
1.0
 70
    24
 71
     2
 72
     6
 73
     3
 74
     0
 42
0.000000001
 43
0.0000000001
 40
4.148224721623509
 40
4.148224721623509
 40
4.148224721623509
 40
49.99699999999984
 40
49.99699999999984
 40
49.99699999999984
 10
1255.0005
 20
610.8487752783764
 30
0.0
 10
1255.0005
 20
587.9243876391881
 30
0.0
 10
1255.0005
 20
565.0
 30
0.0
  0
ARC
  5
20A
330
1F
100
AcDbEntity
  8
side
100
AcDbCircle
 10
902.6988352251456
 20
613.1468961388736
 30
0.0
 40
3.0
100
AcDbArc
 50
320.1050416003289
 51
141.9243568928922
  0
SPLINE
  5
20B
330
1F
100
AcDbEntity
  8
Make2D$visible$lines
100
AcDbSpline
210
0.0
220
0.0
230
1.0
 70
    24
 71
     2
 72
     6
 73
     3
 74
     0
 42
0.000000001
 43
0.0000000001
 40
4.663256548012137
 40
4.663256548012137
 40
4.663256548012137
 40
18.0
 40
18.0
 40
18.0
 10
900.3372434519879
 20
614.997
 30
0.0
 10
893.668871725994
 20
614.997
 30
0.0
 10
887.0005000000001
 20
614.997
 30
0.0
  0
SPLINE
  5
20C
330
1F
100
AcDbEntity
  8
Make2D$visible$lines
100
AcDbSpline
210
0.0
220
0.0
230
1.0
 70
    24
 71
     2
 72
     6
 73
     3
 74
     0
 42
0.000000001
 43
0.0000000001
 40
0.0
 40
0.0
 40
0.0
 40
46.22274976601276
 40
46.22274976601276
 40
46.22274976601276
 10
905.0005000000001
 20
565.0
 30
0.0
 10
905.0005000000001
 20
588.1113748830064
 30
0.0
 10
905.0005000000001
 20
611.2227497660127
 30
0.0
  0
ARC
  5
20D
330
1F
100
AcDbEntity
  8
side
100
AcDbCircle
 10
902.8004566855911
 20
666.9262018960741
 30
0.0
 40
3.0
100
AcDbArc
 50
220.0209223570947
 51
42.83221128250338
  0
SPLINE
  5
20E
330
1F
100
AcDbEntity
  8
Make2D$visible$lines
100
AcDbSpline
210
0.0
220
0.0
230
1.0
 70
    24
 71
     2
 72
     6
 73
     3
 74
     0
 42
0.000000001
 43
0.0000000001
 40
0.0
 40
0.0
 40
0.0
 40
13.50252767816049
 40
13.50252767816049
 40
13.50252767816049
 10
887.0005000000001
 20
664.997
 30
0.0
 10
893.7517638390802
 20
664.9969999999998
 30
0.0
 10
900.5030276781604
 20
664.9969999999998
 30
0.0
  0
SPLINE
  5
20F
330
1F
100
AcDbEntity
  8
Make2D$visible$lines
100
AcDbSpline
210
0.0
220
0.0
230
1.0
 70
    24
 71
     2
 72
     6
 73
     3
 74
     0
 42
0.000000001
 43
0.0000000001
 40
4.072643845836661
 40
4.072643845836661
 40
4.072643845836661
 40
50.00300000000004
 40
50.00300000000004
 40
50.00300000000004
 10
905.0005000000001
 20
869.0696438458367
 30
0.0
 10
905.0005000000001
 20
892.0348219229184
 30
0.0
 10
905.0005000000001
 20
915.0
 30
0.0
  0
SPLINE
  5
210
330
1F
100
AcDbEntity
  8
Make2D$visible$lines
100
AcDbSpline
210
0.0
220
0.0
230
1.0
 70
    24
 71
     2
 72
     6
 73
     3
 74
     0
 42
0.000000001
 43
0.0000000001
 40
0.0
 40
0.0
 40
0.0
 40
13.59501629273202
 40
13.59501629273202
 40
13.59501629273202
 10
887.0005000000001
 20
864.9969999999998
 30
0.0
 10
893.7980081463661
 20
864.9969999999998
 30
0.0
 10
900.5955162927321
 20
864.9969999999998
 30
0.0
  0
ARC
  5
211
330
1F
100
AcDbEntity
  8
side
100
AcDbCircle
 10
902.8314222610916
 20
866.9971811169626
 30
0.0
 40
3.0
100
AcDbArc
 50
221.814955905619
 51
43.69512615414297
  0
SPLINE
  5
212
330
1F
100
AcDbEntity
  8
Make2D$visible$lines
100
AcDbSpline
210
0.0
220
0.0
230
1.0
 70
    24
 71
     2
 72
     6
 73
     3
 74
     0
 42
0.000000001
 43
0.0000000001
 40
4.748339689144607
 40
4.748339689144607
 40
4.748339689144607
 40
18.0
 40
18.0
 40
18.0
 10
900.2521603108553
 20
814.997
 30
0.0
 10
893.6263301554277
 20
814.997
 30
0.0
 10
887.0005000000001
 20
814.997
 30
0.0
  0
SPLINE
  5
213
330
1F
100
AcDbEntity
  8
Make2D$visible$lines
100
AcDbSpline
210
0.0
220
0.0
230
1.0
 70
    24
 71
     2
 72
     6
 73
     3
 74
     0
 42
0.000000001
 43
0.0000000001
 40
3.968762979916773
 40
3.968762979916773
 40
3.968762979916773
 40
146.3343152455369
 40
146.3343152455369
 40
146.3343152455369
 10
905.0005000000001
 20
668.9657629799166
 30
0.0
 10
905.0005000000001
 20
740.1485391127267
 30
0.0
 10
905.0005000000001
 20
811.3313152455368
 30
0.0
  0
ARC
  5
214
330
1F
100
AcDbEntity
  8
side
100
AcDbCircle
 10
902.6650092269306
 20
813.214260504674
 30
0.0
 40
3.0
100
AcDbArc
 50
321.1231604825085
 51
143.541064695804
  0
ARC
  5
215
330
1F
100
AcDbEntity
  8
side
100
AcDbCircle
 10
1257.082559637302
 20
867.1340085646129
 30
0.0
 40
3.0
100
AcDbArc
 50
133.9395639392889
 51
314.574686684295
  0
SPLINE
  5
216
330
1F
100
AcDbEntity
  8
Make2D$visible$lines
100
AcDbSpline
210
0.0
220
0.0
230
1.0
 70
    24
 71
     2
 72
     6
 73
     3
 74
     0
 42
0.000000001
 43
0.0000000001
 40
0.0
 40
0.0
 40
0.0
 40
0.0013333333329786
 40
0.0013333333329786
 40
0.0013333333329786
 10
1254.9995
 20
864.9969999999998
 30
0.0
 10
1255.000166666666
 20
864.9969999999998
 30
0.0
 10
1255.000833333333
 20
864.9969999999998
 30
0.0
  0
SPLINE
  5
217
330
1F
100
AcDbEntity
  8
Make2D$visible$lines
100
AcDbSpline
210
0.0
220
0.0
230
1.0
 70
    24
 71
     2
 72
     6
 73
     3
 74
     0
 42
0.000000001
 43
0.0000000001
 40
4.188574869916531
 40
4.188574869916531
 40
4.188574869916531
 40
18.0
 40
18.0
 40
18.0
 10
1259.188074869917
 20
864.9969999999998
 30
0.0
 10
1266.093787434958
 20
864.9969999999998
 30
0.0
 10
1272.9995
 20
864.9969999999998
 30
0.0
  0
SPLINE
  5
218
330
1F
100
AcDbEntity
  8
Make2D$visible$lines
100
AcDbSpline
210
0.0
220
0.0
230
1.0
 70
    24
 71
     2
 72
     6
 73
     3
 74
     0
 42
0.000000001
 43
0.0000000001
 40
0.0
 40
0.0
 40
0.0
 40
45.7070054623802
 40
45.7070054623802
 40
45.7070054623802
 10
1255.0005
 20
915.0
 30
0.0
 10
1255.000042957368
 20
892.14649727338
 30
0.0
 10
1254.999585914736
 20
869.2929945467599
 30
0.0
  0
SPLINE
  5
219
330
1F
100
AcDbEntity
  8
Make2D$visible$lines
100
AcDbSpline
210
0.0
220
0.0
230
1.0
 70
    24
 71
     2
 72
     6
 73
     3
 74
     0
 42
0.000000001
 43
0.0000000001
 40
0.0
 40
0.0
 40
0.0
 40
13.45705412642412
 40
13.45705412642412
 40
13.45705412642412
 10
1272.9995
 20
814.997
 30
0.0
 10
1266.270972936788
 20
814.997
 30
0.0
 10
1259.542445873576
 20
814.997
 30
0.0
  0
SPLINE
  5
21A
330
1F
100
AcDbEntity
  8
Make2D$visible$lines
100
AcDbSpline
210
0.0
220
0.0
230
1.0
 70
    24
 71
     2
 72
     6
 73
     3
 74
     0
 42
0.000000001
 43
0.0000000001
 40
3.917685700495198
 40
3.917685700495198
 40
3.917685700495198
 40
145.35534570424
 40
145.35534570424
 40
145.35534570424
 10
1255.000473882095
 20
811.0793142995918
 30
0.0
 10
1255.000002423229
 20
740.360484299291
 30
0.0
 10
1254.999530964362
 20
669.6416542989901
 30
0.0
  0
ARC
  5
21B
330
1F
100
AcDbEntity
  8
side
100
AcDbCircle
 10
1257.222769381076
 20
813.0946065154279
 30
0.0
 40
3.0
100
AcDbArc
 50
39.35557408914323
 51
222.204105690068
  0
ARC
  5
21C
330
1F
100
AcDbEntity
  8
side
100
AcDbCircle
 10
1257.222769381076
 20
453.0946065154279
 30
0.0
 40
3.0
100
AcDbArc
 50
39.35557408914323
 51
222.2041056900688
  0
SPLINE
  5
21D
330
1F
100
AcDbEntity
  8
Make2D$visible$lines
100
AcDbSpline
210
0.0
220
0.0
230
1.0
 70
    24
 71
     2
 72
     6
 73
     3
 74
     0
 42
0.000000001
 43
0.0000000001
 40
3.917685700495198
 40
3.917685700495198
 40
3.917685700495198
 40
145.35534570424
 40
145.35534570424
 40
145.35534570424
 10
1255.000473882095
 20
451.0793142995918
 30
0.0
 10
1255.000002423229
 20
380.360484299291
 30
0.0
 10
1254.999530964362
 20
309.6416542989901
 30
0.0
  0
SPLINE
  5
21E
330
1F
100
AcDbEntity
  8
Make2D$visible$lines
100
AcDbSpline
210
0.0
220
0.0
230
1.0
 70
    24
 71
     2
 72
     6
 73
     3
 74
     0
 42
0.000000001
 43
0.0000000001
 40
0.0
 40
0.0
 40
0.0
 40
13.45705412642412
 40
13.45705412642412
 40
13.45705412642412
 10
1272.9995
 20
454.997
 30
0.0
 10
1266.270972936788
 20
454.997
 30
0.0
 10
1259.542445873576
 20
454.997
 30
0.0
  0
SPLINE
  5
21F
330
1F
100
AcDbEntity
  8
Make2D$visible$lines
100
AcDbSpline
210
0.0
220
0.0
230
1.0
 70
    24
 71
     2
 72
     6
 73
     3
 74
     0
 42
0.000000001
 43
0.0000000001
 40
0.0
 40
0.0
 40
0.0
 40
45.7070054623802
 40
45.7070054623802
 40
45.7070054623802
 10
1255.0005
 20
555.0
 30
0.0
 10
1255.000042957368
 20
532.14649727338
 30
0.0
 10
1254.999585914736
 20
509.2929945467599
 30
0.0
  0
SPLINE
  5
220
330
1F
100
AcDbEntity
  8
Make2D$visible$lines
100
AcDbSpline
210
0.0
220
0.0
230
1.0
 70
    24
 71
     2
 72
     6
 73
     3
 74
     0
 42
0.000000001
 43
0.0000000001
 40
4.188574869916531
 40
4.188574869916531
 40
4.188574869916531
 40
18.0
 40
18.0
 40
18.0
 10
1259.188074869917
 20
504.9969999999998
 30
0.0
 10
1266.093787434958
 20
504.9969999999998
 30
0.0
 10
1272.9995
 20
504.9969999999998
 30
0.0
  0
SPLINE
  5
221
330
1F
100
AcDbEntity
  8
Make2D$visible$lines
100
AcDbSpline
210
0.0
220
0.0
230
1.0
 70
    24
 71
     2
 72
     6
 73
     3
 74
     0
 42
0.000000001
 43
0.0000000001
 40
0.0
 40
0.0
 40
0.0
 40
0.0013333333329786
 40
0.0013333333329786
 40
0.0013333333329786
 10
1254.9995
 20
504.9969999999998
 30
0.0
 10
1255.000166666666
 20
504.9969999999998
 30
0.0
 10
1255.000833333333
 20
504.9969999999998
 30
0.0
  0
ARC
  5
222
330
1F
100
AcDbEntity
  8
side
100
AcDbCircle
 10
1257.082559637302
 20
507.1340085646129
 30
0.0
 40
3.0
100
AcDbArc
 50
133.9395639392889
 51
314.574686684295
  0
ARC
  5
223
330
1F
100
AcDbEntity
  8
side
100
AcDbCircle
 10
902.6650092269306
 20
453.214260504674
 30
0.0
 40
3.0
100
AcDbArc
 50
321.1231604825085
 51
143.541064695804
  0
SPLINE
  5
224
330
1F
100
AcDbEntity
  8
Make2D$visible$lines
100
AcDbSpline
210
0.0
220
0.0
230
1.0
 70
    24
 71
     2
 72
     6
 73
     3
 74
     0
 42
0.000000001
 43
0.0000000001
 40
3.968762979916773
 40
3.968762979916773
 40
3.968762979916773
 40
146.3343152455369
 40
146.3343152455369
 40
146.3343152455369
 10
905.0005000000001
 20
308.9657629799166
 30
0.0
 10
905.0005000000001
 20
380.1485391127267
 30
0.0
 10
905.0005000000001
 20
451.3313152455368
 30
0.0
  0
SPLINE
  5
225
330
1F
100
AcDbEntity
  8
Make2D$visible$lines
100
AcDbSpline
210
0.0
220
0.0
230
1.0
 70
    24
 71
     2
 72
     6
 73
     3
 74
     0
 42
0.000000001
 43
0.0000000001
 40
4.748339689144607
 40
4.748339689144607
 40
4.748339689144607
 40
18.0
 40
18.0
 40
18.0
 10
900.2521603108553
 20
454.997
 30
0.0
 10
893.6263301554277
 20
454.997
 30
0.0
 10
887.0005000000001
 20
454.997
 30
0.0
  0
ARC
  5
226
330
1F
100
AcDbEntity
  8
side
100
AcDbCircle
 10
902.8314222610916
 20
506.9971811169626
 30
0.0
 40
3.0
100
AcDbArc
 50
221.814955905619
 51
43.69512615414219
  0
SPLINE
  5
227
330
1F
100
AcDbEntity
  8
Make2D$visible$lines
100
AcDbSpline
210
0.0
220
0.0
230
1.0
 70
    24
 71
     2
 72
     6
 73
     3
 74
     0
 42
0.000000001
 43
0.0000000001
 40
0.0
 40
0.0
 40
0.0
 40
13.59501629273202
 40
13.59501629273202
 40
13.59501629273202
 10
887.0005000000001
 20
504.9969999999998
 30
0.0
 10
893.7980081463661
 20
504.9969999999998
 30
0.0
 10
900.5955162927321
 20
504.9969999999998
 30
0.0
  0
SPLINE
  5
228
330
1F
100
AcDbEntity
  8
Make2D$visible$lines
100
AcDbSpline
210
0.0
220
0.0
230
1.0
 70
    24
 71
     2
 72
     6
 73
     3
 74
     0
 42
0.000000001
 43
0.0000000001
 40
4.072643845836661
 40
4.072643845836661
 40
4.072643845836661
 40
50.00300000000004
 40
50.00300000000004
 40
50.00300000000004
 10
905.0005000000001
 20
509.0696438458367
 30
0.0
 10
905.0005000000001
 20
532.0348219229184
 30
0.0
 10
905.0005000000001
 20
555.0
 30
0.0
  0
SPLINE
  5
229
330
1F
100
AcDbEntity
  8
Make2D$visible$lines
100
AcDbSpline
210
0.0
220
0.0
230
1.0
 70
    24
 71
     2
 72
     6
 73
     3
 74
     0
 42
0.000000001
 43
0.0000000001
 40
0.0
 40
0.0
 40
0.0
 40
13.50252767816049
 40
13.50252767816049
 40
13.50252767816049
 10
887.0005000000001
 20
304.997
 30
0.0
 10
893.7517638390802
 20
304.9969999999999
 30
0.0
 10
900.5030276781604
 20
304.9969999999998
 30
0.0
  0
ARC
  5
22A
330
1F
100
AcDbEntity
  8
side
100
AcDbCircle
 10
902.8004566855911
 20
306.9262018960741
 30
0.0
 40
3.0
100
AcDbArc
 50
220.0209223570938
 51
42.83221128250496
  0
SPLINE
  5
22B
330
1F
100
AcDbEntity
  8
Make2D$visible$lines
100
AcDbSpline
210
0.0
220
0.0
230
1.0
 70
    24
 71
     2
 72
     6
 73
     3
 74
     0
 42
0.000000001
 43
0.0000000001
 40
0.0
 40
0.0
 40
0.0
 40
46.22274976601276
 40
46.22274976601276
 40
46.22274976601276
 10
905.0005000000001
 20
205.0
 30
0.0
 10
905.0005000000001
 20
228.1113748830064
 30
0.0
 10
905.0005000000001
 20
251.2227497660127
 30
0.0
  0
SPLINE
  5
22C
330
1F
100
AcDbEntity
  8
Make2D$visible$lines
100
AcDbSpline
210
0.0
220
0.0
230
1.0
 70
    24
 71
     2
 72
     6
 73
     3
 74
     0
 42
0.000000001
 43
0.0000000001
 40
4.663256548012137
 40
4.663256548012137
 40
4.663256548012137
 40
18.0
 40
18.0
 40
18.0
 10
900.3372434519879
 20
254.997
 30
0.0
 10
893.668871725994
 20
254.997
 30
0.0
 10
887.0005000000001
 20
254.997
 30
0.0
  0
ARC
  5
22D
330
1F
100
AcDbEntity
  8
side
100
AcDbCircle
 10
902.6988352251456
 20
253.1468961388736
 30
0.0
 40
3.0
100
AcDbArc
 50
320.1050416003289
 51
141.9243568928922
  0
SPLINE
  5
22E
330
1F
100
AcDbEntity
  8
Make2D$visible$lines
100
AcDbSpline
210
0.0
220
0.0
230
1.0
 70
    24
 71
     2
 72
     6
 73
     3
 74
     0
 42
0.000000001
 43
0.0000000001
 40
4.148224721623509
 40
4.148224721623509
 40
4.148224721623509
 40
49.99699999999984
 40
49.99699999999984
 40
49.99699999999984
 10
1255.0005
 20
250.8487752783764
 30
0.0
 10
1255.0005
 20
227.9243876391882
 30
0.0
 10
1255.0005
 20
205.0
 30
0.0
  0
SPLINE
  5
22F
330
1F
100
AcDbEntity
  8
Make2D$visible$lines
100
AcDbSpline
210
0.0
220
0.0
230
1.0
 70
    24
 71
     2
 72
     6
 73
     3
 74
     0
 42
0.000000001
 43
0.0000000001
 40
0.0
 40
0.0
 40
0.0
 40
13.66400091829635
 40
13.66400091829635
 40
13.66400091829635
 10
1272.9995
 20
254.997
 30
0.0
 10
1266.167499540852
 20
254.9969999999998
 30
0.0
 10
1259.335499081704
 20
254.9969999999997
 30
0.0
  0
ARC
  5
230
330
1F
100
AcDbEntity
  8
side
100
AcDbCircle
 10
1257.166677748361
 20
252.9242689455565
 30
0.0
 40
3.0
100
AcDbArc
 50
43.70221434240185
 51
223.7752413607846
  0
SPLINE
  5
231
330
1F
100
AcDbEntity
  8
Make2D$visible$lines
100
AcDbSpline
210
0.0
220
0.0
230
1.0
 70
    24
 71
     2
 72
     6
 73
     3
 74
     0
 42
0.000000001
 43
0.0000000001
 40
149.9990068669797
 40
149.9990068669797
 40
149.9990068669797
 40
150.0000000033334
 40
150.0000000033334
 40
150.0000000033334
 10
1254.999500006621
 20
304.9979931363536
 30
0.0
 10
1254.99950000331
 20
304.9974965681768
 30
0.0
 10
1254.9995
 20
304.997
 30
0.0
  0
SPLINE
  5
232
330
1F
100
AcDbEntity
  8
Make2D$visible$lines
100
AcDbSpline
210
0.0
220
0.0
230
1.0
 70
    24
 71
     2
 72
     6
 73
     3
 74
     0
 42
0.000000001
 43
0.0000000001
 40
3.798344288149774
 40
3.798344288149774
 40
3.798344288149774
 40
18.0
 40
18.0
 40
18.0
 10
1258.79784428815
 20
304.997
 30
0.0
 10
1265.898672144075
 20
304.997
 30
0.0
 10
1272.9995
 20
304.997
 30
0.0
  0
SPLINE
  5
233
330
1F
100
AcDbEntity
  8
Make2D$visible$lines
100
AcDbSpline
210
0.0
220
0.0
230
1.0
 70
    24
 71
     2
 72
     6
 73
     3
 74
     0
 42
0.000000001
 43
0.0000000001
 40
0.0
 40
0.0
 40
0.0
 40
0.0012144173051583
 40
0.0012144173051583
 40
0.0012144173051583
 10
1254.9995
 20
304.997
 30
0.0
 10
1255.000107208652
 20
304.997
 30
0.0
 10
1255.000714417305
 20
304.997
 30
0.0
  0
ARC
  5
234
330
1F
100
AcDbEntity
  8
side
100
AcDbCircle
 10
1256.899279352727
 20
307.3198110525792
 30
0.0
 40
3.0
100
AcDbArc
 50
129.2663623140163
 51
309.2610731751685
  0
SPLINE
  5
235
330
1F
100
AcDbEntity
  8
Make2D$visible$lines
100
AcDbSpline
210
0.0
220
0.0
230
1.0
 70
    24
 71
     2
 72
     6
 73
     3
 74
     0
 42
0.000000001
 43
0.0000000001
 40
0.0
 40
0.0
 40
0.0
 40
50.0
 40
50.0
 40
50.0
 10
1272.9995
 20
504.9969999999998
 30
0.0
 10
1272.9995
 20
479.9969999999999
 30
0.0
 10
1272.9995
 20
454.997
 30
0.0
  0
SPLINE
  5
236
330
1F
100
AcDbEntity
  8
Make2D$visible$lines
100
AcDbSpline
210
0.0
220
0.0
230
1.0
 70
    24
 71
     2
 72
     6
 73
     3
 74
     0
 42
0.000000001
 43
0.0000000001
 40
0.0
 40
0.0
 40
0.0
 40
349.9999999999998
 40
349.9999999999998
 40
349.9999999999998
 10
905.0005000000001
 20
555.0
 30
0.0
 10
1080.0005
 20
555.0
 30
0.0
 10
1255.0005
 20
555.0
 30
0.0
  0
SPLINE
  5
237
330
1F
100
AcDbEntity
  8
Make2D$visible$lines
100
AcDbSpline
210
0.0
220
0.0
230
1.0
 70
    24
 71
     2
 72
     6
 73
     3
 74
     0
 42
0.000000001
 43
0.0000000001
 40
0.0
 40
0.0
 40
0.0
 40
50.0
 40
50.0
 40
50.0
 10
887.0005000000001
 20
454.997
 30
0.0
 10
887.0005000000001
 20
479.9969999999999
 30
0.0
 10
887.0005000000001
 20
504.9969999999998
 30
0.0
  0
SPLINE
  5
238
330
1F
100
AcDbEntity
  8
Make2D$visible$lines
100
AcDbSpline
210
0.0
220
0.0
230
1.0
 70
    24
 71
     2
 72
     6
 73
     3
 74
     0
 42
0.000000001
 43
0.0000000001
 40
0.0
 40
0.0
 40
0.0
 40
50.0
 40
50.0
 40
50.0
 10
887.0005000000001
 20
254.997
 30
0.0
 10
887.0005000000001
 20
279.997
 30
0.0
 10
887.0005000000001
 20
304.997
 30
0.0
  0
SPLINE
  5
239
330
1F
100
AcDbEntity
  8
Make2D$visible$lines
100
AcDbSpline
210
0.0
220
0.0
230
1.0
 70
    24
 71
     2
 72
     6
 73
     3
 74
     0
 42
0.000000001
 43
0.0000000001
 40
0.0
 40
0.0
 40
0.0
 40
349.9999999999998
 40
349.9999999999998
 40
349.9999999999998
 10
1255.0005
 20
205.0
 30
0.0
 10
1080.0005
 20
205.0
 30
0.0
 10
905.0005000000001
 20
205.0
 30
0.0
  0
SPLINE
  5
23A
330
1F
100
AcDbEntity
  8
Make2D$visible$lines
100
AcDbSpline
210
0.0
220
0.0
230
1.0
 70
    24
 71
     2
 72
     6
 73
     3
 74
     0
 42
0.000000001
 43
0.0000000001
 40
0.0
 40
0.0
 40
0.0
 40
50.0
 40
50.0
 40
50.0
 10
1272.9995
 20
304.997
 30
0.0
 10
1272.9995
 20
279.997
 30
0.0
 10
1272.9995
 20
254.997
 30
0.0
  0
ENDSEC
  0
SECTION
  2
OBJECTS
  0
DICTIONARY
  5
C
330
0
100
AcDbDictionary
281
     1
  3
ACAD_DETAILVIEWSTYLE
350
276
  3
ACAD_GROUP
350
D
  3
ACAD_LAYOUT
350
1A
  3
ACAD_MATERIAL
350
43
  3
ACAD_MLEADERSTYLE
350
275
  3
ACAD_MLINESTYLE
350
17
  3
ACAD_PLOTSETTINGS
350
19
  3
ACAD_PLOTSTYLENAME
350
E
  3
ACAD_SCALELIST
350
47
  3
ACAD_SECTIONVIEWSTYLE
350
277
  3
ACAD_TABLESTYLE
350
274
  3
ACAD_VISUALSTYLE
350
2A
  3
AcDbVariableDictionary
350
23B
  0
DICTIONARY
  5
276
102
{ACAD_REACTORS
330
C
102
}
330
C
100
AcDbDictionary
281
     1
  0
DICTIONARY
  5
D
102
{ACAD_REACTORS
330
C
102
}
330
C
100
AcDbDictionary
281
     1
  0
DICTIONARY
  5
1A
102
{ACAD_REACTORS
330
C
102
}
330
C
100
AcDbDictionary
281
     1
  3
Layout1
350
1E
  3
Layout2
350
26
  3
Model
350
22
  0
DICTIONARY
  5
43
102
{ACAD_REACTORS
330
C
102
}
330
C
100
AcDbDictionary
281
     1
  3
ByBlock
350
45
  3
ByLayer
350
44
  3
Global
350
46
  0
DICTIONARY
  5
275
102
{ACAD_REACTORS
330
C
102
}
330
C
100
AcDbDictionary
281
     1
  0
DICTIONARY
  5
17
102
{ACAD_REACTORS
330
C
102
}
330
C
100
AcDbDictionary
281
     1
  3
Standard
350
18
  0
DICTIONARY
  5
19
102
{ACAD_REACTORS
330
C
102
}
330
C
100
AcDbDictionary
281
     1
  0
ACDBDICTIONARYWDFLT
  5
E
102
{ACAD_REACTORS
330
C
102
}
330
C
100
AcDbDictionary
281
     1
  3
Normal
350
F
100
AcDbDictionaryWithDefault
340
F
  0
DICTIONARY
  5
47
102
{ACAD_REACTORS
330
C
102
}
330
C
100
AcDbDictionary
281
     1
  3
A0
350
48
  3
A1
350
49
  3
A2
350
4A
  3
A3
350
4B
  3
A4
350
4C
  3
A5
350
4D
  3
A6
350
4E
  3
A7
350
4F
  3
A8
350
50
  3
A9
350
51
  3
B0
350
52
  3
B1
350
53
  3
B2
350
54
  3
B3
350
55
  3
B4
350
56
  3
B5
350
57
  3
B6
350
58
  3
B7
350
59
  3
B8
350
5A
  3
B9
350
5B
  3
C0
350
5C
  3
C1
350
5D
  3
C2
350
5E
  3
C3
350
5F
  3
C4
350
60
  3
C5
350
61
  3
C6
350
62
  3
C7
350
63
  3
C8
350
64
  3
C9
350
65
  3
D0
350
66
  3
D1
350
67
  3
D2
350
68
  0
DICTIONARY
  5
277
102
{ACAD_REACTORS
330
C
102
}
330
C
100
AcDbDictionary
281
     1
  0
DICTIONARY
  5
274
102
{ACAD_REACTORS
330
C
102
}
330
C
100
AcDbDictionary
281
     1
  0
DICTIONARY
  5
2A
102
{ACAD_REACTORS
330
C
102
}
330
C
100
AcDbDictionary
281
     1
  3
2dWireframe
350
2F
  3
Basic
350
32
  3
Brighten
350
36
  3
ColorChange
350
3A
  3
Conceptual
350
34
  3
Dim
350
35
  3
EdgeColorOff
350
3D
  3
Facepattern
350
39
  3
Flat
350
2B
  3
FlatWithEdges
350
2C
  3
Gouraud
350
2D
  3
GouraudWithEdges
350
2E
  3
Hidden
350
31
  3
JitterOff
350
3B
  3
Linepattern
350
38
  3
OverhangOff
350
3C
  3
Realistic
350
33
  3
Shaded
350
42
  3
Shaded with edges
350
41
  3
Shades of Gray
350
3E
  3
Sketchy
350
3F
  3
Thicken
350
37
  3
Wireframe
350
30
  3
X-Ray
350
40
  0
DICTIONARY
  5
23B
102
{ACAD_REACTORS
330
C
102
}
330
C
100
AcDbDictionary
281
     1
  3
CANNOSCALE
350
23C
  3
MSLTSCALE
350
23D
  0
LAYOUT
  5
1E
102
{ACAD_REACTORS
330
1A
102
}
330
1A
100
AcDbPlotSettings
  1

  2
none_device
  4

  6

 40
0.0
 41
0.0
 42
0.0
 43
0.0
 44
0.0
 45
0.0
 46
0.0
 47
0.0
 48
0.0
 49
0.0
140
0.0
141
0.0
142
1.0
143
1.0
 70
   688
 72
     0
 73
     0
 74
     5
  7

 75
    16
 76
     0
 77
     2
 78
   300
147
1.0
148
0.0
149
0.0
100
AcDbLayout
  1
Layout1
 70
     1
 71
     1
 10
0.0
 20
0.0
 11
12.0
 21
9.0
 12
0.0
 22
0.0
 32
0.0
 14
1.000000000000000E+20
 24
1.000000000000000E+20
 34
1.000000000000000E+20
 15
-1.000000000000000E+20
 25
-1.000000000000000E+20
 35
-1.000000000000000E+20
146
0.0
 13
0.0
 23
0.0
 33
0.0
 16
1.0
 26
0.0
 36
0.0
 17
0.0
 27
1.0
 37
0.0
 76
     0
330
1B
  0
LAYOUT
  5
26
102
{ACAD_REACTORS
330
1A
102
}
330
1A
100
AcDbPlotSettings
  1

  2
none_device
  4

  6

 40
0.0
 41
0.0
 42
0.0
 43
0.0
 44
0.0
 45
0.0
 46
0.0
 47
0.0
 48
0.0
 49
0.0
140
0.0
141
0.0
142
1.0
143
1.0
 70
   688
 72
     0
 73
     0
 74
     5
  7

 75
    16
 76
     0
 77
     2
 78
   300
147
1.0
148
0.0
149
0.0
100
AcDbLayout
  1
Layout2
 70
     1
 71
     2
 10
0.0
 20
0.0
 11
0.0
 21
0.0
 12
0.0
 22
0.0
 32
0.0
 14
0.0
 24
0.0
 34
0.0
 15
0.0
 25
0.0
 35
0.0
146
0.0
 13
0.0
 23
0.0
 33
0.0
 16
1.0
 26
0.0
 36
0.0
 17
0.0
 27
1.0
 37
0.0
 76
     0
330
23
  0
LAYOUT
  5
22
102
{ACAD_REACTORS
330
1A
102
}
330
1A
100
AcDbPlotSettings
  1

  2
none_device
  4
Letter_(8.50_x_11.00_Inches)
  6

 40
6.35
 41
6.35
 42
6.35000508
 43
6.35000508
 44
215.9
 45
279.4
 46
0.0
 47
0.0
 48
0.0
 49
0.0
140
0.0
141
0.0
142
1.0
143
1.0
 70
  1712
 72
     0
 73
     0
 74
     0
  7

 75
     0
 76
     0
 77
     2
 78
   300
147
1.0
148
0.0
149
0.0
100
AcDbLayout
  1
Model
 70
     1
 71
     0
 10
0.0
 20
0.0
 11
12.0
 21
9.0
 12
0.0
 22
0.0
 32
0.0
 14
-848.3124296775775
 24
90.42010254522022
 34
0.0
 15
1590.087570322422
 25
1309.620102545221
 35
0.0
146
0.0
 13
0.0
 23
0.0
 33
0.0
 16
1.0
 26
0.0
 36
0.0
 17
0.0
 27
1.0
 37
0.0
 76
     0
330
1F
331
29
  0
MATERIAL
  5
45
102
{ACAD_REACTORS
330
43
102
}
102
{ACAD_XDICTIONARY
360
270
102
}
330
43
100
AcDbMaterial
  1
ByBlock
  0
MATERIAL
  5
44
102
{ACAD_REACTORS
330
43
102
}
102
{ACAD_XDICTIONARY
360
26E
102
}
330
43
100
AcDbMaterial
  1
ByLayer
  0
MATERIAL
  5
46
102
{ACAD_REACTORS
330
43
102
}
102
{ACAD_XDICTIONARY
360
272
102
}
330
43
100
AcDbMaterial
  1
Global
  0
MLINESTYLE
  5
18
102
{ACAD_REACTORS
330
17
102
}
330
17
100
AcDbMlineStyle
  2
Standard
 70
     0
  3

 62
   256
 51
90.0
 52
90.0
 71
     2
 49
0.5
 62
   256
  6
BYLAYER
 49
-0.5
 62
   256
  6
BYLAYER
  0
ACDBPLACEHOLDER
  5
F
102
{ACAD_REACTORS
330
E
102
}
330
E
  0
SCALE
  5
48
102
{ACAD_REACTORS
330
47
102
}
330
47
100
AcDbScale
 70
     0
300
1:1
140
1.0
141
1.0
290
     1
  0
SCALE
  5
49
102
{ACAD_REACTORS
330
47
102
}
330
47
100
AcDbScale
 70
     0
300
1:2
140
1.0
141
2.0
290
     0
  0
SCALE
  5
4A
102
{ACAD_REACTORS
330
47
102
}
330
47
100
AcDbScale
 70
     0
300
1:4
140
1.0
141
4.0
290
     0
  0
SCALE
  5
4B
102
{ACAD_REACTORS
330
47
102
}
330
47
100
AcDbScale
 70
     0
300
1:5
140
1.0
141
5.0
290
     0
  0
SCALE
  5
4C
102
{ACAD_REACTORS
330
47
102
}
330
47
100
AcDbScale
 70
     0
300
1:8
140
1.0
141
8.0
290
     0
  0
SCALE
  5
4D
102
{ACAD_REACTORS
330
47
102
}
330
47
100
AcDbScale
 70
     0
300
1:10
140
1.0
141
10.0
290
     0
  0
SCALE
  5
4E
102
{ACAD_REACTORS
330
47
102
}
330
47
100
AcDbScale
 70
     0
300
1:16
140
1.0
141
16.0
290
     0
  0
SCALE
  5
4F
102
{ACAD_REACTORS
330
47
102
}
330
47
100
AcDbScale
 70
     0
300
1:20
140
1.0
141
20.0
290
     0
  0
SCALE
  5
50
102
{ACAD_REACTORS
330
47
102
}
330
47
100
AcDbScale
 70
     0
300
1:30
140
1.0
141
30.0
290
     0
  0
SCALE
  5
51
102
{ACAD_REACTORS
330
47
102
}
330
47
100
AcDbScale
 70
     0
300
1:40
140
1.0
141
40.0
290
     0
  0
SCALE
  5
52
102
{ACAD_REACTORS
330
47
102
}
330
47
100
AcDbScale
 70
     0
300
1:50
140
1.0
141
50.0
290
     0
  0
SCALE
  5
53
102
{ACAD_REACTORS
330
47
102
}
330
47
100
AcDbScale
 70
     0
300
1:100
140
1.0
141
100.0
290
     0
  0
SCALE
  5
54
102
{ACAD_REACTORS
330
47
102
}
330
47
100
AcDbScale
 70
     0
300
2:1
140
2.0
141
1.0
290
     0
  0
SCALE
  5
55
102
{ACAD_REACTORS
330
47
102
}
330
47
100
AcDbScale
 70
     0
300
4:1
140
4.0
141
1.0
290
     0
  0
SCALE
  5
56
102
{ACAD_REACTORS
330
47
102
}
330
47
100
AcDbScale
 70
     0
300
8:1
140
8.0
141
1.0
290
     0
  0
SCALE
  5
57
102
{ACAD_REACTORS
330
47
102
}
330
47
100
AcDbScale
 70
     0
300
10:1
140
10.0
141
1.0
290
     0
  0
SCALE
  5
58
102
{ACAD_REACTORS
330
47
102
}
330
47
100
AcDbScale
 70
     0
300
100:1
140
100.0
141
1.0
290
     0
  0
SCALE
  5
59
102
{ACAD_REACTORS
330
47
102
}
330
47
100
AcDbScale
 70
     0
300
1/128" = 1'-0"
140
0.0078125
141
12.0
290
     0
  0
SCALE
  5
5A
102
{ACAD_REACTORS
330
47
102
}
330
47
100
AcDbScale
 70
     0
300
1/64" = 1'-0"
140
0.015625
141
12.0
290
     0
  0
SCALE
  5
5B
102
{ACAD_REACTORS
330
47
102
}
330
47
100
AcDbScale
 70
     0
300
1/32" = 1'-0"
140
0.03125
141
12.0
290
     0
  0
SCALE
  5
5C
102
{ACAD_REACTORS
330
47
102
}
330
47
100
AcDbScale
 70
     0
300
1/16" = 1'-0"
140
0.0625
141
12.0
290
     0
  0
SCALE
  5
5D
102
{ACAD_REACTORS
330
47
102
}
330
47
100
AcDbScale
 70
     0
300
3/32" = 1'-0"
140
0.09375
141
12.0
290
     0
  0
SCALE
  5
5E
102
{ACAD_REACTORS
330
47
102
}
330
47
100
AcDbScale
 70
     0
300
1/8" = 1'-0"
140
0.125
141
12.0
290
     0
  0
SCALE
  5
5F
102
{ACAD_REACTORS
330
47
102
}
330
47
100
AcDbScale
 70
     0
300
3/16" = 1'-0"
140
0.1875
141
12.0
290
     0
  0
SCALE
  5
60
102
{ACAD_REACTORS
330
47
102
}
330
47
100
AcDbScale
 70
     0
300
1/4" = 1'-0"
140
0.25
141
12.0
290
     0
  0
SCALE
  5
61
102
{ACAD_REACTORS
330
47
102
}
330
47
100
AcDbScale
 70
     0
300
3/8" = 1'-0"
140
0.375
141
12.0
290
     0
  0
SCALE
  5
62
102
{ACAD_REACTORS
330
47
102
}
330
47
100
AcDbScale
 70
     0
300
1/2" = 1'-0"
140
0.5
141
12.0
290
     0
  0
SCALE
  5
63
102
{ACAD_REACTORS
330
47
102
}
330
47
100
AcDbScale
 70
     0
300
3/4" = 1'-0"
140
0.75
141
12.0
290
     0
  0
SCALE
  5
64
102
{ACAD_REACTORS
330
47
102
}
330
47
100
AcDbScale
 70
     0
300
1" = 1'-0"
140
1.0
141
12.0
290
     0
  0
SCALE
  5
65
102
{ACAD_REACTORS
330
47
102
}
330
47
100
AcDbScale
 70
     0
300
1-1/2" = 1'-0"
140
1.5
141
12.0
290
     0
  0
SCALE
  5
66
102
{ACAD_REACTORS
330
47
102
}
330
47
100
AcDbScale
 70
     0
300
3" = 1'-0"
140
3.0
141
12.0
290
     0
  0
SCALE
  5
67
102
{ACAD_REACTORS
330
47
102
}
330
47
100
AcDbScale
 70
     0
300
6" = 1'-0"
140
6.0
141
12.0
290
     0
  0
SCALE
  5
68
102
{ACAD_REACTORS
330
47
102
}
330
47
100
AcDbScale
 70
     0
300
1'-0" = 1'-0"
140
12.0
141
12.0
290
     0
  0
VISUALSTYLE
  5
2F
102
{ACAD_REACTORS
330
2A
102
}
102
{ACAD_XDICTIONARY
360
246
102
}
330
2A
100
AcDbVisualStyle
  2
2dWireframe
 70
     4
 71
     0
 72
     2
 73
     0
 90
        0
 40
0.6
 41
30.0
 62
     5
 63
     7
421
 16777215
 74
     1
 91
        4
 64
     7
 65
   257
 75
     1
175
     1
 42
1.0
 92
        0
 66
   257
 43
1.0
 76
     1
 77
     6
 78
     2
 67
     7
 79
     5
170
     0
171
     0
290
     0
174
     0
 93
        1
 44
0.0
173
     0
291
     0
 45
0.0
1001
ACAD
1000
AcDbSavedByObjectVersion
1070
     0
  0
VISUALSTYLE
  5
32
102
{ACAD_REACTORS
330
2A
102
}
102
{ACAD_XDICTIONARY
360
24C
102
}
330
2A
100
AcDbVisualStyle
  2
Basic
 70
     7
 71
     1
 72
     0
 73
     1
 90
        0
 40
0.6
 41
30.0
 62
     5
 63
     7
421
 16777215
 74
     0
 91
        4
 64
     7
 65
   257
 75
     1
175
     1
 42
1.0
 92
        8
 66
     7
 43
1.0
 76
     1
 77
     6
 78
     2
 67
     7
 79
     5
170
     0
171
     0
290
     0
174
     0
 93
        1
 44
0.0
173
     0
291
     1
 45
0.0
1001
ACAD
1000
AcDbSavedByObjectVersion
1070
     0
  0
VISUALSTYLE
  5
36
102
{ACAD_REACTORS
330
2A
102
}
102
{ACAD_XDICTIONARY
360
254
102
}
330
2A
100
AcDbVisualStyle
  2
Brighten
 70
    12
 71
     2
 72
     2
 73
     0
 90
        0
 40
0.6
 41
30.0
 62
     5
 63
     7
421
 16777215
 74
     1
 91
        4
 64
     7
 65
   257
 75
     1
175
     1
 42
1.0
 92
        8
 66
     7
 43
1.0
 76
     1
 77
     6
 78
     2
 67
     7
 79
     5
170
     0
171
     0
290
     0
174
     0
 93
        1
 44
50.0
173
     0
291
     1
 45
0.0
1001
ACAD
1000
AcDbSavedByObjectVersion
1070
     0
  0
VISUALSTYLE
  5
3A
102
{ACAD_REACTORS
330
2A
102
}
102
{ACAD_XDICTIONARY
360
25C
102
}
330
2A
100
AcDbVisualStyle
  2
ColorChange
 70
    16
 71
     2
 72
     2
 73
     3
 90
        0
 40
0.6
 41
30.0
 62
     5
 63
     8
421
  8421504
 74
     1
 91
        4
 64
     7
 65
   257
 75
     1
175
     1
 42
1.0
 92
        8
 66
     8
424
  8421504
 43
1.0
 76
     1
 77
     6
 78
     2
 67
     7
 79
     5
170
     0
171
     0
290
     0
174
     0
 93
        1
 44
0.0
173
     0
291
     1
 45
0.0
1001
ACAD
1000
AcDbSavedByObjectVersion
1070
     0
  0
VISUALSTYLE
  5
34
102
{ACAD_REACTORS
330
2A
102
}
102
{ACAD_XDICTIONARY
360
250
102
}
330
2A
100
AcDbVisualStyle
  2
Conceptual
 70
     9
 71
     3
 72
     2
 73
     0
 90
        0
 40
0.6
 41
30.0
 62
     5
 63
     7
421
 16777215
 74
     2
 91
        2
 64
     7
 65
   257
 75
     1
175
     1
 42
179.0
 92
        8
 66
     7
 43
1.0
 76
     1
 77
     6
 78
     2
 67
     7
 79
     3
170
     0
171
     0
290
     0
174
     0
 93
        1
 44
0.0
173
     0
291
     0
 45
0.0
1001
ACAD
1000
AcDbSavedByObjectVersion
1070
     0
  0
VISUALSTYLE
  5
35
102
{ACAD_REACTORS
330
2A
102
}
102
{ACAD_XDICTIONARY
360
252
102
}
330
2A
100
AcDbVisualStyle
  2
Dim
 70
    11
 71
     2
 72
     2
 73
     0
 90
        0
 40
0.6
 41
30.0
 62
     5
 63
     7
421
 16777215
 74
     1
 91
        4
 64
     7
 65
   257
 75
     1
175
     1
 42
1.0
 92
        8
 66
     7
 43
1.0
 76
     1
 77
     6
 78
     2
 67
     7
 79
     5
170
     0
171
     0
290
     0
174
     0
 93
        1
 44
-50.0
173
     0
291
     1
 45
0.0
1001
ACAD
1000
AcDbSavedByObjectVersion
1070
     0
  0
VISUALSTYLE
  5
3D
102
{ACAD_REACTORS
330
2A
102
}
102
{ACAD_XDICTIONARY
360
262
102
}
330
2A
100
AcDbVisualStyle
  2
EdgeColorOff
 70
    22
 71
     2
 72
     2
 73
     0
 90
        0
 40
0.6
 41
30.0
 62
     5
 63
     7
421
 16777215
 74
     1
 91
        4
 64
     7
 65
   257
 75
     1
175
     1
 42
1.0
 92
        8
 66
     7
 43
1.0
 76
     1
 77
     6
 78
     2
 67
     7
 79
     5
170
     0
171
     0
290
     0
174
     0
 93
        1
 44
0.0
173
     0
291
     1
 45
0.0
1001
ACAD
1000
AcDbSavedByObjectVersion
1070
     0
  0
VISUALSTYLE
  5
39
102
{ACAD_REACTORS
330
2A
102
}
102
{ACAD_XDICTIONARY
360
25A
102
}
330
2A
100
AcDbVisualStyle
  2
Facepattern
 70
    15
 71
     2
 72
     2
 73
     0
 90
        0
 40
0.6
 41
30.0
 62
     5
 63
     7
421
 16777215
 74
     1
 91
        4
 64
     7
 65
   257
 75
     1
175
     1
 42
1.0
 92
        8
 66
     7
 43
1.0
 76
     1
 77
     6
 78
     2
 67
     7
 79
     5
170
     0
171
     0
290
     0
174
     0
 93
        1
 44
0.0
173
     0
291
     1
 45
0.0
1001
ACAD
1000
AcDbSavedByObjectVersion
1070
     0
  0
VISUALSTYLE
  5
2B
102
{ACAD_REACTORS
330
2A
102
}
102
{ACAD_XDICTIONARY
360
23E
102
}
330
2A
100
AcDbVisualStyle
  2
Flat
 70
     0
 71
     2
 72
     1
 73
     1
 90
        2
 40
0.6
 41
30.0
 62
     5
 63
     7
421
 16777215
 74
     0
 91
        0
 64
     7
 65
   257
 75
     1
175
     1
 42
1.0
 92
        8
 66
     7
 43
1.0
 76
     1
 77
     6
 78
     2
 67
     7
 79
     5
170
     0
171
     0
290
     0
174
     0
 93
       13
 44
0.0
173
     0
291
     1
 45
0.0
1001
ACAD
1000
AcDbSavedByObjectVersion
1070
     0
  0
VISUALSTYLE
  5
2C
102
{ACAD_REACTORS
330
2A
102
}
102
{ACAD_XDICTIONARY
360
240
102
}
330
2A
100
AcDbVisualStyle
  2
FlatWithEdges
 70
     1
 71
     2
 72
     1
 73
     1
 90
        2
 40
0.6
 41
30.0
 62
     5
 63
     7
421
 16777215
 74
     1
 91
        0
 64
     7
 65
   257
 75
     1
175
     1
 42
1.0
 92
        0
 66
   257
 43
1.0
 76
     1
 77
     6
 78
     2
 67
     7
 79
     5
170
     0
171
     0
290
     0
174
     0
 93
       13
 44
0.0
173
     0
291
     1
 45
0.0
1001
ACAD
1000
AcDbSavedByObjectVersion
1070
     0
  0
VISUALSTYLE
  5
2D
102
{ACAD_REACTORS
330
2A
102
}
102
{ACAD_XDICTIONARY
360
242
102
}
330
2A
100
AcDbVisualStyle
  2
Gouraud
 70
     2
 71
     2
 72
     2
 73
     1
 90
        2
 40
0.6
 41
30.0
 62
     5
 63
     7
421
 16777215
 74
     0
 91
        0
 64
     7
 65
   257
 75
     1
175
     1
 42
1.0
 92
        0
 66
     7
 43
1.0
 76
     1
 77
     6
 78
     2
 67
     7
 79
     5
170
     0
171
     0
290
     0
174
     0
 93
       13
 44
0.0
173
     0
291
     1
 45
0.0
1001
ACAD
1000
AcDbSavedByObjectVersion
1070
     0
  0
VISUALSTYLE
  5
2E
102
{ACAD_REACTORS
330
2A
102
}
102
{ACAD_XDICTIONARY
360
244
102
}
330
2A
100
AcDbVisualStyle
  2
GouraudWithEdges
 70
     3
 71
     2
 72
     2
 73
     1
 90
        2
 40
0.6
 41
30.0
 62
     5
 63
     7
421
 16777215
 74
     1
 91
        0
 64
     7
 65
   257
 75
     1
175
     1
 42
1.0
 92
        0
 66
   257
 43
1.0
 76
     1
 77
     6
 78
     2
 67
     7
 79
     5
170
     0
171
     0
290
     0
174
     0
 93
       13
 44
0.0
173
     0
291
     1
 45
0.0
1001
ACAD
1000
AcDbSavedByObjectVersion
1070
     0
  0
VISUALSTYLE
  5
31
102
{ACAD_REACTORS
330
2A
102
}
102
{ACAD_XDICTIONARY
360
24A
102
}
330
2A
100
AcDbVisualStyle
  2
Hidden
 70
     6
 71
     1
 72
     2
 73
     2
 90
        0
 40
0.6
 41
30.0
 62
     5
 63
     7
421
 16777215
 74
     2
 91
        2
 64
     7
 65
   257
 75
     2
175
     1
 42
40.0
 92
        0
 66
   257
 43
1.0
 76
     1
 77
     6
 78
     2
 67
     7
 79
     3
170
     0
171
     0
290
     0
174
     0
 93
        1
 44
0.0
173
     0
291
     0
 45
0.0
1001
ACAD
1000
AcDbSavedByObjectVersion
1070
     0
  0
VISUALSTYLE
  5
3B
102
{ACAD_REACTORS
330
2A
102
}
102
{ACAD_XDICTIONARY
360
25E
102
}
330
2A
100
AcDbVisualStyle
  2
JitterOff
 70
    20
 71
     2
 72
     2
 73
     0
 90
        0
 40
0.6
 41
30.0
 62
     5
 63
     7
421
 16777215
 74
     1
 91
        4
 64
     7
 65
   257
 75
     1
175
     1
 42
1.0
 92
       10
 66
     7
 43
1.0
 76
     1
 77
     6
 78
     2
 67
     7
 79
     5
170
     0
171
     0
290
     0
174
     0
 93
        1
 44
0.0
173
     0
291
     1
 45
0.0
1001
ACAD
1000
AcDbSavedByObjectVersion
1070
     0
  0
VISUALSTYLE
  5
38
102
{ACAD_REACTORS
330
2A
102
}
102
{ACAD_XDICTIONARY
360
258
102
}
330
2A
100
AcDbVisualStyle
  2
Linepattern
 70
    14
 71
     2
 72
     2
 73
     0
 90
        0
 40
0.6
 41
30.0
 62
     5
 63
     7
421
 16777215
 74
     1
 91
        4
 64
     7
 65
   257
 75
     7
175
     7
 42
1.0
 92
        8
 66
     7
 43
1.0
 76
     1
 77
     6
 78
     2
 67
     7
 79
     5
170
     0
171
     0
290
     0
174
     0
 93
        1
 44
0.0
173
     0
291
     1
 45
0.0
1001
ACAD
1000
AcDbSavedByObjectVersion
1070
     0
  0
VISUALSTYLE
  5
3C
102
{ACAD_REACTORS
330
2A
102
}
102
{ACAD_XDICTIONARY
360
260
102
}
330
2A
100
AcDbVisualStyle
  2
OverhangOff
 70
    21
 71
     2
 72
     2
 73
     0
 90
        0
 40
0.6
 41
30.0
 62
     5
 63
     7
421
 16777215
 74
     1
 91
        4
 64
     7
 65
   257
 75
     1
175
     1
 42
1.0
 92
        9
 66
     7
 43
1.0
 76
     1
 77
     6
 78
     2
 67
     7
 79
     5
170
     0
171
     0
290
     0
174
     0
 93
        1
 44
0.0
173
     0
291
     1
 45
0.0
1001
ACAD
1000
AcDbSavedByObjectVersion
1070
     0
  0
VISUALSTYLE
  5
33
102
{ACAD_REACTORS
330
2A
102
}
102
{ACAD_XDICTIONARY
360
24E
102
}
330
2A
100
AcDbVisualStyle
  2
Realistic
 70
     8
 71
     2
 72
     3
 73
     0
 90
        2
 40
0.6
 41
30.0
 62
     5
 63
     7
421
 16777215
 74
     0
 91
        0
 64
     7
 65
   257
 75
     1
175
     1
 42
1.0
 92
        8
 66
   257
 43
1.0
 76
     1
 77
     6
 78
     2
 67
     7
 79
     3
170
     0
171
     0
290
     0
174
     0
 93
       13
 44
0.0
173
     0
291
     0
 45
0.0
1001
ACAD
1000
AcDbSavedByObjectVersion
1070
     0
  0
VISUALSTYLE
  5
42
102
{ACAD_REACTORS
330
2A
102
}
102
{ACAD_XDICTIONARY
360
26C
102
}
330
2A
100
AcDbVisualStyle
  2
Shaded
 70
    27
 71
     2
 72
     2
 73
     1
 90
        2
 40
0.6
 41
30.0
 62
     5
 63
     7
421
 16777215
 74
     0
 91
        4
 64
     7
 65
   257
 75
     1
175
     1
 42
1.0
 92
        8
 66
   257
 43
1.0
 76
     1
 77
     6
 78
     2
 67
     8
425
  7895160
 79
     3
170
     0
171
     0
290
     0
174
     0
 93
        5
 44
0.0
173
     0
291
     0
 45
0.0
1001
ACAD
1000
AcDbSavedByObjectVersion
1070
     0
  0
VISUALSTYLE
  5
41
102
{ACAD_REACTORS
330
2A
102
}
102
{ACAD_XDICTIONARY
360
26A
102
}
330
2A
100
AcDbVisualStyle
  2
Shaded with edges
 70
    26
 71
     2
 72
     2
 73
     1
 90
        2
 40
0.6
 41
30.0
 62
     5
 63
     7
421
 16777215
 74
     1
 91
       10
 64
     7
 65
   257
 75
     2
175
     1
 42
1.0
 92
        8
 66
   257
 43
1.0
 76
     1
 77
     6
 78
     2
 67
     7
 79
     3
170
     0
171
     0
290
     0
174
     0
 93
        5
 44
0.0
173
     0
291
     0
 45
0.0
1001
ACAD
1000
AcDbSavedByObjectVersion
1070
     0
  0
VISUALSTYLE
  5
3E
102
{ACAD_REACTORS
330
2A
102
}
102
{ACAD_XDICTIONARY
360
264
102
}
330
2A
100
AcDbVisualStyle
  2
Shades of Gray
 70
    23
 71
     2
 72
     2
 73
     3
 90
        0
 40
0.6
 41
30.0
 62
     5
 63
     7
421
 16777215
 74
     2
 91
        2
 64
     7
 65
     7
 75
     1
175
     1
 42
40.0
 92
        8
 66
     7
 43
1.0
 76
     1
 77
     6
 78
     2
 67
     7
 79
     3
170
     0
171
     0
290
     0
174
     0
 93
        1
 44
0.0
173
     0
291
     0
 45
0.0
1001
ACAD
1000
AcDbSavedByObjectVersion
1070
     0
  0
VISUALSTYLE
  5
3F
102
{ACAD_REACTORS
330
2A
102
}
102
{ACAD_XDICTIONARY
360
266
102
}
330
2A
100
AcDbVisualStyle
  2
Sketchy
 70
    24
 71
     1
 72
     2
 73
     2
 90
        0
 40
0.6
 41
30.0
 62
     5
 63
     7
421
 16777215
 74
     2
 91
        2
 64
     7
 65
     7
 75
     1
175
     1
 42
40.0
 92
       11
 66
     7
 43
1.0
 76
     1
 77
     6
 78
     2
 67
     7
 79
     6
170
     0
171
     0
290
     0
174
     0
 93
        1
 44
0.0
173
     0
291
     0
 45
0.0
1001
ACAD
1000
AcDbSavedByObjectVersion
1070
     0
  0
VISUALSTYLE
  5
37
102
{ACAD_REACTORS
330
2A
102
}
102
{ACAD_XDICTIONARY
360
256
102
}
330
2A
100
AcDbVisualStyle
  2
Thicken
 70
    13
 71
     2
 72
     2
 73
     0
 90
        0
 40
0.6
 41
30.0
 62
     5
 63
     7
421
 16777215
 74
     1
 91
        4
 64
     7
 65
   257
 75
     1
175
     1
 42
1.0
 92
       12
 66
     7
 43
1.0
 76
     1
 77
     6
 78
     2
 67
     7
 79
     5
170
     0
171
     0
290
     0
174
     0
 93
        1
 44
0.0
173
     0
291
     1
 45
0.0
1001
ACAD
1000
AcDbSavedByObjectVersion
1070
     0
  0
VISUALSTYLE
  5
30
102
{ACAD_REACTORS
330
2A
102
}
102
{ACAD_XDICTIONARY
360
248
102
}
330
2A
100
AcDbVisualStyle
  2
Wireframe
 70
     5
 71
     0
 72
     2
 73
     0
 90
        0
 40
0.6
 41
30.0
 62
     5
 63
     7
421
 16777215
 74
     1
 91
        4
 64
     7
 65
   257
 75
     1
175
     1
 42
1.0
 92
        0
 66
   257
 43
1.0
 76
     1
 77
     6
 78
     2
 67
     7
 79
     3
170
     0
171
     0
290
     0
174
     0
 93
        1
 44
0.0
173
     0
291
     0
 45
0.0
1001
ACAD
1000
AcDbSavedByObjectVersion
1070
     0
  0
VISUALSTYLE
  5
40
102
{ACAD_REACTORS
330
2A
102
}
102
{ACAD_XDICTIONARY
360
268
102
}
330
2A
100
AcDbVisualStyle
  2
X-Ray
 70
    25
 71
     2
 72
     2
 73
     1
 90
        1
 40
0.5
 41
30.0
 62
     5
 63
     7
421
 16777215
 74
     1
 91
        0
 64
     7
 65
   257
 75
     1
175
     1
 42
1.0
 92
        8
 66
     7
 43
1.0
 76
     1
 77
     6
 78
     2
 67
     7
 79
     3
170
     0
171
     0
290
     0
174
     0
 93
       13
 44
0.0
173
     0
291
     0
 45
0.0
1001
ACAD
1000
AcDbSavedByObjectVersion
1070
     0
  0
DICTIONARYVAR
  5
23C
102
{ACAD_REACTORS
330
23B
102
}
330
23B
100
DictionaryVariables
280
     0
  1
1:1
  0
DICTIONARYVAR
  5
23D
102
{ACAD_REACTORS
330
23B
102
}
330
23B
100
DictionaryVariables
280
     0
  1
1
  0
DICTIONARY
  5
270
330
45
100
AcDbDictionary
280
     1
281
     1
  3
ACAD_XREC_ROUNDTRIP
360
271
  0
DICTIONARY
  5
26E
330
44
100
AcDbDictionary
280
     1
281
     1
  3
ACAD_XREC_ROUNDTRIP
360
26F
  0
DICTIONARY
  5
272
330
46
100
AcDbDictionary
280
     1
281
     1
  3
ACAD_XREC_ROUNDTRIP
360
273
  0
DICTIONARY
  5
246
330
2F
100
AcDbDictionary
280
     1
281
     1
  3
ACAD_XREC_ROUNDTRIP
360
247
  0
DICTIONARY
  5
24C
330
32
100
AcDbDictionary
280
     1
281
     1
  3
ACAD_XREC_ROUNDTRIP
360
24D
  0
DICTIONARY
  5
254
330
36
100
AcDbDictionary
280
     1
281
     1
  3
ACAD_XREC_ROUNDTRIP
360
255
  0
DICTIONARY
  5
25C
330
3A
100
AcDbDictionary
280
     1
281
     1
  3
ACAD_XREC_ROUNDTRIP
360
25D
  0
DICTIONARY
  5
250
330
34
100
AcDbDictionary
280
     1
281
     1
  3
ACAD_XREC_ROUNDTRIP
360
251
  0
DICTIONARY
  5
252
330
35
100
AcDbDictionary
280
     1
281
     1
  3
ACAD_XREC_ROUNDTRIP
360
253
  0
DICTIONARY
  5
262
330
3D
100
AcDbDictionary
280
     1
281
     1
  3
ACAD_XREC_ROUNDTRIP
360
263
  0
DICTIONARY
  5
25A
330
39
100
AcDbDictionary
280
     1
281
     1
  3
ACAD_XREC_ROUNDTRIP
360
25B
  0
DICTIONARY
  5
23E
330
2B
100
AcDbDictionary
280
     1
281
     1
  3
ACAD_XREC_ROUNDTRIP
360
23F
  0
DICTIONARY
  5
240
330
2C
100
AcDbDictionary
280
     1
281
     1
  3
ACAD_XREC_ROUNDTRIP
360
241
  0
DICTIONARY
  5
242
330
2D
100
AcDbDictionary
280
     1
281
     1
  3
ACAD_XREC_ROUNDTRIP
360
243
  0
DICTIONARY
  5
244
330
2E
100
AcDbDictionary
280
     1
281
     1
  3
ACAD_XREC_ROUNDTRIP
360
245
  0
DICTIONARY
  5
24A
330
31
100
AcDbDictionary
280
     1
281
     1
  3
ACAD_XREC_ROUNDTRIP
360
24B
  0
DICTIONARY
  5
25E
330
3B
100
AcDbDictionary
280
     1
281
     1
  3
ACAD_XREC_ROUNDTRIP
360
25F
  0
DICTIONARY
  5
258
330
38
100
AcDbDictionary
280
     1
281
     1
  3
ACAD_XREC_ROUNDTRIP
360
259
  0
DICTIONARY
  5
260
330
3C
100
AcDbDictionary
280
     1
281
     1
  3
ACAD_XREC_ROUNDTRIP
360
261
  0
DICTIONARY
  5
24E
330
33
100
AcDbDictionary
280
     1
281
     1
  3
ACAD_XREC_ROUNDTRIP
360
24F
  0
DICTIONARY
  5
26C
330
42
100
AcDbDictionary
280
     1
281
     1
  3
ACAD_XREC_ROUNDTRIP
360
26D
  0
DICTIONARY
  5
26A
330
41
100
AcDbDictionary
280
     1
281
     1
  3
ACAD_XREC_ROUNDTRIP
360
26B
  0
DICTIONARY
  5
264
330
3E
100
AcDbDictionary
280
     1
281
     1
  3
ACAD_XREC_ROUNDTRIP
360
265
  0
DICTIONARY
  5
266
330
3F
100
AcDbDictionary
280
     1
281
     1
  3
ACAD_XREC_ROUNDTRIP
360
267
  0
DICTIONARY
  5
256
330
37
100
AcDbDictionary
280
     1
281
     1
  3
ACAD_XREC_ROUNDTRIP
360
257
  0
DICTIONARY
  5
248
330
30
100
AcDbDictionary
280
     1
281
     1
  3
ACAD_XREC_ROUNDTRIP
360
249
  0
DICTIONARY
  5
268
330
40
100
AcDbDictionary
280
     1
281
     1
  3
ACAD_XREC_ROUNDTRIP
360
269
  0
XRECORD
  5
271
102
{ACAD_REACTORS
330
270
102
}
330
270
100
AcDbXrecord
280
     1
102
MATERIAL
148
0.0
149
0.0
149
0.0
 93
        0
 94
      127
282
     0
 72
     1
 77
     1
171
     1
175
     1
179
     1
273
     0
  0
XRECORD
  5
26F
102
{ACAD_REACTORS
330
26E
102
}
330
26E
100
AcDbXrecord
280
     1
102
MATERIAL
148
0.0
149
0.0
149
0.0
 93
        0
 94
      127
282
     0
 72
     1
 77
     1
171
     1
175
     1
179
     1
273
     0
  0
XRECORD
  5
273
102
{ACAD_REACTORS
330
272
102
}
330
272
100
AcDbXrecord
280
     1
102
MATERIAL
148
0.0
149
0.0
149
0.0
 93
        0
 94
      127
282
     0
 72
     1
 77
     1
171
     1
175
     1
179
     1
273
     0
  0
XRECORD
  5
247
102
{ACAD_REACTORS
330
246
102
}
330
246
100
AcDbXrecord
280
     1
102
RTVSPropertyOp0
 70
     1
102
RTVSPropertyOp1
 70
     1
102
RTVSPropertyOp2
 70
     1
102
RTVSPropertyOp3
 70
     1
102
RTVSPropertyOp4
 70
     1
102
RTVSPropertyOp5
 70
     1
102
RTVSPropertyOp6
 70
     1
102
RTVSPropertyOp7
 70
     1
102
RTVSPropertyOp8
 70
     1
102
RTVSPropertyOp9
 70
     1
102
RTVSPropertyOp10
 70
     1
102
RTVSPropertyOp11
 70
     1
102
RTVSPropertyOp12
 70
     1
102
RTVSPropertyOp13
 70
     1
102
RTVSPropertyOp14
 70
     1
102
RTVSPropertyOp15
 70
     1
102
RTVSPropertyOp16
 70
     1
102
RTVSPropertyOp17
 70
     1
102
RTVSPropertyOp18
 70
     1
102
RTVSPropertyOp19
 70
     1
102
RTVSPropertyOp20
 70
     1
102
RTVSPropertyOp21
 70
     1
102
RTVSPropertyOp22
 70
     1
102
RTVSPropertyOp23
 70
     1
102
RTVSPropertyOp24
 70
     1
102
RTVSPropertyOp25
 70
     1
102
RTVSPropertyOp26
 70
     1
102
RTVSPropertyOp27
 70
     1
102
RTVSPropertyOp28
 70
     1
102
RTVSPropertyOp29
 70
     1
102
RTVSPropertyOp30
 70
     1
102
RTVSPropertyOp31
 70
     1
102
RTVSPropertyOp32
 70
     1
102
RTVSPropertyOp33
 70
     1
102
RTVSPropertyOp34
 70
     1
102
RTVSPropertyOp35
 70
     1
102
RTVSPropertyOp36
 70
     1
102
RTVSPropertyOp37
 70
     1
102
RTVSPropertyOp38
 70
     1
102
RTVSPropertyOp39
 70
     1
102
RTVSPropertyOp40
 70
     1
102
RTVSPropertyOp41
 70
     1
102
RTVSPropertyOp42
 70
     1
102
RTVSPropertyOp43
 70
     1
102
RTVSPropertyOp44
 70
     1
102
RTVSPropertyOp45
 70
     1
102
RTVSPropertyOp46
 70
     1
102
RTVSPropertyOp47
 70
     1
102
RTVSPropertyOp48
 70
     1
102
RTVSPropertyOp49
 70
     1
102
RTVSPropertyOp50
 70
     1
102
RTVSPropertyOp51
 70
     0
102
RTVSPropertyOp52
 70
     0
102
RTVSPropertyOp53
 70
     1
102
RTVSPropertyOp54
 70
     1
102
RTVSPropertyOp55
 70
     1
102
RTVSPropertyOp56
 70
     1
102
RTVSPropertyOp57
 70
     1
102
RTVSPost2010Prop28
280
     1
102
RTVSPost2010PropOp28
 70
     1
102
RTVSPost2010Prop29
280
     1
102
RTVSPost2010PropOp29
 70
     1
102
RTVSPost2010Prop30
280
     0
102
RTVSPost2010PropOp30
 70
     1
102
RTVSPost2010Prop31
280
     0
102
RTVSPost2010PropOp31
 70
     1
102
RTVSPost2010Prop32
280
     0
102
RTVSPost2010PropOp32
 70
     1
102
RTVSPost2010Prop33
280
     0
102
RTVSPost2010PropOp33
 70
     1
102
RTVSPost2010Prop34
280
     0
102
RTVSPost2010PropOp34
 70
     1
102
RTVSPost2010Prop35
280
     0
102
RTVSPost2010PropOp35
 70
     1
102
RTVSPost2010Prop36
280
     0
102
RTVSPost2010PropOp36
 70
     1
102
RTVSPost2010Prop37
 90
       50
102
RTVSPost2010PropOp37
 70
     1
102
RTVSPost2010Prop38
140
0.0
102
RTVSPost2010PropOp38
 70
     1
102
RTVSPost2010Prop39
140
1.0
102
RTVSPost2010PropOp39
 70
     1
102
RTVSPost2010Prop40
 90
        0
102
RTVSPost2010PropOp40
 70
     1
102
RTVSPost2010Prop41ColorIndex
 90
       18
102
RTVSPost2010Prop41ColorRGB
 90
        0
102
RTVSPost2010PropOp41
 70
     1
102
RTVSPost2010Prop42
 90
       50
102
RTVSPost2010PropOp42
 70
     1
102
RTVSPost2010Prop43
 90
        3
102
RTVSPost2010PropOp43
 70
     1
102
RTVSPost2010Prop44ColorIndex
 90
        5
102
RTVSPost2010Prop44ColorRGB
 90
      255
102
RTVSPost2010PropOp44
 70
     1
102
RTVSPost2010Prop45
280
     0
102
RTVSPost2010PropOp45
 70
     1
102
RTVSPost2010Prop46
 90
       50
102
RTVSPost2010PropOp46
 70
     1
102
RTVSPost2010Prop47
 90
       50
102
RTVSPost2010PropOp47
 70
     1
102
RTVSPost2010Prop48
 90
       50
102
RTVSPost2010PropOp48
 70
     1
102
RTVSPost2010Prop49
280
     0
102
RTVSPost2010PropOp49
 70
     1
102
RTVSPost2010Prop50
 90
       50
102
RTVSPost2010PropOp50
 70
     1
102
RTVSPost2010Prop51ColorIndex
 90
      256
102
RTVSPost2010Prop51ColorRGB
 90
-16777216
102
RTVSPost2010PropOp51
 70
     0
102
RTVSPost2010Prop52
140
1.0
102
RTVSPost2010PropOp52
 70
     0
102
RTVSPost2010Prop53
 90
        2
102
RTVSPost2010PropOp53
 70
     1
102
RTVSPost2010Prop54
  1
strokes_ogs.tif
102
RTVSPost2010PropOp54
 70
     1
102
RTVSPost2010Prop55
280
     0
102
RTVSPost2010PropOp55
 70
     1
102
RTVSPost2010Prop56
140
1.0
102
RTVSPost2010PropOp56
 70
     1
102
RTVSPost2010Prop57
140
1.0
102
RTVSPost2010PropOp57
 70
     1
  0
XRECORD
  5
24D
102
{ACAD_REACTORS
330
24C
102
}
330
24C
100
AcDbXrecord
280
     1
102
RTVSPropertyOp0
 70
     1
102
RTVSPropertyOp1
 70
     1
102
RTVSPropertyOp2
 70
     1
102
RTVSPropertyOp3
 70
     1
102
RTVSPropertyOp4
 70
     1
102
RTVSPropertyOp5
 70
     1
102
RTVSPropertyOp6
 70
     1
102
RTVSPropertyOp7
 70
     1
102
RTVSPropertyOp8
 70
     1
102
RTVSPropertyOp9
 70
     1
102
RTVSPropertyOp10
 70
     1
102
RTVSPropertyOp11
 70
     1
102
RTVSPropertyOp12
 70
     1
102
RTVSPropertyOp13
 70
     1
102
RTVSPropertyOp14
 70
     1
102
RTVSPropertyOp15
 70
     1
102
RTVSPropertyOp16
 70
     1
102
RTVSPropertyOp17
 70
     1
102
RTVSPropertyOp18
 70
     1
102
RTVSPropertyOp19
 70
     1
102
RTVSPropertyOp20
 70
     1
102
RTVSPropertyOp21
 70
     1
102
RTVSPropertyOp22
 70
     1
102
RTVSPropertyOp23
 70
     1
102
RTVSPropertyOp24
 70
     1
102
RTVSPropertyOp25
 70
     1
102
RTVSPropertyOp26
 70
     1
102
RTVSPropertyOp27
 70
     1
102
RTVSPropertyOp28
 70
     1
102
RTVSPropertyOp29
 70
     1
102
RTVSPropertyOp30
 70
     1
102
RTVSPropertyOp31
 70
     1
102
RTVSPropertyOp32
 70
     1
102
RTVSPropertyOp33
 70
     1
102
RTVSPropertyOp34
 70
     1
102
RTVSPropertyOp35
 70
     1
102
RTVSPropertyOp36
 70
     1
102
RTVSPropertyOp37
 70
     1
102
RTVSPropertyOp38
 70
     1
102
RTVSPropertyOp39
 70
     1
102
RTVSPropertyOp40
 70
     1
102
RTVSPropertyOp41
 70
     1
102
RTVSPropertyOp42
 70
     1
102
RTVSPropertyOp43
 70
     1
102
RTVSPropertyOp44
 70
     1
102
RTVSPropertyOp45
 70
     1
102
RTVSPropertyOp46
 70
     1
102
RTVSPropertyOp47
 70
     1
102
RTVSPropertyOp48
 70
     1
102
RTVSPropertyOp49
 70
     1
102
RTVSPropertyOp50
 70
     1
102
RTVSPropertyOp51
 70
     0
102
RTVSPropertyOp52
 70
     0
102
RTVSPropertyOp53
 70
     1
102
RTVSPropertyOp54
 70
     1
102
RTVSPropertyOp55
 70
     1
102
RTVSPropertyOp56
 70
     1
102
RTVSPropertyOp57
 70
     1
102
RTVSPost2010Prop28
280
     0
102
RTVSPost2010PropOp28
 70
     1
102
RTVSPost2010Prop29
280
     1
102
RTVSPost2010PropOp29
 70
     1
102
RTVSPost2010Prop30
280
     1
102
RTVSPost2010PropOp30
 70
     1
102
RTVSPost2010Prop31
280
     0
102
RTVSPost2010PropOp31
 70
     1
102
RTVSPost2010Prop32
280
     0
102
RTVSPost2010PropOp32
 70
     1
102
RTVSPost2010Prop33
280
     0
102
RTVSPost2010PropOp33
 70
     1
102
RTVSPost2010Prop34
280
     0
102
RTVSPost2010PropOp34
 70
     1
102
RTVSPost2010Prop35
280
     0
102
RTVSPost2010PropOp35
 70
     1
102
RTVSPost2010Prop36
280
     0
102
RTVSPost2010PropOp36
 70
     1
102
RTVSPost2010Prop37
 90
       50
102
RTVSPost2010PropOp37
 70
     1
102
RTVSPost2010Prop38
140
0.0
102
RTVSPost2010PropOp38
 70
     1
102
RTVSPost2010Prop39
140
1.0
102
RTVSPost2010PropOp39
 70
     1
102
RTVSPost2010Prop40
 90
        0
102
RTVSPost2010PropOp40
 70
     1
102
RTVSPost2010Prop41ColorIndex
 90
       18
102
RTVSPost2010Prop41ColorRGB
 90
        0
102
RTVSPost2010PropOp41
 70
     1
102
RTVSPost2010Prop42
 90
       50
102
RTVSPost2010PropOp42
 70
     1
102
RTVSPost2010Prop43
 90
        3
102
RTVSPost2010PropOp43
 70
     1
102
RTVSPost2010Prop44ColorIndex
 90
        5
102
RTVSPost2010Prop44ColorRGB
 90
      255
102
RTVSPost2010PropOp44
 70
     1
102
RTVSPost2010Prop45
280
     0
102
RTVSPost2010PropOp45
 70
     1
102
RTVSPost2010Prop46
 90
       50
102
RTVSPost2010PropOp46
 70
     1
102
RTVSPost2010Prop47
 90
       50
102
RTVSPost2010PropOp47
 70
     1
102
RTVSPost2010Prop48
 90
       50
102
RTVSPost2010PropOp48
 70
     1
102
RTVSPost2010Prop49
280
     0
102
RTVSPost2010PropOp49
 70
     1
102
RTVSPost2010Prop50
 90
       50
102
RTVSPost2010PropOp50
 70
     1
102
RTVSPost2010Prop51ColorIndex
 90
      256
102
RTVSPost2010Prop51ColorRGB
 90
-16777216
102
RTVSPost2010PropOp51
 70
     0
102
RTVSPost2010Prop52
140
1.0
102
RTVSPost2010PropOp52
 70
     0
102
RTVSPost2010Prop53
 90
        2
102
RTVSPost2010PropOp53
 70
     1
102
RTVSPost2010Prop54
  1
strokes_ogs.tif
102
RTVSPost2010PropOp54
 70
     1
102
RTVSPost2010Prop55
280
     0
102
RTVSPost2010PropOp55
 70
     1
102
RTVSPost2010Prop56
140
1.0
102
RTVSPost2010PropOp56
 70
     1
102
RTVSPost2010Prop57
140
1.0
102
RTVSPost2010PropOp57
 70
     1
  0
XRECORD
  5
255
102
{ACAD_REACTORS
330
254
102
}
330
254
100
AcDbXrecord
280
     1
102
RTVSPropertyOp0
 70
     1
102
RTVSPropertyOp1
 70
     1
102
RTVSPropertyOp2
 70
     1
102
RTVSPropertyOp3
 70
     1
102
RTVSPropertyOp4
 70
     1
102
RTVSPropertyOp5
 70
     1
102
RTVSPropertyOp6
 70
     1
102
RTVSPropertyOp7
 70
     1
102
RTVSPropertyOp8
 70
     1
102
RTVSPropertyOp9
 70
     1
102
RTVSPropertyOp10
 70
     1
102
RTVSPropertyOp11
 70
     1
102
RTVSPropertyOp12
 70
     1
102
RTVSPropertyOp13
 70
     1
102
RTVSPropertyOp14
 70
     1
102
RTVSPropertyOp15
 70
     1
102
RTVSPropertyOp16
 70
     1
102
RTVSPropertyOp17
 70
     1
102
RTVSPropertyOp18
 70
     1
102
RTVSPropertyOp19
 70
     1
102
RTVSPropertyOp20
 70
     1
102
RTVSPropertyOp21
 70
     1
102
RTVSPropertyOp22
 70
     1
102
RTVSPropertyOp23
 70
     1
102
RTVSPropertyOp24
 70
     1
102
RTVSPropertyOp25
 70
     1
102
RTVSPropertyOp26
 70
     1
102
RTVSPropertyOp27
 70
     1
102
RTVSPropertyOp28
 70
     1
102
RTVSPropertyOp29
 70
     1
102
RTVSPropertyOp30
 70
     1
102
RTVSPropertyOp31
 70
     1
102
RTVSPropertyOp32
 70
     1
102
RTVSPropertyOp33
 70
     1
102
RTVSPropertyOp34
 70
     1
102
RTVSPropertyOp35
 70
     1
102
RTVSPropertyOp36
 70
     1
102
RTVSPropertyOp37
 70
     1
102
RTVSPropertyOp38
 70
     1
102
RTVSPropertyOp39
 70
     1
102
RTVSPropertyOp40
 70
     1
102
RTVSPropertyOp41
 70
     1
102
RTVSPropertyOp42
 70
     1
102
RTVSPropertyOp43
 70
     1
102
RTVSPropertyOp44
 70
     1
102
RTVSPropertyOp45
 70
     1
102
RTVSPropertyOp46
 70
     1
102
RTVSPropertyOp47
 70
     1
102
RTVSPropertyOp48
 70
     1
102
RTVSPropertyOp49
 70
     1
102
RTVSPropertyOp50
 70
     1
102
RTVSPropertyOp51
 70
     0
102
RTVSPropertyOp52
 70
     0
102
RTVSPropertyOp53
 70
     1
102
RTVSPropertyOp54
 70
     1
102
RTVSPropertyOp55
 70
     1
102
RTVSPropertyOp56
 70
     1
102
RTVSPropertyOp57
 70
     1
102
RTVSPost2010Prop28
280
     0
102
RTVSPost2010PropOp28
 70
     1
102
RTVSPost2010Prop29
280
     1
102
RTVSPost2010PropOp29
 70
     1
102
RTVSPost2010Prop30
280
     1
102
RTVSPost2010PropOp30
 70
     1
102
RTVSPost2010Prop31
280
     0
102
RTVSPost2010PropOp31
 70
     1
102
RTVSPost2010Prop32
280
     0
102
RTVSPost2010PropOp32
 70
     1
102
RTVSPost2010Prop33
280
     0
102
RTVSPost2010PropOp33
 70
     1
102
RTVSPost2010Prop34
280
     0
102
RTVSPost2010PropOp34
 70
     1
102
RTVSPost2010Prop35
280
     0
102
RTVSPost2010PropOp35
 70
     1
102
RTVSPost2010Prop36
280
     0
102
RTVSPost2010PropOp36
 70
     1
102
RTVSPost2010Prop37
 90
       50
102
RTVSPost2010PropOp37
 70
     1
102
RTVSPost2010Prop38
140
0.0
102
RTVSPost2010PropOp38
 70
     1
102
RTVSPost2010Prop39
140
1.0
102
RTVSPost2010PropOp39
 70
     1
102
RTVSPost2010Prop40
 90
        0
102
RTVSPost2010PropOp40
 70
     1
102
RTVSPost2010Prop41ColorIndex
 90
       18
102
RTVSPost2010Prop41ColorRGB
 90
        0
102
RTVSPost2010PropOp41
 70
     1
102
RTVSPost2010Prop42
 90
       50
102
RTVSPost2010PropOp42
 70
     1
102
RTVSPost2010Prop43
 90
        3
102
RTVSPost2010PropOp43
 70
     1
102
RTVSPost2010Prop44ColorIndex
 90
        5
102
RTVSPost2010Prop44ColorRGB
 90
      255
102
RTVSPost2010PropOp44
 70
     1
102
RTVSPost2010Prop45
280
     0
102
RTVSPost2010PropOp45
 70
     1
102
RTVSPost2010Prop46
 90
       50
102
RTVSPost2010PropOp46
 70
     1
102
RTVSPost2010Prop47
 90
       50
102
RTVSPost2010PropOp47
 70
     1
102
RTVSPost2010Prop48
 90
       50
102
RTVSPost2010PropOp48
 70
     1
102
RTVSPost2010Prop49
280
     0
102
RTVSPost2010PropOp49
 70
     1
102
RTVSPost2010Prop50
 90
       50
102
RTVSPost2010PropOp50
 70
     1
102
RTVSPost2010Prop51ColorIndex
 90
      256
102
RTVSPost2010Prop51ColorRGB
 90
-16777216
102
RTVSPost2010PropOp51
 70
     0
102
RTVSPost2010Prop52
140
1.0
102
RTVSPost2010PropOp52
 70
     0
102
RTVSPost2010Prop53
 90
        2
102
RTVSPost2010PropOp53
 70
     1
102
RTVSPost2010Prop54
  1
strokes_ogs.tif
102
RTVSPost2010PropOp54
 70
     1
102
RTVSPost2010Prop55
280
     0
102
RTVSPost2010PropOp55
 70
     1
102
RTVSPost2010Prop56
140
1.0
102
RTVSPost2010PropOp56
 70
     1
102
RTVSPost2010Prop57
140
1.0
102
RTVSPost2010PropOp57
 70
     1
  0
XRECORD
  5
25D
102
{ACAD_REACTORS
330
25C
102
}
330
25C
100
AcDbXrecord
280
     1
102
RTVSPropertyOp0
 70
     1
102
RTVSPropertyOp1
 70
     1
102
RTVSPropertyOp2
 70
     1
102
RTVSPropertyOp3
 70
     1
102
RTVSPropertyOp4
 70
     1
102
RTVSPropertyOp5
 70
     1
102
RTVSPropertyOp6
 70
     1
102
RTVSPropertyOp7
 70
     1
102
RTVSPropertyOp8
 70
     1
102
RTVSPropertyOp9
 70
     1
102
RTVSPropertyOp10
 70
     1
102
RTVSPropertyOp11
 70
     1
102
RTVSPropertyOp12
 70
     1
102
RTVSPropertyOp13
 70
     1
102
RTVSPropertyOp14
 70
     1
102
RTVSPropertyOp15
 70
     1
102
RTVSPropertyOp16
 70
     1
102
RTVSPropertyOp17
 70
     1
102
RTVSPropertyOp18
 70
     1
102
RTVSPropertyOp19
 70
     1
102
RTVSPropertyOp20
 70
     1
102
RTVSPropertyOp21
 70
     1
102
RTVSPropertyOp22
 70
     1
102
RTVSPropertyOp23
 70
     1
102
RTVSPropertyOp24
 70
     1
102
RTVSPropertyOp25
 70
     1
102
RTVSPropertyOp26
 70
     1
102
RTVSPropertyOp27
 70
     1
102
RTVSPropertyOp28
 70
     1
102
RTVSPropertyOp29
 70
     1
102
RTVSPropertyOp30
 70
     1
102
RTVSPropertyOp31
 70
     1
102
RTVSPropertyOp32
 70
     1
102
RTVSPropertyOp33
 70
     1
102
RTVSPropertyOp34
 70
     1
102
RTVSPropertyOp35
 70
     1
102
RTVSPropertyOp36
 70
     1
102
RTVSPropertyOp37
 70
     1
102
RTVSPropertyOp38
 70
     1
102
RTVSPropertyOp39
 70
     1
102
RTVSPropertyOp40
 70
     1
102
RTVSPropertyOp41
 70
     1
102
RTVSPropertyOp42
 70
     1
102
RTVSPropertyOp43
 70
     1
102
RTVSPropertyOp44
 70
     1
102
RTVSPropertyOp45
 70
     1
102
RTVSPropertyOp46
 70
     1
102
RTVSPropertyOp47
 70
     1
102
RTVSPropertyOp48
 70
     1
102
RTVSPropertyOp49
 70
     1
102
RTVSPropertyOp50
 70
     1
102
RTVSPropertyOp51
 70
     0
102
RTVSPropertyOp52
 70
     0
102
RTVSPropertyOp53
 70
     1
102
RTVSPropertyOp54
 70
     1
102
RTVSPropertyOp55
 70
     1
102
RTVSPropertyOp56
 70
     1
102
RTVSPropertyOp57
 70
     1
102
RTVSPost2010Prop28
280
     0
102
RTVSPost2010PropOp28
 70
     1
102
RTVSPost2010Prop29
280
     1
102
RTVSPost2010PropOp29
 70
     1
102
RTVSPost2010Prop30
280
     1
102
RTVSPost2010PropOp30
 70
     1
102
RTVSPost2010Prop31
280
     0
102
RTVSPost2010PropOp31
 70
     1
102
RTVSPost2010Prop32
280
     0
102
RTVSPost2010PropOp32
 70
     1
102
RTVSPost2010Prop33
280
     0
102
RTVSPost2010PropOp33
 70
     1
102
RTVSPost2010Prop34
280
     0
102
RTVSPost2010PropOp34
 70
     1
102
RTVSPost2010Prop35
280
     0
102
RTVSPost2010PropOp35
 70
     1
102
RTVSPost2010Prop36
280
     0
102
RTVSPost2010PropOp36
 70
     1
102
RTVSPost2010Prop37
 90
       50
102
RTVSPost2010PropOp37
 70
     1
102
RTVSPost2010Prop38
140
0.0
102
RTVSPost2010PropOp38
 70
     1
102
RTVSPost2010Prop39
140
1.0
102
RTVSPost2010PropOp39
 70
     1
102
RTVSPost2010Prop40
 90
        0
102
RTVSPost2010PropOp40
 70
     1
102
RTVSPost2010Prop41ColorIndex
 90
       18
102
RTVSPost2010Prop41ColorRGB
 90
        0
102
RTVSPost2010PropOp41
 70
     1
102
RTVSPost2010Prop42
 90
       50
102
RTVSPost2010PropOp42
 70
     1
102
RTVSPost2010Prop43
 90
        3
102
RTVSPost2010PropOp43
 70
     1
102
RTVSPost2010Prop44ColorIndex
 90
        5
102
RTVSPost2010Prop44ColorRGB
 90
      255
102
RTVSPost2010PropOp44
 70
     1
102
RTVSPost2010Prop45
280
     0
102
RTVSPost2010PropOp45
 70
     1
102
RTVSPost2010Prop46
 90
       50
102
RTVSPost2010PropOp46
 70
     1
102
RTVSPost2010Prop47
 90
       50
102
RTVSPost2010PropOp47
 70
     1
102
RTVSPost2010Prop48
 90
       50
102
RTVSPost2010PropOp48
 70
     1
102
RTVSPost2010Prop49
280
     0
102
RTVSPost2010PropOp49
 70
     1
102
RTVSPost2010Prop50
 90
       50
102
RTVSPost2010PropOp50
 70
     1
102
RTVSPost2010Prop51ColorIndex
 90
      256
102
RTVSPost2010Prop51ColorRGB
 90
-16777216
102
RTVSPost2010PropOp51
 70
     0
102
RTVSPost2010Prop52
140
1.0
102
RTVSPost2010PropOp52
 70
     0
102
RTVSPost2010Prop53
 90
        2
102
RTVSPost2010PropOp53
 70
     1
102
RTVSPost2010Prop54
  1
strokes_ogs.tif
102
RTVSPost2010PropOp54
 70
     1
102
RTVSPost2010Prop55
280
     0
102
RTVSPost2010PropOp55
 70
     1
102
RTVSPost2010Prop56
140
1.0
102
RTVSPost2010PropOp56
 70
     1
102
RTVSPost2010Prop57
140
1.0
102
RTVSPost2010PropOp57
 70
     1
  0
XRECORD
  5
251
102
{ACAD_REACTORS
330
250
102
}
330
250
100
AcDbXrecord
280
     1
102
RTVSPropertyOp0
 70
     1
102
RTVSPropertyOp1
 70
     1
102
RTVSPropertyOp2
 70
     1
102
RTVSPropertyOp3
 70
     1
102
RTVSPropertyOp4
 70
     1
102
RTVSPropertyOp5
 70
     1
102
RTVSPropertyOp6
 70
     1
102
RTVSPropertyOp7
 70
     1
102
RTVSPropertyOp8
 70
     1
102
RTVSPropertyOp9
 70
     1
102
RTVSPropertyOp10
 70
     1
102
RTVSPropertyOp11
 70
     1
102
RTVSPropertyOp12
 70
     1
102
RTVSPropertyOp13
 70
     1
102
RTVSPropertyOp14
 70
     1
102
RTVSPropertyOp15
 70
     1
102
RTVSPropertyOp16
 70
     1
102
RTVSPropertyOp17
 70
     1
102
RTVSPropertyOp18
 70
     1
102
RTVSPropertyOp19
 70
     1
102
RTVSPropertyOp20
 70
     1
102
RTVSPropertyOp21
 70
     1
102
RTVSPropertyOp22
 70
     1
102
RTVSPropertyOp23
 70
     1
102
RTVSPropertyOp24
 70
     1
102
RTVSPropertyOp25
 70
     1
102
RTVSPropertyOp26
 70
     1
102
RTVSPropertyOp27
 70
     1
102
RTVSPropertyOp28
 70
     1
102
RTVSPropertyOp29
 70
     1
102
RTVSPropertyOp30
 70
     1
102
RTVSPropertyOp31
 70
     1
102
RTVSPropertyOp32
 70
     1
102
RTVSPropertyOp33
 70
     1
102
RTVSPropertyOp34
 70
     1
102
RTVSPropertyOp35
 70
     1
102
RTVSPropertyOp36
 70
     1
102
RTVSPropertyOp37
 70
     1
102
RTVSPropertyOp38
 70
     1
102
RTVSPropertyOp39
 70
     1
102
RTVSPropertyOp40
 70
     1
102
RTVSPropertyOp41
 70
     1
102
RTVSPropertyOp42
 70
     1
102
RTVSPropertyOp43
 70
     1
102
RTVSPropertyOp44
 70
     1
102
RTVSPropertyOp45
 70
     1
102
RTVSPropertyOp46
 70
     1
102
RTVSPropertyOp47
 70
     1
102
RTVSPropertyOp48
 70
     1
102
RTVSPropertyOp49
 70
     1
102
RTVSPropertyOp50
 70
     1
102
RTVSPropertyOp51
 70
     0
102
RTVSPropertyOp52
 70
     0
102
RTVSPropertyOp53
 70
     1
102
RTVSPropertyOp54
 70
     1
102
RTVSPropertyOp55
 70
     1
102
RTVSPropertyOp56
 70
     1
102
RTVSPropertyOp57
 70
     1
102
RTVSPost2010Prop28
280
     0
102
RTVSPost2010PropOp28
 70
     1
102
RTVSPost2010Prop29
280
     1
102
RTVSPost2010PropOp29
 70
     1
102
RTVSPost2010Prop30
280
     1
102
RTVSPost2010PropOp30
 70
     1
102
RTVSPost2010Prop31
280
     0
102
RTVSPost2010PropOp31
 70
     1
102
RTVSPost2010Prop32
280
     0
102
RTVSPost2010PropOp32
 70
     1
102
RTVSPost2010Prop33
280
     0
102
RTVSPost2010PropOp33
 70
     1
102
RTVSPost2010Prop34
280
     0
102
RTVSPost2010PropOp34
 70
     1
102
RTVSPost2010Prop35
280
     0
102
RTVSPost2010PropOp35
 70
     1
102
RTVSPost2010Prop36
280
     0
102
RTVSPost2010PropOp36
 70
     1
102
RTVSPost2010Prop37
 90
       50
102
RTVSPost2010PropOp37
 70
     1
102
RTVSPost2010Prop38
140
0.0
102
RTVSPost2010PropOp38
 70
     1
102
RTVSPost2010Prop39
140
1.0
102
RTVSPost2010PropOp39
 70
     1
102
RTVSPost2010Prop40
 90
        0
102
RTVSPost2010PropOp40
 70
     1
102
RTVSPost2010Prop41ColorIndex
 90
       18
102
RTVSPost2010Prop41ColorRGB
 90
        0
102
RTVSPost2010PropOp41
 70
     1
102
RTVSPost2010Prop42
 90
       50
102
RTVSPost2010PropOp42
 70
     1
102
RTVSPost2010Prop43
 90
        3
102
RTVSPost2010PropOp43
 70
     1
102
RTVSPost2010Prop44ColorIndex
 90
        5
102
RTVSPost2010Prop44ColorRGB
 90
      255
102
RTVSPost2010PropOp44
 70
     1
102
RTVSPost2010Prop45
280
     0
102
RTVSPost2010PropOp45
 70
     1
102
RTVSPost2010Prop46
 90
       50
102
RTVSPost2010PropOp46
 70
     1
102
RTVSPost2010Prop47
 90
       50
102
RTVSPost2010PropOp47
 70
     1
102
RTVSPost2010Prop48
 90
       50
102
RTVSPost2010PropOp48
 70
     1
102
RTVSPost2010Prop49
280
     0
102
RTVSPost2010PropOp49
 70
     1
102
RTVSPost2010Prop50
 90
       50
102
RTVSPost2010PropOp50
 70
     1
102
RTVSPost2010Prop51ColorIndex
 90
      256
102
RTVSPost2010Prop51ColorRGB
 90
-16777216
102
RTVSPost2010PropOp51
 70
     0
102
RTVSPost2010Prop52
140
1.0
102
RTVSPost2010PropOp52
 70
     0
102
RTVSPost2010Prop53
 90
        2
102
RTVSPost2010PropOp53
 70
     1
102
RTVSPost2010Prop54
  1
strokes_ogs.tif
102
RTVSPost2010PropOp54
 70
     1
102
RTVSPost2010Prop55
280
     0
102
RTVSPost2010PropOp55
 70
     1
102
RTVSPost2010Prop56
140
1.0
102
RTVSPost2010PropOp56
 70
     1
102
RTVSPost2010Prop57
140
1.0
102
RTVSPost2010PropOp57
 70
     1
  0
XRECORD
  5
253
102
{ACAD_REACTORS
330
252
102
}
330
252
100
AcDbXrecord
280
     1
102
RTVSPropertyOp0
 70
     1
102
RTVSPropertyOp1
 70
     1
102
RTVSPropertyOp2
 70
     1
102
RTVSPropertyOp3
 70
     1
102
RTVSPropertyOp4
 70
     1
102
RTVSPropertyOp5
 70
     1
102
RTVSPropertyOp6
 70
     1
102
RTVSPropertyOp7
 70
     1
102
RTVSPropertyOp8
 70
     1
102
RTVSPropertyOp9
 70
     1
102
RTVSPropertyOp10
 70
     1
102
RTVSPropertyOp11
 70
     1
102
RTVSPropertyOp12
 70
     1
102
RTVSPropertyOp13
 70
     1
102
RTVSPropertyOp14
 70
     1
102
RTVSPropertyOp15
 70
     1
102
RTVSPropertyOp16
 70
     1
102
RTVSPropertyOp17
 70
     1
102
RTVSPropertyOp18
 70
     1
102
RTVSPropertyOp19
 70
     1
102
RTVSPropertyOp20
 70
     1
102
RTVSPropertyOp21
 70
     1
102
RTVSPropertyOp22
 70
     1
102
RTVSPropertyOp23
 70
     1
102
RTVSPropertyOp24
 70
     1
102
RTVSPropertyOp25
 70
     1
102
RTVSPropertyOp26
 70
     1
102
RTVSPropertyOp27
 70
     1
102
RTVSPropertyOp28
 70
     1
102
RTVSPropertyOp29
 70
     1
102
RTVSPropertyOp30
 70
     1
102
RTVSPropertyOp31
 70
     1
102
RTVSPropertyOp32
 70
     1
102
RTVSPropertyOp33
 70
     1
102
RTVSPropertyOp34
 70
     1
102
RTVSPropertyOp35
 70
     1
102
RTVSPropertyOp36
 70
     1
102
RTVSPropertyOp37
 70
     1
102
RTVSPropertyOp38
 70
     1
102
RTVSPropertyOp39
 70
     1
102
RTVSPropertyOp40
 70
     1
102
RTVSPropertyOp41
 70
     1
102
RTVSPropertyOp42
 70
     1
102
RTVSPropertyOp43
 70
     1
102
RTVSPropertyOp44
 70
     1
102
RTVSPropertyOp45
 70
     1
102
RTVSPropertyOp46
 70
     1
102
RTVSPropertyOp47
 70
     1
102
RTVSPropertyOp48
 70
     1
102
RTVSPropertyOp49
 70
     1
102
RTVSPropertyOp50
 70
     1
102
RTVSPropertyOp51
 70
     0
102
RTVSPropertyOp52
 70
     0
102
RTVSPropertyOp53
 70
     1
102
RTVSPropertyOp54
 70
     1
102
RTVSPropertyOp55
 70
     1
102
RTVSPropertyOp56
 70
     1
102
RTVSPropertyOp57
 70
     1
102
RTVSPost2010Prop28
280
     0
102
RTVSPost2010PropOp28
 70
     1
102
RTVSPost2010Prop29
280
     1
102
RTVSPost2010PropOp29
 70
     1
102
RTVSPost2010Prop30
280
     1
102
RTVSPost2010PropOp30
 70
     1
102
RTVSPost2010Prop31
280
     0
102
RTVSPost2010PropOp31
 70
     1
102
RTVSPost2010Prop32
280
     0
102
RTVSPost2010PropOp32
 70
     1
102
RTVSPost2010Prop33
280
     0
102
RTVSPost2010PropOp33
 70
     1
102
RTVSPost2010Prop34
280
     0
102
RTVSPost2010PropOp34
 70
     1
102
RTVSPost2010Prop35
280
     0
102
RTVSPost2010PropOp35
 70
     1
102
RTVSPost2010Prop36
280
     0
102
RTVSPost2010PropOp36
 70
     1
102
RTVSPost2010Prop37
 90
       50
102
RTVSPost2010PropOp37
 70
     1
102
RTVSPost2010Prop38
140
0.0
102
RTVSPost2010PropOp38
 70
     1
102
RTVSPost2010Prop39
140
1.0
102
RTVSPost2010PropOp39
 70
     1
102
RTVSPost2010Prop40
 90
        0
102
RTVSPost2010PropOp40
 70
     1
102
RTVSPost2010Prop41ColorIndex
 90
       18
102
RTVSPost2010Prop41ColorRGB
 90
        0
102
RTVSPost2010PropOp41
 70
     1
102
RTVSPost2010Prop42
 90
       50
102
RTVSPost2010PropOp42
 70
     1
102
RTVSPost2010Prop43
 90
        3
102
RTVSPost2010PropOp43
 70
     1
102
RTVSPost2010Prop44ColorIndex
 90
        5
102
RTVSPost2010Prop44ColorRGB
 90
      255
102
RTVSPost2010PropOp44
 70
     1
102
RTVSPost2010Prop45
280
     0
102
RTVSPost2010PropOp45
 70
     1
102
RTVSPost2010Prop46
 90
       50
102
RTVSPost2010PropOp46
 70
     1
102
RTVSPost2010Prop47
 90
       50
102
RTVSPost2010PropOp47
 70
     1
102
RTVSPost2010Prop48
 90
       50
102
RTVSPost2010PropOp48
 70
     1
102
RTVSPost2010Prop49
280
     0
102
RTVSPost2010PropOp49
 70
     1
102
RTVSPost2010Prop50
 90
       50
102
RTVSPost2010PropOp50
 70
     1
102
RTVSPost2010Prop51ColorIndex
 90
      256
102
RTVSPost2010Prop51ColorRGB
 90
-16777216
102
RTVSPost2010PropOp51
 70
     0
102
RTVSPost2010Prop52
140
1.0
102
RTVSPost2010PropOp52
 70
     0
102
RTVSPost2010Prop53
 90
        2
102
RTVSPost2010PropOp53
 70
     1
102
RTVSPost2010Prop54
  1
strokes_ogs.tif
102
RTVSPost2010PropOp54
 70
     1
102
RTVSPost2010Prop55
280
     0
102
RTVSPost2010PropOp55
 70
     1
102
RTVSPost2010Prop56
140
1.0
102
RTVSPost2010PropOp56
 70
     1
102
RTVSPost2010Prop57
140
1.0
102
RTVSPost2010PropOp57
 70
     1
  0
XRECORD
  5
263
102
{ACAD_REACTORS
330
262
102
}
330
262
100
AcDbXrecord
280
     1
102
RTVSPropertyOp0
 70
     0
102
RTVSPropertyOp1
 70
     0
102
RTVSPropertyOp2
 70
     0
102
RTVSPropertyOp3
 70
     0
102
RTVSPropertyOp4
 70
     0
102
RTVSPropertyOp5
 70
     0
102
RTVSPropertyOp6
 70
     0
102
RTVSPropertyOp7
 70
     0
102
RTVSPropertyOp8
 70
     0
102
RTVSPropertyOp9
 70
     0
102
RTVSPropertyOp10
 70
     0
102
RTVSPropertyOp11
 70
     0
102
RTVSPropertyOp12
 70
     0
102
RTVSPropertyOp13
 70
     0
102
RTVSPropertyOp14
 70
     2
102
RTVSPropertyOp15
 70
     0
102
RTVSPropertyOp16
 70
     0
102
RTVSPropertyOp17
 70
     0
102
RTVSPropertyOp18
 70
     0
102
RTVSPropertyOp19
 70
     0
102
RTVSPropertyOp20
 70
     0
102
RTVSPropertyOp21
 70
     0
102
RTVSPropertyOp22
 70
     0
102
RTVSPropertyOp23
 70
     0
102
RTVSPropertyOp24
 70
     0
102
RTVSPropertyOp25
 70
     0
102
RTVSPropertyOp26
 70
     0
102
RTVSPropertyOp27
 70
     0
102
RTVSPropertyOp28
 70
     0
102
RTVSPropertyOp29
 70
     0
102
RTVSPropertyOp30
 70
     0
102
RTVSPropertyOp31
 70
     0
102
RTVSPropertyOp32
 70
     0
102
RTVSPropertyOp33
 70
     0
102
RTVSPropertyOp34
 70
     0
102
RTVSPropertyOp35
 70
     0
102
RTVSPropertyOp36
 70
     0
102
RTVSPropertyOp37
 70
     0
102
RTVSPropertyOp38
 70
     0
102
RTVSPropertyOp39
 70
     0
102
RTVSPropertyOp40
 70
     0
102
RTVSPropertyOp41
 70
     0
102
RTVSPropertyOp42
 70
     0
102
RTVSPropertyOp43
 70
     0
102
RTVSPropertyOp44
 70
     0
102
RTVSPropertyOp45
 70
     0
102
RTVSPropertyOp46
 70
     0
102
RTVSPropertyOp47
 70
     0
102
RTVSPropertyOp48
 70
     0
102
RTVSPropertyOp49
 70
     0
102
RTVSPropertyOp50
 70
     0
102
RTVSPropertyOp51
 70
     0
102
RTVSPropertyOp52
 70
     0
102
RTVSPropertyOp53
 70
     0
102
RTVSPropertyOp54
 70
     0
102
RTVSPropertyOp55
 70
     0
102
RTVSPropertyOp56
 70
     0
102
RTVSPropertyOp57
 70
     0
102
RTVSPost2010Prop28
280
     0
102
RTVSPost2010PropOp28
 70
     0
102
RTVSPost2010Prop29
280
     1
102
RTVSPost2010PropOp29
 70
     0
102
RTVSPost2010Prop30
280
     1
102
RTVSPost2010PropOp30
 70
     0
102
RTVSPost2010Prop31
280
     0
102
RTVSPost2010PropOp31
 70
     0
102
RTVSPost2010Prop32
280
     0
102
RTVSPost2010PropOp32
 70
     0
102
RTVSPost2010Prop33
280
     0
102
RTVSPost2010PropOp33
 70
     0
102
RTVSPost2010Prop34
280
     0
102
RTVSPost2010PropOp34
 70
     0
102
RTVSPost2010Prop35
280
     0
102
RTVSPost2010PropOp35
 70
     0
102
RTVSPost2010Prop36
280
     0
102
RTVSPost2010PropOp36
 70
     0
102
RTVSPost2010Prop37
 90
       50
102
RTVSPost2010PropOp37
 70
     0
102
RTVSPost2010Prop38
140
0.0
102
RTVSPost2010PropOp38
 70
     0
102
RTVSPost2010Prop39
140
1.0
102
RTVSPost2010PropOp39
 70
     0
102
RTVSPost2010Prop40
 90
        0
102
RTVSPost2010PropOp40
 70
     0
102
RTVSPost2010Prop41ColorIndex
 90
       18
102
RTVSPost2010Prop41ColorRGB
 90
        0
102
RTVSPost2010PropOp41
 70
     0
102
RTVSPost2010Prop42
 90
       50
102
RTVSPost2010PropOp42
 70
     0
102
RTVSPost2010Prop43
 90
        3
102
RTVSPost2010PropOp43
 70
     0
102
RTVSPost2010Prop44ColorIndex
 90
        5
102
RTVSPost2010Prop44ColorRGB
 90
      255
102
RTVSPost2010PropOp44
 70
     0
102
RTVSPost2010Prop45
280
     0
102
RTVSPost2010PropOp45
 70
     0
102
RTVSPost2010Prop46
 90
       50
102
RTVSPost2010PropOp46
 70
     0
102
RTVSPost2010Prop47
 90
       50
102
RTVSPost2010PropOp47
 70
     0
102
RTVSPost2010Prop48
 90
       50
102
RTVSPost2010PropOp48
 70
     0
102
RTVSPost2010Prop49
280
     0
102
RTVSPost2010PropOp49
 70
     0
102
RTVSPost2010Prop50
 90
       50
102
RTVSPost2010PropOp50
 70
     0
102
RTVSPost2010Prop51ColorIndex
 90
      256
102
RTVSPost2010Prop51ColorRGB
 90
-16777216
102
RTVSPost2010PropOp51
 70
     0
102
RTVSPost2010Prop52
140
1.0
102
RTVSPost2010PropOp52
 70
     0
102
RTVSPost2010Prop53
 90
        2
102
RTVSPost2010PropOp53
 70
     0
102
RTVSPost2010Prop54
  1
strokes_ogs.tif
102
RTVSPost2010PropOp54
 70
     0
102
RTVSPost2010Prop55
280
     0
102
RTVSPost2010PropOp55
 70
     0
102
RTVSPost2010Prop56
140
1.0
102
RTVSPost2010PropOp56
 70
     0
102
RTVSPost2010Prop57
140
1.0
102
RTVSPost2010PropOp57
 70
     0
  0
XRECORD
  5
25B
102
{ACAD_REACTORS
330
25A
102
}
330
25A
100
AcDbXrecord
280
     1
102
RTVSPropertyOp0
 70
     1
102
RTVSPropertyOp1
 70
     1
102
RTVSPropertyOp2
 70
     1
102
RTVSPropertyOp3
 70
     1
102
RTVSPropertyOp4
 70
     1
102
RTVSPropertyOp5
 70
     1
102
RTVSPropertyOp6
 70
     1
102
RTVSPropertyOp7
 70
     1
102
RTVSPropertyOp8
 70
     1
102
RTVSPropertyOp9
 70
     1
102
RTVSPropertyOp10
 70
     1
102
RTVSPropertyOp11
 70
     1
102
RTVSPropertyOp12
 70
     1
102
RTVSPropertyOp13
 70
     1
102
RTVSPropertyOp14
 70
     1
102
RTVSPropertyOp15
 70
     1
102
RTVSPropertyOp16
 70
     1
102
RTVSPropertyOp17
 70
     1
102
RTVSPropertyOp18
 70
     1
102
RTVSPropertyOp19
 70
     1
102
RTVSPropertyOp20
 70
     1
102
RTVSPropertyOp21
 70
     1
102
RTVSPropertyOp22
 70
     1
102
RTVSPropertyOp23
 70
     1
102
RTVSPropertyOp24
 70
     1
102
RTVSPropertyOp25
 70
     1
102
RTVSPropertyOp26
 70
     1
102
RTVSPropertyOp27
 70
     1
102
RTVSPropertyOp28
 70
     1
102
RTVSPropertyOp29
 70
     1
102
RTVSPropertyOp30
 70
     1
102
RTVSPropertyOp31
 70
     1
102
RTVSPropertyOp32
 70
     1
102
RTVSPropertyOp33
 70
     1
102
RTVSPropertyOp34
 70
     1
102
RTVSPropertyOp35
 70
     1
102
RTVSPropertyOp36
 70
     1
102
RTVSPropertyOp37
 70
     1
102
RTVSPropertyOp38
 70
     1
102
RTVSPropertyOp39
 70
     1
102
RTVSPropertyOp40
 70
     1
102
RTVSPropertyOp41
 70
     1
102
RTVSPropertyOp42
 70
     1
102
RTVSPropertyOp43
 70
     1
102
RTVSPropertyOp44
 70
     1
102
RTVSPropertyOp45
 70
     1
102
RTVSPropertyOp46
 70
     1
102
RTVSPropertyOp47
 70
     1
102
RTVSPropertyOp48
 70
     1
102
RTVSPropertyOp49
 70
     1
102
RTVSPropertyOp50
 70
     1
102
RTVSPropertyOp51
 70
     0
102
RTVSPropertyOp52
 70
     0
102
RTVSPropertyOp53
 70
     1
102
RTVSPropertyOp54
 70
     1
102
RTVSPropertyOp55
 70
     1
102
RTVSPropertyOp56
 70
     1
102
RTVSPropertyOp57
 70
     1
102
RTVSPost2010Prop28
280
     0
102
RTVSPost2010PropOp28
 70
     1
102
RTVSPost2010Prop29
280
     1
102
RTVSPost2010PropOp29
 70
     1
102
RTVSPost2010Prop30
280
     1
102
RTVSPost2010PropOp30
 70
     1
102
RTVSPost2010Prop31
280
     0
102
RTVSPost2010PropOp31
 70
     1
102
RTVSPost2010Prop32
280
     0
102
RTVSPost2010PropOp32
 70
     1
102
RTVSPost2010Prop33
280
     0
102
RTVSPost2010PropOp33
 70
     1
102
RTVSPost2010Prop34
280
     0
102
RTVSPost2010PropOp34
 70
     1
102
RTVSPost2010Prop35
280
     0
102
RTVSPost2010PropOp35
 70
     1
102
RTVSPost2010Prop36
280
     0
102
RTVSPost2010PropOp36
 70
     1
102
RTVSPost2010Prop37
 90
       50
102
RTVSPost2010PropOp37
 70
     1
102
RTVSPost2010Prop38
140
0.0
102
RTVSPost2010PropOp38
 70
     1
102
RTVSPost2010Prop39
140
1.0
102
RTVSPost2010PropOp39
 70
     1
102
RTVSPost2010Prop40
 90
        0
102
RTVSPost2010PropOp40
 70
     1
102
RTVSPost2010Prop41ColorIndex
 90
       18
102
RTVSPost2010Prop41ColorRGB
 90
        0
102
RTVSPost2010PropOp41
 70
     1
102
RTVSPost2010Prop42
 90
       50
102
RTVSPost2010PropOp42
 70
     1
102
RTVSPost2010Prop43
 90
        3
102
RTVSPost2010PropOp43
 70
     1
102
RTVSPost2010Prop44ColorIndex
 90
        5
102
RTVSPost2010Prop44ColorRGB
 90
      255
102
RTVSPost2010PropOp44
 70
     1
102
RTVSPost2010Prop45
280
     0
102
RTVSPost2010PropOp45
 70
     1
102
RTVSPost2010Prop46
 90
       50
102
RTVSPost2010PropOp46
 70
     1
102
RTVSPost2010Prop47
 90
       50
102
RTVSPost2010PropOp47
 70
     1
102
RTVSPost2010Prop48
 90
       50
102
RTVSPost2010PropOp48
 70
     1
102
RTVSPost2010Prop49
280
     0
102
RTVSPost2010PropOp49
 70
     1
102
RTVSPost2010Prop50
 90
       50
102
RTVSPost2010PropOp50
 70
     1
102
RTVSPost2010Prop51ColorIndex
 90
      256
102
RTVSPost2010Prop51ColorRGB
 90
-16777216
102
RTVSPost2010PropOp51
 70
     0
102
RTVSPost2010Prop52
140
1.0
102
RTVSPost2010PropOp52
 70
     0
102
RTVSPost2010Prop53
 90
        2
102
RTVSPost2010PropOp53
 70
     1
102
RTVSPost2010Prop54
  1
strokes_ogs.tif
102
RTVSPost2010PropOp54
 70
     1
102
RTVSPost2010Prop55
280
     0
102
RTVSPost2010PropOp55
 70
     1
102
RTVSPost2010Prop56
140
1.0
102
RTVSPost2010PropOp56
 70
     1
102
RTVSPost2010Prop57
140
1.0
102
RTVSPost2010PropOp57
 70
     1
  0
XRECORD
  5
23F
102
{ACAD_REACTORS
330
23E
102
}
330
23E
100
AcDbXrecord
280
     1
102
RTVSPropertyOp0
 70
     1
102
RTVSPropertyOp1
 70
     1
102
RTVSPropertyOp2
 70
     1
102
RTVSPropertyOp3
 70
     1
102
RTVSPropertyOp4
 70
     1
102
RTVSPropertyOp5
 70
     1
102
RTVSPropertyOp6
 70
     1
102
RTVSPropertyOp7
 70
     1
102
RTVSPropertyOp8
 70
     1
102
RTVSPropertyOp9
 70
     1
102
RTVSPropertyOp10
 70
     1
102
RTVSPropertyOp11
 70
     1
102
RTVSPropertyOp12
 70
     1
102
RTVSPropertyOp13
 70
     1
102
RTVSPropertyOp14
 70
     1
102
RTVSPropertyOp15
 70
     1
102
RTVSPropertyOp16
 70
     1
102
RTVSPropertyOp17
 70
     1
102
RTVSPropertyOp18
 70
     1
102
RTVSPropertyOp19
 70
     1
102
RTVSPropertyOp20
 70
     1
102
RTVSPropertyOp21
 70
     1
102
RTVSPropertyOp22
 70
     1
102
RTVSPropertyOp23
 70
     1
102
RTVSPropertyOp24
 70
     1
102
RTVSPropertyOp25
 70
     1
102
RTVSPropertyOp26
 70
     1
102
RTVSPropertyOp27
 70
     1
102
RTVSPropertyOp28
 70
     1
102
RTVSPropertyOp29
 70
     1
102
RTVSPropertyOp30
 70
     1
102
RTVSPropertyOp31
 70
     1
102
RTVSPropertyOp32
 70
     1
102
RTVSPropertyOp33
 70
     1
102
RTVSPropertyOp34
 70
     1
102
RTVSPropertyOp35
 70
     1
102
RTVSPropertyOp36
 70
     1
102
RTVSPropertyOp37
 70
     1
102
RTVSPropertyOp38
 70
     1
102
RTVSPropertyOp39
 70
     1
102
RTVSPropertyOp40
 70
     1
102
RTVSPropertyOp41
 70
     1
102
RTVSPropertyOp42
 70
     1
102
RTVSPropertyOp43
 70
     1
102
RTVSPropertyOp44
 70
     1
102
RTVSPropertyOp45
 70
     1
102
RTVSPropertyOp46
 70
     1
102
RTVSPropertyOp47
 70
     1
102
RTVSPropertyOp48
 70
     1
102
RTVSPropertyOp49
 70
     1
102
RTVSPropertyOp50
 70
     1
102
RTVSPropertyOp51
 70
     0
102
RTVSPropertyOp52
 70
     0
102
RTVSPropertyOp53
 70
     1
102
RTVSPropertyOp54
 70
     1
102
RTVSPropertyOp55
 70
     1
102
RTVSPropertyOp56
 70
     1
102
RTVSPropertyOp57
 70
     1
102
RTVSPost2010Prop28
280
     0
102
RTVSPost2010PropOp28
 70
     1
102
RTVSPost2010Prop29
280
     1
102
RTVSPost2010PropOp29
 70
     1
102
RTVSPost2010Prop30
280
     1
102
RTVSPost2010PropOp30
 70
     1
102
RTVSPost2010Prop31
280
     0
102
RTVSPost2010PropOp31
 70
     1
102
RTVSPost2010Prop32
280
     0
102
RTVSPost2010PropOp32
 70
     1
102
RTVSPost2010Prop33
280
     0
102
RTVSPost2010PropOp33
 70
     1
102
RTVSPost2010Prop34
280
     0
102
RTVSPost2010PropOp34
 70
     1
102
RTVSPost2010Prop35
280
     0
102
RTVSPost2010PropOp35
 70
     1
102
RTVSPost2010Prop36
280
     0
102
RTVSPost2010PropOp36
 70
     1
102
RTVSPost2010Prop37
 90
       50
102
RTVSPost2010PropOp37
 70
     1
102
RTVSPost2010Prop38
140
0.0
102
RTVSPost2010PropOp38
 70
     1
102
RTVSPost2010Prop39
140
1.0
102
RTVSPost2010PropOp39
 70
     1
102
RTVSPost2010Prop40
 90
        0
102
RTVSPost2010PropOp40
 70
     1
102
RTVSPost2010Prop41ColorIndex
 90
       18
102
RTVSPost2010Prop41ColorRGB
 90
        0
102
RTVSPost2010PropOp41
 70
     1
102
RTVSPost2010Prop42
 90
       50
102
RTVSPost2010PropOp42
 70
     1
102
RTVSPost2010Prop43
 90
        3
102
RTVSPost2010PropOp43
 70
     1
102
RTVSPost2010Prop44ColorIndex
 90
        5
102
RTVSPost2010Prop44ColorRGB
 90
      255
102
RTVSPost2010PropOp44
 70
     1
102
RTVSPost2010Prop45
280
     0
102
RTVSPost2010PropOp45
 70
     1
102
RTVSPost2010Prop46
 90
       50
102
RTVSPost2010PropOp46
 70
     1
102
RTVSPost2010Prop47
 90
       50
102
RTVSPost2010PropOp47
 70
     1
102
RTVSPost2010Prop48
 90
       50
102
RTVSPost2010PropOp48
 70
     1
102
RTVSPost2010Prop49
280
     0
102
RTVSPost2010PropOp49
 70
     1
102
RTVSPost2010Prop50
 90
       50
102
RTVSPost2010PropOp50
 70
     1
102
RTVSPost2010Prop51ColorIndex
 90
      256
102
RTVSPost2010Prop51ColorRGB
 90
-16777216
102
RTVSPost2010PropOp51
 70
     0
102
RTVSPost2010Prop52
140
1.0
102
RTVSPost2010PropOp52
 70
     0
102
RTVSPost2010Prop53
 90
        2
102
RTVSPost2010PropOp53
 70
     1
102
RTVSPost2010Prop54
  1
strokes_ogs.tif
102
RTVSPost2010PropOp54
 70
     1
102
RTVSPost2010Prop55
280
     0
102
RTVSPost2010PropOp55
 70
     1
102
RTVSPost2010Prop56
140
1.0
102
RTVSPost2010PropOp56
 70
     1
102
RTVSPost2010Prop57
140
1.0
102
RTVSPost2010PropOp57
 70
     1
  0
XRECORD
  5
241
102
{ACAD_REACTORS
330
240
102
}
330
240
100
AcDbXrecord
280
     1
102
RTVSPropertyOp0
 70
     1
102
RTVSPropertyOp1
 70
     1
102
RTVSPropertyOp2
 70
     1
102
RTVSPropertyOp3
 70
     1
102
RTVSPropertyOp4
 70
     1
102
RTVSPropertyOp5
 70
     1
102
RTVSPropertyOp6
 70
     1
102
RTVSPropertyOp7
 70
     1
102
RTVSPropertyOp8
 70
     1
102
RTVSPropertyOp9
 70
     1
102
RTVSPropertyOp10
 70
     1
102
RTVSPropertyOp11
 70
     1
102
RTVSPropertyOp12
 70
     1
102
RTVSPropertyOp13
 70
     1
102
RTVSPropertyOp14
 70
     1
102
RTVSPropertyOp15
 70
     1
102
RTVSPropertyOp16
 70
     1
102
RTVSPropertyOp17
 70
     1
102
RTVSPropertyOp18
 70
     1
102
RTVSPropertyOp19
 70
     1
102
RTVSPropertyOp20
 70
     1
102
RTVSPropertyOp21
 70
     1
102
RTVSPropertyOp22
 70
     1
102
RTVSPropertyOp23
 70
     1
102
RTVSPropertyOp24
 70
     1
102
RTVSPropertyOp25
 70
     1
102
RTVSPropertyOp26
 70
     1
102
RTVSPropertyOp27
 70
     1
102
RTVSPropertyOp28
 70
     1
102
RTVSPropertyOp29
 70
     1
102
RTVSPropertyOp30
 70
     1
102
RTVSPropertyOp31
 70
     1
102
RTVSPropertyOp32
 70
     1
102
RTVSPropertyOp33
 70
     1
102
RTVSPropertyOp34
 70
     1
102
RTVSPropertyOp35
 70
     1
102
RTVSPropertyOp36
 70
     1
102
RTVSPropertyOp37
 70
     1
102
RTVSPropertyOp38
 70
     1
102
RTVSPropertyOp39
 70
     1
102
RTVSPropertyOp40
 70
     1
102
RTVSPropertyOp41
 70
     1
102
RTVSPropertyOp42
 70
     1
102
RTVSPropertyOp43
 70
     1
102
RTVSPropertyOp44
 70
     1
102
RTVSPropertyOp45
 70
     1
102
RTVSPropertyOp46
 70
     1
102
RTVSPropertyOp47
 70
     1
102
RTVSPropertyOp48
 70
     1
102
RTVSPropertyOp49
 70
     1
102
RTVSPropertyOp50
 70
     1
102
RTVSPropertyOp51
 70
     0
102
RTVSPropertyOp52
 70
     0
102
RTVSPropertyOp53
 70
     1
102
RTVSPropertyOp54
 70
     1
102
RTVSPropertyOp55
 70
     1
102
RTVSPropertyOp56
 70
     1
102
RTVSPropertyOp57
 70
     1
102
RTVSPost2010Prop28
280
     0
102
RTVSPost2010PropOp28
 70
     1
102
RTVSPost2010Prop29
280
     1
102
RTVSPost2010PropOp29
 70
     1
102
RTVSPost2010Prop30
280
     1
102
RTVSPost2010PropOp30
 70
     1
102
RTVSPost2010Prop31
280
     0
102
RTVSPost2010PropOp31
 70
     1
102
RTVSPost2010Prop32
280
     0
102
RTVSPost2010PropOp32
 70
     1
102
RTVSPost2010Prop33
280
     0
102
RTVSPost2010PropOp33
 70
     1
102
RTVSPost2010Prop34
280
     0
102
RTVSPost2010PropOp34
 70
     1
102
RTVSPost2010Prop35
280
     0
102
RTVSPost2010PropOp35
 70
     1
102
RTVSPost2010Prop36
280
     0
102
RTVSPost2010PropOp36
 70
     1
102
RTVSPost2010Prop37
 90
       50
102
RTVSPost2010PropOp37
 70
     1
102
RTVSPost2010Prop38
140
0.0
102
RTVSPost2010PropOp38
 70
     1
102
RTVSPost2010Prop39
140
1.0
102
RTVSPost2010PropOp39
 70
     1
102
RTVSPost2010Prop40
 90
        0
102
RTVSPost2010PropOp40
 70
     1
102
RTVSPost2010Prop41ColorIndex
 90
       18
102
RTVSPost2010Prop41ColorRGB
 90
        0
102
RTVSPost2010PropOp41
 70
     1
102
RTVSPost2010Prop42
 90
       50
102
RTVSPost2010PropOp42
 70
     1
102
RTVSPost2010Prop43
 90
        3
102
RTVSPost2010PropOp43
 70
     1
102
RTVSPost2010Prop44ColorIndex
 90
        5
102
RTVSPost2010Prop44ColorRGB
 90
      255
102
RTVSPost2010PropOp44
 70
     1
102
RTVSPost2010Prop45
280
     0
102
RTVSPost2010PropOp45
 70
     1
102
RTVSPost2010Prop46
 90
       50
102
RTVSPost2010PropOp46
 70
     1
102
RTVSPost2010Prop47
 90
       50
102
RTVSPost2010PropOp47
 70
     1
102
RTVSPost2010Prop48
 90
       50
102
RTVSPost2010PropOp48
 70
     1
102
RTVSPost2010Prop49
280
     0
102
RTVSPost2010PropOp49
 70
     1
102
RTVSPost2010Prop50
 90
       50
102
RTVSPost2010PropOp50
 70
     1
102
RTVSPost2010Prop51ColorIndex
 90
      256
102
RTVSPost2010Prop51ColorRGB
 90
-16777216
102
RTVSPost2010PropOp51
 70
     0
102
RTVSPost2010Prop52
140
1.0
102
RTVSPost2010PropOp52
 70
     0
102
RTVSPost2010Prop53
 90
        2
102
RTVSPost2010PropOp53
 70
     1
102
RTVSPost2010Prop54
  1
strokes_ogs.tif
102
RTVSPost2010PropOp54
 70
     1
102
RTVSPost2010Prop55
280
     0
102
RTVSPost2010PropOp55
 70
     1
102
RTVSPost2010Prop56
140
1.0
102
RTVSPost2010PropOp56
 70
     1
102
RTVSPost2010Prop57
140
1.0
102
RTVSPost2010PropOp57
 70
     1
  0
XRECORD
  5
243
102
{ACAD_REACTORS
330
242
102
}
330
242
100
AcDbXrecord
280
     1
102
RTVSPropertyOp0
 70
     1
102
RTVSPropertyOp1
 70
     1
102
RTVSPropertyOp2
 70
     1
102
RTVSPropertyOp3
 70
     1
102
RTVSPropertyOp4
 70
     1
102
RTVSPropertyOp5
 70
     1
102
RTVSPropertyOp6
 70
     1
102
RTVSPropertyOp7
 70
     1
102
RTVSPropertyOp8
 70
     1
102
RTVSPropertyOp9
 70
     1
102
RTVSPropertyOp10
 70
     1
102
RTVSPropertyOp11
 70
     1
102
RTVSPropertyOp12
 70
     1
102
RTVSPropertyOp13
 70
     1
102
RTVSPropertyOp14
 70
     1
102
RTVSPropertyOp15
 70
     1
102
RTVSPropertyOp16
 70
     1
102
RTVSPropertyOp17
 70
     1
102
RTVSPropertyOp18
 70
     1
102
RTVSPropertyOp19
 70
     1
102
RTVSPropertyOp20
 70
     1
102
RTVSPropertyOp21
 70
     1
102
RTVSPropertyOp22
 70
     1
102
RTVSPropertyOp23
 70
     1
102
RTVSPropertyOp24
 70
     1
102
RTVSPropertyOp25
 70
     1
102
RTVSPropertyOp26
 70
     1
102
RTVSPropertyOp27
 70
     1
102
RTVSPropertyOp28
 70
     1
102
RTVSPropertyOp29
 70
     1
102
RTVSPropertyOp30
 70
     1
102
RTVSPropertyOp31
 70
     1
102
RTVSPropertyOp32
 70
     1
102
RTVSPropertyOp33
 70
     1
102
RTVSPropertyOp34
 70
     1
102
RTVSPropertyOp35
 70
     1
102
RTVSPropertyOp36
 70
     1
102
RTVSPropertyOp37
 70
     1
102
RTVSPropertyOp38
 70
     1
102
RTVSPropertyOp39
 70
     1
102
RTVSPropertyOp40
 70
     1
102
RTVSPropertyOp41
 70
     1
102
RTVSPropertyOp42
 70
     1
102
RTVSPropertyOp43
 70
     1
102
RTVSPropertyOp44
 70
     1
102
RTVSPropertyOp45
 70
     1
102
RTVSPropertyOp46
 70
     1
102
RTVSPropertyOp47
 70
     1
102
RTVSPropertyOp48
 70
     1
102
RTVSPropertyOp49
 70
     1
102
RTVSPropertyOp50
 70
     1
102
RTVSPropertyOp51
 70
     0
102
RTVSPropertyOp52
 70
     0
102
RTVSPropertyOp53
 70
     1
102
RTVSPropertyOp54
 70
     1
102
RTVSPropertyOp55
 70
     1
102
RTVSPropertyOp56
 70
     1
102
RTVSPropertyOp57
 70
     1
102
RTVSPost2010Prop28
280
     0
102
RTVSPost2010PropOp28
 70
     1
102
RTVSPost2010Prop29
280
     1
102
RTVSPost2010PropOp29
 70
     1
102
RTVSPost2010Prop30
280
     1
102
RTVSPost2010PropOp30
 70
     1
102
RTVSPost2010Prop31
280
     0
102
RTVSPost2010PropOp31
 70
     1
102
RTVSPost2010Prop32
280
     0
102
RTVSPost2010PropOp32
 70
     1
102
RTVSPost2010Prop33
280
     0
102
RTVSPost2010PropOp33
 70
     1
102
RTVSPost2010Prop34
280
     0
102
RTVSPost2010PropOp34
 70
     1
102
RTVSPost2010Prop35
280
     0
102
RTVSPost2010PropOp35
 70
     1
102
RTVSPost2010Prop36
280
     0
102
RTVSPost2010PropOp36
 70
     1
102
RTVSPost2010Prop37
 90
       50
102
RTVSPost2010PropOp37
 70
     1
102
RTVSPost2010Prop38
140
0.0
102
RTVSPost2010PropOp38
 70
     1
102
RTVSPost2010Prop39
140
1.0
102
RTVSPost2010PropOp39
 70
     1
102
RTVSPost2010Prop40
 90
        0
102
RTVSPost2010PropOp40
 70
     1
102
RTVSPost2010Prop41ColorIndex
 90
       18
102
RTVSPost2010Prop41ColorRGB
 90
        0
102
RTVSPost2010PropOp41
 70
     1
102
RTVSPost2010Prop42
 90
       50
102
RTVSPost2010PropOp42
 70
     1
102
RTVSPost2010Prop43
 90
        3
102
RTVSPost2010PropOp43
 70
     1
102
RTVSPost2010Prop44ColorIndex
 90
        5
102
RTVSPost2010Prop44ColorRGB
 90
      255
102
RTVSPost2010PropOp44
 70
     1
102
RTVSPost2010Prop45
280
     0
102
RTVSPost2010PropOp45
 70
     1
102
RTVSPost2010Prop46
 90
       50
102
RTVSPost2010PropOp46
 70
     1
102
RTVSPost2010Prop47
 90
       50
102
RTVSPost2010PropOp47
 70
     1
102
RTVSPost2010Prop48
 90
       50
102
RTVSPost2010PropOp48
 70
     1
102
RTVSPost2010Prop49
280
     0
102
RTVSPost2010PropOp49
 70
     1
102
RTVSPost2010Prop50
 90
       50
102
RTVSPost2010PropOp50
 70
     1
102
RTVSPost2010Prop51ColorIndex
 90
      256
102
RTVSPost2010Prop51ColorRGB
 90
-16777216
102
RTVSPost2010PropOp51
 70
     0
102
RTVSPost2010Prop52
140
1.0
102
RTVSPost2010PropOp52
 70
     0
102
RTVSPost2010Prop53
 90
        2
102
RTVSPost2010PropOp53
 70
     1
102
RTVSPost2010Prop54
  1
strokes_ogs.tif
102
RTVSPost2010PropOp54
 70
     1
102
RTVSPost2010Prop55
280
     0
102
RTVSPost2010PropOp55
 70
     1
102
RTVSPost2010Prop56
140
1.0
102
RTVSPost2010PropOp56
 70
     1
102
RTVSPost2010Prop57
140
1.0
102
RTVSPost2010PropOp57
 70
     1
  0
XRECORD
  5
245
102
{ACAD_REACTORS
330
244
102
}
330
244
100
AcDbXrecord
280
     1
102
RTVSPropertyOp0
 70
     1
102
RTVSPropertyOp1
 70
     1
102
RTVSPropertyOp2
 70
     1
102
RTVSPropertyOp3
 70
     1
102
RTVSPropertyOp4
 70
     1
102
RTVSPropertyOp5
 70
     1
102
RTVSPropertyOp6
 70
     1
102
RTVSPropertyOp7
 70
     1
102
RTVSPropertyOp8
 70
     1
102
RTVSPropertyOp9
 70
     1
102
RTVSPropertyOp10
 70
     1
102
RTVSPropertyOp11
 70
     1
102
RTVSPropertyOp12
 70
     1
102
RTVSPropertyOp13
 70
     1
102
RTVSPropertyOp14
 70
     1
102
RTVSPropertyOp15
 70
     1
102
RTVSPropertyOp16
 70
     1
102
RTVSPropertyOp17
 70
     1
102
RTVSPropertyOp18
 70
     1
102
RTVSPropertyOp19
 70
     1
102
RTVSPropertyOp20
 70
     1
102
RTVSPropertyOp21
 70
     1
102
RTVSPropertyOp22
 70
     1
102
RTVSPropertyOp23
 70
     1
102
RTVSPropertyOp24
 70
     1
102
RTVSPropertyOp25
 70
     1
102
RTVSPropertyOp26
 70
     1
102
RTVSPropertyOp27
 70
     1
102
RTVSPropertyOp28
 70
     1
102
RTVSPropertyOp29
 70
     1
102
RTVSPropertyOp30
 70
     1
102
RTVSPropertyOp31
 70
     1
102
RTVSPropertyOp32
 70
     1
102
RTVSPropertyOp33
 70
     1
102
RTVSPropertyOp34
 70
     1
102
RTVSPropertyOp35
 70
     1
102
RTVSPropertyOp36
 70
     1
102
RTVSPropertyOp37
 70
     1
102
RTVSPropertyOp38
 70
     1
102
RTVSPropertyOp39
 70
     1
102
RTVSPropertyOp40
 70
     1
102
RTVSPropertyOp41
 70
     1
102
RTVSPropertyOp42
 70
     1
102
RTVSPropertyOp43
 70
     1
102
RTVSPropertyOp44
 70
     1
102
RTVSPropertyOp45
 70
     1
102
RTVSPropertyOp46
 70
     1
102
RTVSPropertyOp47
 70
     1
102
RTVSPropertyOp48
 70
     1
102
RTVSPropertyOp49
 70
     1
102
RTVSPropertyOp50
 70
     1
102
RTVSPropertyOp51
 70
     0
102
RTVSPropertyOp52
 70
     0
102
RTVSPropertyOp53
 70
     1
102
RTVSPropertyOp54
 70
     1
102
RTVSPropertyOp55
 70
     1
102
RTVSPropertyOp56
 70
     1
102
RTVSPropertyOp57
 70
     1
102
RTVSPost2010Prop28
280
     0
102
RTVSPost2010PropOp28
 70
     1
102
RTVSPost2010Prop29
280
     1
102
RTVSPost2010PropOp29
 70
     1
102
RTVSPost2010Prop30
280
     1
102
RTVSPost2010PropOp30
 70
     1
102
RTVSPost2010Prop31
280
     0
102
RTVSPost2010PropOp31
 70
     1
102
RTVSPost2010Prop32
280
     0
102
RTVSPost2010PropOp32
 70
     1
102
RTVSPost2010Prop33
280
     0
102
RTVSPost2010PropOp33
 70
     1
102
RTVSPost2010Prop34
280
     0
102
RTVSPost2010PropOp34
 70
     1
102
RTVSPost2010Prop35
280
     0
102
RTVSPost2010PropOp35
 70
     1
102
RTVSPost2010Prop36
280
     0
102
RTVSPost2010PropOp36
 70
     1
102
RTVSPost2010Prop37
 90
       50
102
RTVSPost2010PropOp37
 70
     1
102
RTVSPost2010Prop38
140
0.0
102
RTVSPost2010PropOp38
 70
     1
102
RTVSPost2010Prop39
140
1.0
102
RTVSPost2010PropOp39
 70
     1
102
RTVSPost2010Prop40
 90
        0
102
RTVSPost2010PropOp40
 70
     1
102
RTVSPost2010Prop41ColorIndex
 90
       18
102
RTVSPost2010Prop41ColorRGB
 90
        0
102
RTVSPost2010PropOp41
 70
     1
102
RTVSPost2010Prop42
 90
       50
102
RTVSPost2010PropOp42
 70
     1
102
RTVSPost2010Prop43
 90
        3
102
RTVSPost2010PropOp43
 70
     1
102
RTVSPost2010Prop44ColorIndex
 90
        5
102
RTVSPost2010Prop44ColorRGB
 90
      255
102
RTVSPost2010PropOp44
 70
     1
102
RTVSPost2010Prop45
280
     0
102
RTVSPost2010PropOp45
 70
     1
102
RTVSPost2010Prop46
 90
       50
102
RTVSPost2010PropOp46
 70
     1
102
RTVSPost2010Prop47
 90
       50
102
RTVSPost2010PropOp47
 70
     1
102
RTVSPost2010Prop48
 90
       50
102
RTVSPost2010PropOp48
 70
     1
102
RTVSPost2010Prop49
280
     0
102
RTVSPost2010PropOp49
 70
     1
102
RTVSPost2010Prop50
 90
       50
102
RTVSPost2010PropOp50
 70
     1
102
RTVSPost2010Prop51ColorIndex
 90
      256
102
RTVSPost2010Prop51ColorRGB
 90
-16777216
102
RTVSPost2010PropOp51
 70
     0
102
RTVSPost2010Prop52
140
1.0
102
RTVSPost2010PropOp52
 70
     0
102
RTVSPost2010Prop53
 90
        2
102
RTVSPost2010PropOp53
 70
     1
102
RTVSPost2010Prop54
  1
strokes_ogs.tif
102
RTVSPost2010PropOp54
 70
     1
102
RTVSPost2010Prop55
280
     0
102
RTVSPost2010PropOp55
 70
     1
102
RTVSPost2010Prop56
140
1.0
102
RTVSPost2010PropOp56
 70
     1
102
RTVSPost2010Prop57
140
1.0
102
RTVSPost2010PropOp57
 70
     1
  0
XRECORD
  5
24B
102
{ACAD_REACTORS
330
24A
102
}
330
24A
100
AcDbXrecord
280
     1
102
RTVSPropertyOp0
 70
     1
102
RTVSPropertyOp1
 70
     1
102
RTVSPropertyOp2
 70
     1
102
RTVSPropertyOp3
 70
     1
102
RTVSPropertyOp4
 70
     1
102
RTVSPropertyOp5
 70
     1
102
RTVSPropertyOp6
 70
     1
102
RTVSPropertyOp7
 70
     1
102
RTVSPropertyOp8
 70
     1
102
RTVSPropertyOp9
 70
     1
102
RTVSPropertyOp10
 70
     1
102
RTVSPropertyOp11
 70
     1
102
RTVSPropertyOp12
 70
     1
102
RTVSPropertyOp13
 70
     1
102
RTVSPropertyOp14
 70
     1
102
RTVSPropertyOp15
 70
     1
102
RTVSPropertyOp16
 70
     1
102
RTVSPropertyOp17
 70
     1
102
RTVSPropertyOp18
 70
     1
102
RTVSPropertyOp19
 70
     1
102
RTVSPropertyOp20
 70
     1
102
RTVSPropertyOp21
 70
     1
102
RTVSPropertyOp22
 70
     1
102
RTVSPropertyOp23
 70
     1
102
RTVSPropertyOp24
 70
     1
102
RTVSPropertyOp25
 70
     1
102
RTVSPropertyOp26
 70
     1
102
RTVSPropertyOp27
 70
     1
102
RTVSPropertyOp28
 70
     1
102
RTVSPropertyOp29
 70
     1
102
RTVSPropertyOp30
 70
     1
102
RTVSPropertyOp31
 70
     1
102
RTVSPropertyOp32
 70
     1
102
RTVSPropertyOp33
 70
     1
102
RTVSPropertyOp34
 70
     1
102
RTVSPropertyOp35
 70
     1
102
RTVSPropertyOp36
 70
     1
102
RTVSPropertyOp37
 70
     1
102
RTVSPropertyOp38
 70
     1
102
RTVSPropertyOp39
 70
     1
102
RTVSPropertyOp40
 70
     1
102
RTVSPropertyOp41
 70
     1
102
RTVSPropertyOp42
 70
     1
102
RTVSPropertyOp43
 70
     1
102
RTVSPropertyOp44
 70
     1
102
RTVSPropertyOp45
 70
     1
102
RTVSPropertyOp46
 70
     1
102
RTVSPropertyOp47
 70
     1
102
RTVSPropertyOp48
 70
     1
102
RTVSPropertyOp49
 70
     1
102
RTVSPropertyOp50
 70
     1
102
RTVSPropertyOp51
 70
     0
102
RTVSPropertyOp52
 70
     0
102
RTVSPropertyOp53
 70
     1
102
RTVSPropertyOp54
 70
     1
102
RTVSPropertyOp55
 70
     1
102
RTVSPropertyOp56
 70
     1
102
RTVSPropertyOp57
 70
     1
102
RTVSPost2010Prop28
280
     0
102
RTVSPost2010PropOp28
 70
     1
102
RTVSPost2010Prop29
280
     1
102
RTVSPost2010PropOp29
 70
     1
102
RTVSPost2010Prop30
280
     1
102
RTVSPost2010PropOp30
 70
     1
102
RTVSPost2010Prop31
280
     0
102
RTVSPost2010PropOp31
 70
     1
102
RTVSPost2010Prop32
280
     0
102
RTVSPost2010PropOp32
 70
     1
102
RTVSPost2010Prop33
280
     0
102
RTVSPost2010PropOp33
 70
     1
102
RTVSPost2010Prop34
280
     0
102
RTVSPost2010PropOp34
 70
     1
102
RTVSPost2010Prop35
280
     0
102
RTVSPost2010PropOp35
 70
     1
102
RTVSPost2010Prop36
280
     0
102
RTVSPost2010PropOp36
 70
     1
102
RTVSPost2010Prop37
 90
       50
102
RTVSPost2010PropOp37
 70
     1
102
RTVSPost2010Prop38
140
0.0
102
RTVSPost2010PropOp38
 70
     1
102
RTVSPost2010Prop39
140
1.0
102
RTVSPost2010PropOp39
 70
     1
102
RTVSPost2010Prop40
 90
        0
102
RTVSPost2010PropOp40
 70
     1
102
RTVSPost2010Prop41ColorIndex
 90
       18
102
RTVSPost2010Prop41ColorRGB
 90
        0
102
RTVSPost2010PropOp41
 70
     1
102
RTVSPost2010Prop42
 90
       50
102
RTVSPost2010PropOp42
 70
     1
102
RTVSPost2010Prop43
 90
        3
102
RTVSPost2010PropOp43
 70
     1
102
RTVSPost2010Prop44ColorIndex
 90
        5
102
RTVSPost2010Prop44ColorRGB
 90
      255
102
RTVSPost2010PropOp44
 70
     1
102
RTVSPost2010Prop45
280
     0
102
RTVSPost2010PropOp45
 70
     1
102
RTVSPost2010Prop46
 90
       50
102
RTVSPost2010PropOp46
 70
     1
102
RTVSPost2010Prop47
 90
       50
102
RTVSPost2010PropOp47
 70
     1
102
RTVSPost2010Prop48
 90
       50
102
RTVSPost2010PropOp48
 70
     1
102
RTVSPost2010Prop49
280
     0
102
RTVSPost2010PropOp49
 70
     1
102
RTVSPost2010Prop50
 90
       50
102
RTVSPost2010PropOp50
 70
     1
102
RTVSPost2010Prop51ColorIndex
 90
      256
102
RTVSPost2010Prop51ColorRGB
 90
-16777216
102
RTVSPost2010PropOp51
 70
     0
102
RTVSPost2010Prop52
140
1.0
102
RTVSPost2010PropOp52
 70
     0
102
RTVSPost2010Prop53
 90
        2
102
RTVSPost2010PropOp53
 70
     1
102
RTVSPost2010Prop54
  1
strokes_ogs.tif
102
RTVSPost2010PropOp54
 70
     1
102
RTVSPost2010Prop55
280
     0
102
RTVSPost2010PropOp55
 70
     1
102
RTVSPost2010Prop56
140
1.0
102
RTVSPost2010PropOp56
 70
     1
102
RTVSPost2010Prop57
140
1.0
102
RTVSPost2010PropOp57
 70
     1
  0
XRECORD
  5
25F
102
{ACAD_REACTORS
330
25E
102
}
330
25E
100
AcDbXrecord
280
     1
102
RTVSPropertyOp0
 70
     0
102
RTVSPropertyOp1
 70
     0
102
RTVSPropertyOp2
 70
     0
102
RTVSPropertyOp3
 70
     0
102
RTVSPropertyOp4
 70
     0
102
RTVSPropertyOp5
 70
     0
102
RTVSPropertyOp6
 70
     0
102
RTVSPropertyOp7
 70
     0
102
RTVSPropertyOp8
 70
     0
102
RTVSPropertyOp9
 70
     0
102
RTVSPropertyOp10
 70
     0
102
RTVSPropertyOp11
 70
     0
102
RTVSPropertyOp12
 70
     0
102
RTVSPropertyOp13
 70
     0
102
RTVSPropertyOp14
 70
     2
102
RTVSPropertyOp15
 70
     0
102
RTVSPropertyOp16
 70
     0
102
RTVSPropertyOp17
 70
     0
102
RTVSPropertyOp18
 70
     0
102
RTVSPropertyOp19
 70
     0
102
RTVSPropertyOp20
 70
     0
102
RTVSPropertyOp21
 70
     0
102
RTVSPropertyOp22
 70
     0
102
RTVSPropertyOp23
 70
     0
102
RTVSPropertyOp24
 70
     0
102
RTVSPropertyOp25
 70
     0
102
RTVSPropertyOp26
 70
     0
102
RTVSPropertyOp27
 70
     0
102
RTVSPropertyOp28
 70
     0
102
RTVSPropertyOp29
 70
     0
102
RTVSPropertyOp30
 70
     0
102
RTVSPropertyOp31
 70
     0
102
RTVSPropertyOp32
 70
     0
102
RTVSPropertyOp33
 70
     0
102
RTVSPropertyOp34
 70
     0
102
RTVSPropertyOp35
 70
     0
102
RTVSPropertyOp36
 70
     0
102
RTVSPropertyOp37
 70
     0
102
RTVSPropertyOp38
 70
     0
102
RTVSPropertyOp39
 70
     0
102
RTVSPropertyOp40
 70
     0
102
RTVSPropertyOp41
 70
     0
102
RTVSPropertyOp42
 70
     0
102
RTVSPropertyOp43
 70
     0
102
RTVSPropertyOp44
 70
     0
102
RTVSPropertyOp45
 70
     0
102
RTVSPropertyOp46
 70
     0
102
RTVSPropertyOp47
 70
     0
102
RTVSPropertyOp48
 70
     0
102
RTVSPropertyOp49
 70
     0
102
RTVSPropertyOp50
 70
     0
102
RTVSPropertyOp51
 70
     0
102
RTVSPropertyOp52
 70
     0
102
RTVSPropertyOp53
 70
     0
102
RTVSPropertyOp54
 70
     0
102
RTVSPropertyOp55
 70
     0
102
RTVSPropertyOp56
 70
     0
102
RTVSPropertyOp57
 70
     0
102
RTVSPost2010Prop28
280
     0
102
RTVSPost2010PropOp28
 70
     0
102
RTVSPost2010Prop29
280
     1
102
RTVSPost2010PropOp29
 70
     0
102
RTVSPost2010Prop30
280
     1
102
RTVSPost2010PropOp30
 70
     0
102
RTVSPost2010Prop31
280
     0
102
RTVSPost2010PropOp31
 70
     0
102
RTVSPost2010Prop32
280
     0
102
RTVSPost2010PropOp32
 70
     0
102
RTVSPost2010Prop33
280
     0
102
RTVSPost2010PropOp33
 70
     0
102
RTVSPost2010Prop34
280
     0
102
RTVSPost2010PropOp34
 70
     0
102
RTVSPost2010Prop35
280
     0
102
RTVSPost2010PropOp35
 70
     0
102
RTVSPost2010Prop36
280
     0
102
RTVSPost2010PropOp36
 70
     0
102
RTVSPost2010Prop37
 90
       50
102
RTVSPost2010PropOp37
 70
     0
102
RTVSPost2010Prop38
140
0.0
102
RTVSPost2010PropOp38
 70
     0
102
RTVSPost2010Prop39
140
1.0
102
RTVSPost2010PropOp39
 70
     0
102
RTVSPost2010Prop40
 90
        0
102
RTVSPost2010PropOp40
 70
     0
102
RTVSPost2010Prop41ColorIndex
 90
       18
102
RTVSPost2010Prop41ColorRGB
 90
        0
102
RTVSPost2010PropOp41
 70
     0
102
RTVSPost2010Prop42
 90
       50
102
RTVSPost2010PropOp42
 70
     0
102
RTVSPost2010Prop43
 90
        3
102
RTVSPost2010PropOp43
 70
     0
102
RTVSPost2010Prop44ColorIndex
 90
        5
102
RTVSPost2010Prop44ColorRGB
 90
      255
102
RTVSPost2010PropOp44
 70
     0
102
RTVSPost2010Prop45
280
     0
102
RTVSPost2010PropOp45
 70
     0
102
RTVSPost2010Prop46
 90
       50
102
RTVSPost2010PropOp46
 70
     0
102
RTVSPost2010Prop47
 90
       50
102
RTVSPost2010PropOp47
 70
     0
102
RTVSPost2010Prop48
 90
       50
102
RTVSPost2010PropOp48
 70
     0
102
RTVSPost2010Prop49
280
     0
102
RTVSPost2010PropOp49
 70
     0
102
RTVSPost2010Prop50
 90
       50
102
RTVSPost2010PropOp50
 70
     0
102
RTVSPost2010Prop51ColorIndex
 90
      256
102
RTVSPost2010Prop51ColorRGB
 90
-16777216
102
RTVSPost2010PropOp51
 70
     0
102
RTVSPost2010Prop52
140
1.0
102
RTVSPost2010PropOp52
 70
     0
102
RTVSPost2010Prop53
 90
        2
102
RTVSPost2010PropOp53
 70
     0
102
RTVSPost2010Prop54
  1
strokes_ogs.tif
102
RTVSPost2010PropOp54
 70
     0
102
RTVSPost2010Prop55
280
     0
102
RTVSPost2010PropOp55
 70
     0
102
RTVSPost2010Prop56
140
1.0
102
RTVSPost2010PropOp56
 70
     0
102
RTVSPost2010Prop57
140
1.0
102
RTVSPost2010PropOp57
 70
     0
  0
XRECORD
  5
259
102
{ACAD_REACTORS
330
258
102
}
330
258
100
AcDbXrecord
280
     1
102
RTVSPropertyOp0
 70
     1
102
RTVSPropertyOp1
 70
     1
102
RTVSPropertyOp2
 70
     1
102
RTVSPropertyOp3
 70
     1
102
RTVSPropertyOp4
 70
     1
102
RTVSPropertyOp5
 70
     1
102
RTVSPropertyOp6
 70
     1
102
RTVSPropertyOp7
 70
     1
102
RTVSPropertyOp8
 70
     1
102
RTVSPropertyOp9
 70
     1
102
RTVSPropertyOp10
 70
     1
102
RTVSPropertyOp11
 70
     1
102
RTVSPropertyOp12
 70
     1
102
RTVSPropertyOp13
 70
     1
102
RTVSPropertyOp14
 70
     1
102
RTVSPropertyOp15
 70
     1
102
RTVSPropertyOp16
 70
     1
102
RTVSPropertyOp17
 70
     1
102
RTVSPropertyOp18
 70
     1
102
RTVSPropertyOp19
 70
     1
102
RTVSPropertyOp20
 70
     1
102
RTVSPropertyOp21
 70
     1
102
RTVSPropertyOp22
 70
     1
102
RTVSPropertyOp23
 70
     1
102
RTVSPropertyOp24
 70
     1
102
RTVSPropertyOp25
 70
     1
102
RTVSPropertyOp26
 70
     1
102
RTVSPropertyOp27
 70
     1
102
RTVSPropertyOp28
 70
     1
102
RTVSPropertyOp29
 70
     1
102
RTVSPropertyOp30
 70
     1
102
RTVSPropertyOp31
 70
     1
102
RTVSPropertyOp32
 70
     1
102
RTVSPropertyOp33
 70
     1
102
RTVSPropertyOp34
 70
     1
102
RTVSPropertyOp35
 70
     1
102
RTVSPropertyOp36
 70
     1
102
RTVSPropertyOp37
 70
     1
102
RTVSPropertyOp38
 70
     1
102
RTVSPropertyOp39
 70
     1
102
RTVSPropertyOp40
 70
     1
102
RTVSPropertyOp41
 70
     1
102
RTVSPropertyOp42
 70
     1
102
RTVSPropertyOp43
 70
     1
102
RTVSPropertyOp44
 70
     1
102
RTVSPropertyOp45
 70
     1
102
RTVSPropertyOp46
 70
     1
102
RTVSPropertyOp47
 70
     1
102
RTVSPropertyOp48
 70
     1
102
RTVSPropertyOp49
 70
     1
102
RTVSPropertyOp50
 70
     1
102
RTVSPropertyOp51
 70
     0
102
RTVSPropertyOp52
 70
     0
102
RTVSPropertyOp53
 70
     1
102
RTVSPropertyOp54
 70
     1
102
RTVSPropertyOp55
 70
     1
102
RTVSPropertyOp56
 70
     1
102
RTVSPropertyOp57
 70
     1
102
RTVSPost2010Prop28
280
     0
102
RTVSPost2010PropOp28
 70
     1
102
RTVSPost2010Prop29
280
     1
102
RTVSPost2010PropOp29
 70
     1
102
RTVSPost2010Prop30
280
     1
102
RTVSPost2010PropOp30
 70
     1
102
RTVSPost2010Prop31
280
     0
102
RTVSPost2010PropOp31
 70
     1
102
RTVSPost2010Prop32
280
     0
102
RTVSPost2010PropOp32
 70
     1
102
RTVSPost2010Prop33
280
     0
102
RTVSPost2010PropOp33
 70
     1
102
RTVSPost2010Prop34
280
     0
102
RTVSPost2010PropOp34
 70
     1
102
RTVSPost2010Prop35
280
     0
102
RTVSPost2010PropOp35
 70
     1
102
RTVSPost2010Prop36
280
     0
102
RTVSPost2010PropOp36
 70
     1
102
RTVSPost2010Prop37
 90
       50
102
RTVSPost2010PropOp37
 70
     1
102
RTVSPost2010Prop38
140
0.0
102
RTVSPost2010PropOp38
 70
     1
102
RTVSPost2010Prop39
140
1.0
102
RTVSPost2010PropOp39
 70
     1
102
RTVSPost2010Prop40
 90
        0
102
RTVSPost2010PropOp40
 70
     1
102
RTVSPost2010Prop41ColorIndex
 90
       18
102
RTVSPost2010Prop41ColorRGB
 90
        0
102
RTVSPost2010PropOp41
 70
     1
102
RTVSPost2010Prop42
 90
       50
102
RTVSPost2010PropOp42
 70
     1
102
RTVSPost2010Prop43
 90
        3
102
RTVSPost2010PropOp43
 70
     1
102
RTVSPost2010Prop44ColorIndex
 90
        5
102
RTVSPost2010Prop44ColorRGB
 90
      255
102
RTVSPost2010PropOp44
 70
     1
102
RTVSPost2010Prop45
280
     0
102
RTVSPost2010PropOp45
 70
     1
102
RTVSPost2010Prop46
 90
       50
102
RTVSPost2010PropOp46
 70
     1
102
RTVSPost2010Prop47
 90
       50
102
RTVSPost2010PropOp47
 70
     1
102
RTVSPost2010Prop48
 90
       50
102
RTVSPost2010PropOp48
 70
     1
102
RTVSPost2010Prop49
280
     0
102
RTVSPost2010PropOp49
 70
     1
102
RTVSPost2010Prop50
 90
       50
102
RTVSPost2010PropOp50
 70
     1
102
RTVSPost2010Prop51ColorIndex
 90
      256
102
RTVSPost2010Prop51ColorRGB
 90
-16777216
102
RTVSPost2010PropOp51
 70
     0
102
RTVSPost2010Prop52
140
1.0
102
RTVSPost2010PropOp52
 70
     0
102
RTVSPost2010Prop53
 90
        2
102
RTVSPost2010PropOp53
 70
     1
102
RTVSPost2010Prop54
  1
strokes_ogs.tif
102
RTVSPost2010PropOp54
 70
     1
102
RTVSPost2010Prop55
280
     0
102
RTVSPost2010PropOp55
 70
     1
102
RTVSPost2010Prop56
140
1.0
102
RTVSPost2010PropOp56
 70
     1
102
RTVSPost2010Prop57
140
1.0
102
RTVSPost2010PropOp57
 70
     1
  0
XRECORD
  5
261
102
{ACAD_REACTORS
330
260
102
}
330
260
100
AcDbXrecord
280
     1
102
RTVSPropertyOp0
 70
     0
102
RTVSPropertyOp1
 70
     0
102
RTVSPropertyOp2
 70
     0
102
RTVSPropertyOp3
 70
     0
102
RTVSPropertyOp4
 70
     0
102
RTVSPropertyOp5
 70
     0
102
RTVSPropertyOp6
 70
     0
102
RTVSPropertyOp7
 70
     0
102
RTVSPropertyOp8
 70
     0
102
RTVSPropertyOp9
 70
     0
102
RTVSPropertyOp10
 70
     0
102
RTVSPropertyOp11
 70
     0
102
RTVSPropertyOp12
 70
     0
102
RTVSPropertyOp13
 70
     0
102
RTVSPropertyOp14
 70
     2
102
RTVSPropertyOp15
 70
     0
102
RTVSPropertyOp16
 70
     0
102
RTVSPropertyOp17
 70
     0
102
RTVSPropertyOp18
 70
     0
102
RTVSPropertyOp19
 70
     0
102
RTVSPropertyOp20
 70
     0
102
RTVSPropertyOp21
 70
     0
102
RTVSPropertyOp22
 70
     0
102
RTVSPropertyOp23
 70
     0
102
RTVSPropertyOp24
 70
     0
102
RTVSPropertyOp25
 70
     0
102
RTVSPropertyOp26
 70
     0
102
RTVSPropertyOp27
 70
     0
102
RTVSPropertyOp28
 70
     0
102
RTVSPropertyOp29
 70
     0
102
RTVSPropertyOp30
 70
     0
102
RTVSPropertyOp31
 70
     0
102
RTVSPropertyOp32
 70
     0
102
RTVSPropertyOp33
 70
     0
102
RTVSPropertyOp34
 70
     0
102
RTVSPropertyOp35
 70
     0
102
RTVSPropertyOp36
 70
     0
102
RTVSPropertyOp37
 70
     0
102
RTVSPropertyOp38
 70
     0
102
RTVSPropertyOp39
 70
     0
102
RTVSPropertyOp40
 70
     0
102
RTVSPropertyOp41
 70
     0
102
RTVSPropertyOp42
 70
     0
102
RTVSPropertyOp43
 70
     0
102
RTVSPropertyOp44
 70
     0
102
RTVSPropertyOp45
 70
     0
102
RTVSPropertyOp46
 70
     0
102
RTVSPropertyOp47
 70
     0
102
RTVSPropertyOp48
 70
     0
102
RTVSPropertyOp49
 70
     0
102
RTVSPropertyOp50
 70
     0
102
RTVSPropertyOp51
 70
     0
102
RTVSPropertyOp52
 70
     0
102
RTVSPropertyOp53
 70
     0
102
RTVSPropertyOp54
 70
     0
102
RTVSPropertyOp55
 70
     0
102
RTVSPropertyOp56
 70
     0
102
RTVSPropertyOp57
 70
     0
102
RTVSPost2010Prop28
280
     0
102
RTVSPost2010PropOp28
 70
     0
102
RTVSPost2010Prop29
280
     1
102
RTVSPost2010PropOp29
 70
     0
102
RTVSPost2010Prop30
280
     1
102
RTVSPost2010PropOp30
 70
     0
102
RTVSPost2010Prop31
280
     0
102
RTVSPost2010PropOp31
 70
     0
102
RTVSPost2010Prop32
280
     0
102
RTVSPost2010PropOp32
 70
     0
102
RTVSPost2010Prop33
280
     0
102
RTVSPost2010PropOp33
 70
     0
102
RTVSPost2010Prop34
280
     0
102
RTVSPost2010PropOp34
 70
     0
102
RTVSPost2010Prop35
280
     0
102
RTVSPost2010PropOp35
 70
     0
102
RTVSPost2010Prop36
280
     0
102
RTVSPost2010PropOp36
 70
     0
102
RTVSPost2010Prop37
 90
       50
102
RTVSPost2010PropOp37
 70
     0
102
RTVSPost2010Prop38
140
0.0
102
RTVSPost2010PropOp38
 70
     0
102
RTVSPost2010Prop39
140
1.0
102
RTVSPost2010PropOp39
 70
     0
102
RTVSPost2010Prop40
 90
        0
102
RTVSPost2010PropOp40
 70
     0
102
RTVSPost2010Prop41ColorIndex
 90
       18
102
RTVSPost2010Prop41ColorRGB
 90
        0
102
RTVSPost2010PropOp41
 70
     0
102
RTVSPost2010Prop42
 90
       50
102
RTVSPost2010PropOp42
 70
     0
102
RTVSPost2010Prop43
 90
        3
102
RTVSPost2010PropOp43
 70
     0
102
RTVSPost2010Prop44ColorIndex
 90
        5
102
RTVSPost2010Prop44ColorRGB
 90
      255
102
RTVSPost2010PropOp44
 70
     0
102
RTVSPost2010Prop45
280
     0
102
RTVSPost2010PropOp45
 70
     0
102
RTVSPost2010Prop46
 90
       50
102
RTVSPost2010PropOp46
 70
     0
102
RTVSPost2010Prop47
 90
       50
102
RTVSPost2010PropOp47
 70
     0
102
RTVSPost2010Prop48
 90
       50
102
RTVSPost2010PropOp48
 70
     0
102
RTVSPost2010Prop49
280
     0
102
RTVSPost2010PropOp49
 70
     0
102
RTVSPost2010Prop50
 90
       50
102
RTVSPost2010PropOp50
 70
     0
102
RTVSPost2010Prop51ColorIndex
 90
      256
102
RTVSPost2010Prop51ColorRGB
 90
-16777216
102
RTVSPost2010PropOp51
 70
     0
102
RTVSPost2010Prop52
140
1.0
102
RTVSPost2010PropOp52
 70
     0
102
RTVSPost2010Prop53
 90
        2
102
RTVSPost2010PropOp53
 70
     0
102
RTVSPost2010Prop54
  1
strokes_ogs.tif
102
RTVSPost2010PropOp54
 70
     0
102
RTVSPost2010Prop55
280
     0
102
RTVSPost2010PropOp55
 70
     0
102
RTVSPost2010Prop56
140
1.0
102
RTVSPost2010PropOp56
 70
     0
102
RTVSPost2010Prop57
140
1.0
102
RTVSPost2010PropOp57
 70
     0
  0
XRECORD
  5
24F
102
{ACAD_REACTORS
330
24E
102
}
330
24E
100
AcDbXrecord
280
     1
102
RTVSPropertyOp0
 70
     1
102
RTVSPropertyOp1
 70
     1
102
RTVSPropertyOp2
 70
     1
102
RTVSPropertyOp3
 70
     1
102
RTVSPropertyOp4
 70
     1
102
RTVSPropertyOp5
 70
     1
102
RTVSPropertyOp6
 70
     1
102
RTVSPropertyOp7
 70
     1
102
RTVSPropertyOp8
 70
     1
102
RTVSPropertyOp9
 70
     1
102
RTVSPropertyOp10
 70
     1
102
RTVSPropertyOp11
 70
     1
102
RTVSPropertyOp12
 70
     1
102
RTVSPropertyOp13
 70
     1
102
RTVSPropertyOp14
 70
     1
102
RTVSPropertyOp15
 70
     1
102
RTVSPropertyOp16
 70
     1
102
RTVSPropertyOp17
 70
     1
102
RTVSPropertyOp18
 70
     1
102
RTVSPropertyOp19
 70
     1
102
RTVSPropertyOp20
 70
     1
102
RTVSPropertyOp21
 70
     1
102
RTVSPropertyOp22
 70
     1
102
RTVSPropertyOp23
 70
     1
102
RTVSPropertyOp24
 70
     1
102
RTVSPropertyOp25
 70
     1
102
RTVSPropertyOp26
 70
     1
102
RTVSPropertyOp27
 70
     1
102
RTVSPropertyOp28
 70
     1
102
RTVSPropertyOp29
 70
     1
102
RTVSPropertyOp30
 70
     1
102
RTVSPropertyOp31
 70
     1
102
RTVSPropertyOp32
 70
     1
102
RTVSPropertyOp33
 70
     1
102
RTVSPropertyOp34
 70
     1
102
RTVSPropertyOp35
 70
     1
102
RTVSPropertyOp36
 70
     1
102
RTVSPropertyOp37
 70
     1
102
RTVSPropertyOp38
 70
     1
102
RTVSPropertyOp39
 70
     1
102
RTVSPropertyOp40
 70
     1
102
RTVSPropertyOp41
 70
     1
102
RTVSPropertyOp42
 70
     1
102
RTVSPropertyOp43
 70
     1
102
RTVSPropertyOp44
 70
     1
102
RTVSPropertyOp45
 70
     1
102
RTVSPropertyOp46
 70
     1
102
RTVSPropertyOp47
 70
     1
102
RTVSPropertyOp48
 70
     1
102
RTVSPropertyOp49
 70
     1
102
RTVSPropertyOp50
 70
     1
102
RTVSPropertyOp51
 70
     0
102
RTVSPropertyOp52
 70
     0
102
RTVSPropertyOp53
 70
     1
102
RTVSPropertyOp54
 70
     1
102
RTVSPropertyOp55
 70
     1
102
RTVSPropertyOp56
 70
     1
102
RTVSPropertyOp57
 70
     1
102
RTVSPost2010Prop28
280
     0
102
RTVSPost2010PropOp28
 70
     1
102
RTVSPost2010Prop29
280
     1
102
RTVSPost2010PropOp29
 70
     1
102
RTVSPost2010Prop30
280
     1
102
RTVSPost2010PropOp30
 70
     1
102
RTVSPost2010Prop31
280
     0
102
RTVSPost2010PropOp31
 70
     1
102
RTVSPost2010Prop32
280
     0
102
RTVSPost2010PropOp32
 70
     1
102
RTVSPost2010Prop33
280
     0
102
RTVSPost2010PropOp33
 70
     1
102
RTVSPost2010Prop34
280
     0
102
RTVSPost2010PropOp34
 70
     1
102
RTVSPost2010Prop35
280
     0
102
RTVSPost2010PropOp35
 70
     1
102
RTVSPost2010Prop36
280
     0
102
RTVSPost2010PropOp36
 70
     1
102
RTVSPost2010Prop37
 90
       50
102
RTVSPost2010PropOp37
 70
     1
102
RTVSPost2010Prop38
140
0.0
102
RTVSPost2010PropOp38
 70
     1
102
RTVSPost2010Prop39
140
1.0
102
RTVSPost2010PropOp39
 70
     1
102
RTVSPost2010Prop40
 90
        0
102
RTVSPost2010PropOp40
 70
     1
102
RTVSPost2010Prop41ColorIndex
 90
       18
102
RTVSPost2010Prop41ColorRGB
 90
        0
102
RTVSPost2010PropOp41
 70
     1
102
RTVSPost2010Prop42
 90
       50
102
RTVSPost2010PropOp42
 70
     1
102
RTVSPost2010Prop43
 90
        3
102
RTVSPost2010PropOp43
 70
     1
102
RTVSPost2010Prop44ColorIndex
 90
        5
102
RTVSPost2010Prop44ColorRGB
 90
      255
102
RTVSPost2010PropOp44
 70
     1
102
RTVSPost2010Prop45
280
     0
102
RTVSPost2010PropOp45
 70
     1
102
RTVSPost2010Prop46
 90
       50
102
RTVSPost2010PropOp46
 70
     1
102
RTVSPost2010Prop47
 90
       50
102
RTVSPost2010PropOp47
 70
     1
102
RTVSPost2010Prop48
 90
       50
102
RTVSPost2010PropOp48
 70
     1
102
RTVSPost2010Prop49
280
     0
102
RTVSPost2010PropOp49
 70
     1
102
RTVSPost2010Prop50
 90
       50
102
RTVSPost2010PropOp50
 70
     1
102
RTVSPost2010Prop51ColorIndex
 90
      256
102
RTVSPost2010Prop51ColorRGB
 90
-16777216
102
RTVSPost2010PropOp51
 70
     0
102
RTVSPost2010Prop52
140
1.0
102
RTVSPost2010PropOp52
 70
     0
102
RTVSPost2010Prop53
 90
        2
102
RTVSPost2010PropOp53
 70
     1
102
RTVSPost2010Prop54
  1
strokes_ogs.tif
102
RTVSPost2010PropOp54
 70
     1
102
RTVSPost2010Prop55
280
     0
102
RTVSPost2010PropOp55
 70
     1
102
RTVSPost2010Prop56
140
1.0
102
RTVSPost2010PropOp56
 70
     1
102
RTVSPost2010Prop57
140
1.0
102
RTVSPost2010PropOp57
 70
     1
  0
XRECORD
  5
26D
102
{ACAD_REACTORS
330
26C
102
}
330
26C
100
AcDbXrecord
280
     1
102
RTVSPropertyOp0
 70
     1
102
RTVSPropertyOp1
 70
     1
102
RTVSPropertyOp2
 70
     1
102
RTVSPropertyOp3
 70
     1
102
RTVSPropertyOp4
 70
     1
102
RTVSPropertyOp5
 70
     1
102
RTVSPropertyOp6
 70
     1
102
RTVSPropertyOp7
 70
     1
102
RTVSPropertyOp8
 70
     1
102
RTVSPropertyOp9
 70
     1
102
RTVSPropertyOp10
 70
     1
102
RTVSPropertyOp11
 70
     1
102
RTVSPropertyOp12
 70
     1
102
RTVSPropertyOp13
 70
     1
102
RTVSPropertyOp14
 70
     1
102
RTVSPropertyOp15
 70
     1
102
RTVSPropertyOp16
 70
     1
102
RTVSPropertyOp17
 70
     1
102
RTVSPropertyOp18
 70
     1
102
RTVSPropertyOp19
 70
     1
102
RTVSPropertyOp20
 70
     1
102
RTVSPropertyOp21
 70
     1
102
RTVSPropertyOp22
 70
     1
102
RTVSPropertyOp23
 70
     1
102
RTVSPropertyOp24
 70
     1
102
RTVSPropertyOp25
 70
     1
102
RTVSPropertyOp26
 70
     1
102
RTVSPropertyOp27
 70
     1
102
RTVSPropertyOp28
 70
     1
102
RTVSPropertyOp29
 70
     1
102
RTVSPropertyOp30
 70
     1
102
RTVSPropertyOp31
 70
     1
102
RTVSPropertyOp32
 70
     1
102
RTVSPropertyOp33
 70
     1
102
RTVSPropertyOp34
 70
     1
102
RTVSPropertyOp35
 70
     1
102
RTVSPropertyOp36
 70
     1
102
RTVSPropertyOp37
 70
     1
102
RTVSPropertyOp38
 70
     1
102
RTVSPropertyOp39
 70
     1
102
RTVSPropertyOp40
 70
     1
102
RTVSPropertyOp41
 70
     1
102
RTVSPropertyOp42
 70
     1
102
RTVSPropertyOp43
 70
     1
102
RTVSPropertyOp44
 70
     1
102
RTVSPropertyOp45
 70
     1
102
RTVSPropertyOp46
 70
     1
102
RTVSPropertyOp47
 70
     1
102
RTVSPropertyOp48
 70
     1
102
RTVSPropertyOp49
 70
     1
102
RTVSPropertyOp50
 70
     1
102
RTVSPropertyOp51
 70
     0
102
RTVSPropertyOp52
 70
     0
102
RTVSPropertyOp53
 70
     1
102
RTVSPropertyOp54
 70
     1
102
RTVSPropertyOp55
 70
     1
102
RTVSPropertyOp56
 70
     1
102
RTVSPropertyOp57
 70
     1
102
RTVSPost2010Prop28
280
     0
102
RTVSPost2010PropOp28
 70
     1
102
RTVSPost2010Prop29
280
     1
102
RTVSPost2010PropOp29
 70
     1
102
RTVSPost2010Prop30
280
     1
102
RTVSPost2010PropOp30
 70
     1
102
RTVSPost2010Prop31
280
     0
102
RTVSPost2010PropOp31
 70
     1
102
RTVSPost2010Prop32
280
     0
102
RTVSPost2010PropOp32
 70
     1
102
RTVSPost2010Prop33
280
     0
102
RTVSPost2010PropOp33
 70
     1
102
RTVSPost2010Prop34
280
     0
102
RTVSPost2010PropOp34
 70
     1
102
RTVSPost2010Prop35
280
     0
102
RTVSPost2010PropOp35
 70
     1
102
RTVSPost2010Prop36
280
     0
102
RTVSPost2010PropOp36
 70
     1
102
RTVSPost2010Prop37
 90
       50
102
RTVSPost2010PropOp37
 70
     1
102
RTVSPost2010Prop38
140
0.0
102
RTVSPost2010PropOp38
 70
     1
102
RTVSPost2010Prop39
140
1.0
102
RTVSPost2010PropOp39
 70
     1
102
RTVSPost2010Prop40
 90
        0
102
RTVSPost2010PropOp40
 70
     1
102
RTVSPost2010Prop41ColorIndex
 90
       18
102
RTVSPost2010Prop41ColorRGB
 90
        0
102
RTVSPost2010PropOp41
 70
     1
102
RTVSPost2010Prop42
 90
       50
102
RTVSPost2010PropOp42
 70
     1
102
RTVSPost2010Prop43
 90
        3
102
RTVSPost2010PropOp43
 70
     1
102
RTVSPost2010Prop44ColorIndex
 90
        5
102
RTVSPost2010Prop44ColorRGB
 90
      255
102
RTVSPost2010PropOp44
 70
     1
102
RTVSPost2010Prop45
280
     0
102
RTVSPost2010PropOp45
 70
     1
102
RTVSPost2010Prop46
 90
       50
102
RTVSPost2010PropOp46
 70
     1
102
RTVSPost2010Prop47
 90
       50
102
RTVSPost2010PropOp47
 70
     1
102
RTVSPost2010Prop48
 90
       50
102
RTVSPost2010PropOp48
 70
     1
102
RTVSPost2010Prop49
280
     0
102
RTVSPost2010PropOp49
 70
     1
102
RTVSPost2010Prop50
 90
       50
102
RTVSPost2010PropOp50
 70
     1
102
RTVSPost2010Prop51ColorIndex
 90
      256
102
RTVSPost2010Prop51ColorRGB
 90
-16777216
102
RTVSPost2010PropOp51
 70
     0
102
RTVSPost2010Prop52
140
1.0
102
RTVSPost2010PropOp52
 70
     0
102
RTVSPost2010Prop53
 90
        2
102
RTVSPost2010PropOp53
 70
     1
102
RTVSPost2010Prop54
  1
strokes_ogs.tif
102
RTVSPost2010PropOp54
 70
     1
102
RTVSPost2010Prop55
280
     0
102
RTVSPost2010PropOp55
 70
     1
102
RTVSPost2010Prop56
140
1.0
102
RTVSPost2010PropOp56
 70
     1
102
RTVSPost2010Prop57
140
1.0
102
RTVSPost2010PropOp57
 70
     1
  0
XRECORD
  5
26B
102
{ACAD_REACTORS
330
26A
102
}
330
26A
100
AcDbXrecord
280
     1
102
RTVSPropertyOp0
 70
     1
102
RTVSPropertyOp1
 70
     1
102
RTVSPropertyOp2
 70
     1
102
RTVSPropertyOp3
 70
     1
102
RTVSPropertyOp4
 70
     1
102
RTVSPropertyOp5
 70
     1
102
RTVSPropertyOp6
 70
     1
102
RTVSPropertyOp7
 70
     1
102
RTVSPropertyOp8
 70
     1
102
RTVSPropertyOp9
 70
     1
102
RTVSPropertyOp10
 70
     1
102
RTVSPropertyOp11
 70
     1
102
RTVSPropertyOp12
 70
     1
102
RTVSPropertyOp13
 70
     1
102
RTVSPropertyOp14
 70
     1
102
RTVSPropertyOp15
 70
     1
102
RTVSPropertyOp16
 70
     1
102
RTVSPropertyOp17
 70
     1
102
RTVSPropertyOp18
 70
     1
102
RTVSPropertyOp19
 70
     1
102
RTVSPropertyOp20
 70
     1
102
RTVSPropertyOp21
 70
     1
102
RTVSPropertyOp22
 70
     1
102
RTVSPropertyOp23
 70
     1
102
RTVSPropertyOp24
 70
     1
102
RTVSPropertyOp25
 70
     1
102
RTVSPropertyOp26
 70
     1
102
RTVSPropertyOp27
 70
     1
102
RTVSPropertyOp28
 70
     1
102
RTVSPropertyOp29
 70
     1
102
RTVSPropertyOp30
 70
     1
102
RTVSPropertyOp31
 70
     1
102
RTVSPropertyOp32
 70
     1
102
RTVSPropertyOp33
 70
     1
102
RTVSPropertyOp34
 70
     1
102
RTVSPropertyOp35
 70
     1
102
RTVSPropertyOp36
 70
     1
102
RTVSPropertyOp37
 70
     1
102
RTVSPropertyOp38
 70
     1
102
RTVSPropertyOp39
 70
     1
102
RTVSPropertyOp40
 70
     1
102
RTVSPropertyOp41
 70
     1
102
RTVSPropertyOp42
 70
     1
102
RTVSPropertyOp43
 70
     1
102
RTVSPropertyOp44
 70
     1
102
RTVSPropertyOp45
 70
     1
102
RTVSPropertyOp46
 70
     1
102
RTVSPropertyOp47
 70
     1
102
RTVSPropertyOp48
 70
     1
102
RTVSPropertyOp49
 70
     1
102
RTVSPropertyOp50
 70
     1
102
RTVSPropertyOp51
 70
     0
102
RTVSPropertyOp52
 70
     0
102
RTVSPropertyOp53
 70
     1
102
RTVSPropertyOp54
 70
     1
102
RTVSPropertyOp55
 70
     1
102
RTVSPropertyOp56
 70
     1
102
RTVSPropertyOp57
 70
     1
102
RTVSPost2010Prop28
280
     0
102
RTVSPost2010PropOp28
 70
     1
102
RTVSPost2010Prop29
280
     1
102
RTVSPost2010PropOp29
 70
     1
102
RTVSPost2010Prop30
280
     1
102
RTVSPost2010PropOp30
 70
     1
102
RTVSPost2010Prop31
280
     0
102
RTVSPost2010PropOp31
 70
     1
102
RTVSPost2010Prop32
280
     0
102
RTVSPost2010PropOp32
 70
     1
102
RTVSPost2010Prop33
280
     0
102
RTVSPost2010PropOp33
 70
     1
102
RTVSPost2010Prop34
280
     0
102
RTVSPost2010PropOp34
 70
     1
102
RTVSPost2010Prop35
280
     0
102
RTVSPost2010PropOp35
 70
     1
102
RTVSPost2010Prop36
280
     0
102
RTVSPost2010PropOp36
 70
     1
102
RTVSPost2010Prop37
 90
       50
102
RTVSPost2010PropOp37
 70
     1
102
RTVSPost2010Prop38
140
0.0
102
RTVSPost2010PropOp38
 70
     1
102
RTVSPost2010Prop39
140
1.0
102
RTVSPost2010PropOp39
 70
     1
102
RTVSPost2010Prop40
 90
        0
102
RTVSPost2010PropOp40
 70
     1
102
RTVSPost2010Prop41ColorIndex
 90
       18
102
RTVSPost2010Prop41ColorRGB
 90
        0
102
RTVSPost2010PropOp41
 70
     1
102
RTVSPost2010Prop42
 90
       50
102
RTVSPost2010PropOp42
 70
     1
102
RTVSPost2010Prop43
 90
        3
102
RTVSPost2010PropOp43
 70
     1
102
RTVSPost2010Prop44ColorIndex
 90
        5
102
RTVSPost2010Prop44ColorRGB
 90
      255
102
RTVSPost2010PropOp44
 70
     1
102
RTVSPost2010Prop45
280
     0
102
RTVSPost2010PropOp45
 70
     1
102
RTVSPost2010Prop46
 90
       50
102
RTVSPost2010PropOp46
 70
     1
102
RTVSPost2010Prop47
 90
       50
102
RTVSPost2010PropOp47
 70
     1
102
RTVSPost2010Prop48
 90
       50
102
RTVSPost2010PropOp48
 70
     1
102
RTVSPost2010Prop49
280
     0
102
RTVSPost2010PropOp49
 70
     1
102
RTVSPost2010Prop50
 90
       50
102
RTVSPost2010PropOp50
 70
     1
102
RTVSPost2010Prop51ColorIndex
 90
      256
102
RTVSPost2010Prop51ColorRGB
 90
-16777216
102
RTVSPost2010PropOp51
 70
     0
102
RTVSPost2010Prop52
140
1.0
102
RTVSPost2010PropOp52
 70
     0
102
RTVSPost2010Prop53
 90
        2
102
RTVSPost2010PropOp53
 70
     1
102
RTVSPost2010Prop54
  1
strokes_ogs.tif
102
RTVSPost2010PropOp54
 70
     1
102
RTVSPost2010Prop55
280
     0
102
RTVSPost2010PropOp55
 70
     1
102
RTVSPost2010Prop56
140
1.0
102
RTVSPost2010PropOp56
 70
     1
102
RTVSPost2010Prop57
140
1.0
102
RTVSPost2010PropOp57
 70
     1
  0
XRECORD
  5
265
102
{ACAD_REACTORS
330
264
102
}
330
264
100
AcDbXrecord
280
     1
102
RTVSPropertyOp0
 70
     1
102
RTVSPropertyOp1
 70
     1
102
RTVSPropertyOp2
 70
     1
102
RTVSPropertyOp3
 70
     1
102
RTVSPropertyOp4
 70
     1
102
RTVSPropertyOp5
 70
     1
102
RTVSPropertyOp6
 70
     1
102
RTVSPropertyOp7
 70
     1
102
RTVSPropertyOp8
 70
     1
102
RTVSPropertyOp9
 70
     1
102
RTVSPropertyOp10
 70
     1
102
RTVSPropertyOp11
 70
     1
102
RTVSPropertyOp12
 70
     1
102
RTVSPropertyOp13
 70
     1
102
RTVSPropertyOp14
 70
     1
102
RTVSPropertyOp15
 70
     1
102
RTVSPropertyOp16
 70
     1
102
RTVSPropertyOp17
 70
     1
102
RTVSPropertyOp18
 70
     1
102
RTVSPropertyOp19
 70
     1
102
RTVSPropertyOp20
 70
     1
102
RTVSPropertyOp21
 70
     1
102
RTVSPropertyOp22
 70
     1
102
RTVSPropertyOp23
 70
     1
102
RTVSPropertyOp24
 70
     1
102
RTVSPropertyOp25
 70
     1
102
RTVSPropertyOp26
 70
     1
102
RTVSPropertyOp27
 70
     1
102
RTVSPropertyOp28
 70
     1
102
RTVSPropertyOp29
 70
     1
102
RTVSPropertyOp30
 70
     1
102
RTVSPropertyOp31
 70
     1
102
RTVSPropertyOp32
 70
     1
102
RTVSPropertyOp33
 70
     1
102
RTVSPropertyOp34
 70
     1
102
RTVSPropertyOp35
 70
     1
102
RTVSPropertyOp36
 70
     1
102
RTVSPropertyOp37
 70
     1
102
RTVSPropertyOp38
 70
     1
102
RTVSPropertyOp39
 70
     1
102
RTVSPropertyOp40
 70
     1
102
RTVSPropertyOp41
 70
     1
102
RTVSPropertyOp42
 70
     1
102
RTVSPropertyOp43
 70
     1
102
RTVSPropertyOp44
 70
     1
102
RTVSPropertyOp45
 70
     1
102
RTVSPropertyOp46
 70
     1
102
RTVSPropertyOp47
 70
     1
102
RTVSPropertyOp48
 70
     1
102
RTVSPropertyOp49
 70
     1
102
RTVSPropertyOp50
 70
     1
102
RTVSPropertyOp51
 70
     0
102
RTVSPropertyOp52
 70
     0
102
RTVSPropertyOp53
 70
     1
102
RTVSPropertyOp54
 70
     1
102
RTVSPropertyOp55
 70
     1
102
RTVSPropertyOp56
 70
     1
102
RTVSPropertyOp57
 70
     1
102
RTVSPost2010Prop28
280
     0
102
RTVSPost2010PropOp28
 70
     1
102
RTVSPost2010Prop29
280
     1
102
RTVSPost2010PropOp29
 70
     1
102
RTVSPost2010Prop30
280
     1
102
RTVSPost2010PropOp30
 70
     1
102
RTVSPost2010Prop31
280
     0
102
RTVSPost2010PropOp31
 70
     1
102
RTVSPost2010Prop32
280
     0
102
RTVSPost2010PropOp32
 70
     1
102
RTVSPost2010Prop33
280
     0
102
RTVSPost2010PropOp33
 70
     1
102
RTVSPost2010Prop34
280
     0
102
RTVSPost2010PropOp34
 70
     1
102
RTVSPost2010Prop35
280
     0
102
RTVSPost2010PropOp35
 70
     1
102
RTVSPost2010Prop36
280
     0
102
RTVSPost2010PropOp36
 70
     1
102
RTVSPost2010Prop37
 90
       50
102
RTVSPost2010PropOp37
 70
     1
102
RTVSPost2010Prop38
140
0.0
102
RTVSPost2010PropOp38
 70
     1
102
RTVSPost2010Prop39
140
1.0
102
RTVSPost2010PropOp39
 70
     1
102
RTVSPost2010Prop40
 90
        0
102
RTVSPost2010PropOp40
 70
     1
102
RTVSPost2010Prop41ColorIndex
 90
       18
102
RTVSPost2010Prop41ColorRGB
 90
        0
102
RTVSPost2010PropOp41
 70
     1
102
RTVSPost2010Prop42
 90
       50
102
RTVSPost2010PropOp42
 70
     1
102
RTVSPost2010Prop43
 90
        3
102
RTVSPost2010PropOp43
 70
     1
102
RTVSPost2010Prop44ColorIndex
 90
        5
102
RTVSPost2010Prop44ColorRGB
 90
      255
102
RTVSPost2010PropOp44
 70
     1
102
RTVSPost2010Prop45
280
     0
102
RTVSPost2010PropOp45
 70
     1
102
RTVSPost2010Prop46
 90
       50
102
RTVSPost2010PropOp46
 70
     1
102
RTVSPost2010Prop47
 90
       50
102
RTVSPost2010PropOp47
 70
     1
102
RTVSPost2010Prop48
 90
       50
102
RTVSPost2010PropOp48
 70
     1
102
RTVSPost2010Prop49
280
     0
102
RTVSPost2010PropOp49
 70
     1
102
RTVSPost2010Prop50
 90
       50
102
RTVSPost2010PropOp50
 70
     1
102
RTVSPost2010Prop51ColorIndex
 90
      256
102
RTVSPost2010Prop51ColorRGB
 90
-16777216
102
RTVSPost2010PropOp51
 70
     0
102
RTVSPost2010Prop52
140
1.0
102
RTVSPost2010PropOp52
 70
     0
102
RTVSPost2010Prop53
 90
        2
102
RTVSPost2010PropOp53
 70
     1
102
RTVSPost2010Prop54
  1
strokes_ogs.tif
102
RTVSPost2010PropOp54
 70
     1
102
RTVSPost2010Prop55
280
     0
102
RTVSPost2010PropOp55
 70
     1
102
RTVSPost2010Prop56
140
1.0
102
RTVSPost2010PropOp56
 70
     1
102
RTVSPost2010Prop57
140
1.0
102
RTVSPost2010PropOp57
 70
     1
  0
XRECORD
  5
267
102
{ACAD_REACTORS
330
266
102
}
330
266
100
AcDbXrecord
280
     1
102
RTVSPropertyOp0
 70
     1
102
RTVSPropertyOp1
 70
     1
102
RTVSPropertyOp2
 70
     1
102
RTVSPropertyOp3
 70
     1
102
RTVSPropertyOp4
 70
     1
102
RTVSPropertyOp5
 70
     1
102
RTVSPropertyOp6
 70
     1
102
RTVSPropertyOp7
 70
     1
102
RTVSPropertyOp8
 70
     1
102
RTVSPropertyOp9
 70
     1
102
RTVSPropertyOp10
 70
     1
102
RTVSPropertyOp11
 70
     1
102
RTVSPropertyOp12
 70
     1
102
RTVSPropertyOp13
 70
     1
102
RTVSPropertyOp14
 70
     1
102
RTVSPropertyOp15
 70
     1
102
RTVSPropertyOp16
 70
     1
102
RTVSPropertyOp17
 70
     1
102
RTVSPropertyOp18
 70
     1
102
RTVSPropertyOp19
 70
     1
102
RTVSPropertyOp20
 70
     1
102
RTVSPropertyOp21
 70
     1
102
RTVSPropertyOp22
 70
     1
102
RTVSPropertyOp23
 70
     1
102
RTVSPropertyOp24
 70
     1
102
RTVSPropertyOp25
 70
     1
102
RTVSPropertyOp26
 70
     1
102
RTVSPropertyOp27
 70
     1
102
RTVSPropertyOp28
 70
     1
102
RTVSPropertyOp29
 70
     1
102
RTVSPropertyOp30
 70
     1
102
RTVSPropertyOp31
 70
     1
102
RTVSPropertyOp32
 70
     1
102
RTVSPropertyOp33
 70
     1
102
RTVSPropertyOp34
 70
     1
102
RTVSPropertyOp35
 70
     1
102
RTVSPropertyOp36
 70
     1
102
RTVSPropertyOp37
 70
     1
102
RTVSPropertyOp38
 70
     1
102
RTVSPropertyOp39
 70
     1
102
RTVSPropertyOp40
 70
     1
102
RTVSPropertyOp41
 70
     1
102
RTVSPropertyOp42
 70
     1
102
RTVSPropertyOp43
 70
     1
102
RTVSPropertyOp44
 70
     1
102
RTVSPropertyOp45
 70
     1
102
RTVSPropertyOp46
 70
     1
102
RTVSPropertyOp47
 70
     1
102
RTVSPropertyOp48
 70
     1
102
RTVSPropertyOp49
 70
     1
102
RTVSPropertyOp50
 70
     1
102
RTVSPropertyOp51
 70
     0
102
RTVSPropertyOp52
 70
     0
102
RTVSPropertyOp53
 70
     1
102
RTVSPropertyOp54
 70
     1
102
RTVSPropertyOp55
 70
     1
102
RTVSPropertyOp56
 70
     1
102
RTVSPropertyOp57
 70
     1
102
RTVSPost2010Prop28
280
     0
102
RTVSPost2010PropOp28
 70
     1
102
RTVSPost2010Prop29
280
     1
102
RTVSPost2010PropOp29
 70
     1
102
RTVSPost2010Prop30
280
     1
102
RTVSPost2010PropOp30
 70
     1
102
RTVSPost2010Prop31
280
     0
102
RTVSPost2010PropOp31
 70
     1
102
RTVSPost2010Prop32
280
     0
102
RTVSPost2010PropOp32
 70
     1
102
RTVSPost2010Prop33
280
     0
102
RTVSPost2010PropOp33
 70
     1
102
RTVSPost2010Prop34
280
     0
102
RTVSPost2010PropOp34
 70
     1
102
RTVSPost2010Prop35
280
     0
102
RTVSPost2010PropOp35
 70
     1
102
RTVSPost2010Prop36
280
     0
102
RTVSPost2010PropOp36
 70
     1
102
RTVSPost2010Prop37
 90
       50
102
RTVSPost2010PropOp37
 70
     1
102
RTVSPost2010Prop38
140
0.0
102
RTVSPost2010PropOp38
 70
     1
102
RTVSPost2010Prop39
140
1.0
102
RTVSPost2010PropOp39
 70
     1
102
RTVSPost2010Prop40
 90
        0
102
RTVSPost2010PropOp40
 70
     1
102
RTVSPost2010Prop41ColorIndex
 90
       18
102
RTVSPost2010Prop41ColorRGB
 90
        0
102
RTVSPost2010PropOp41
 70
     1
102
RTVSPost2010Prop42
 90
       50
102
RTVSPost2010PropOp42
 70
     1
102
RTVSPost2010Prop43
 90
        3
102
RTVSPost2010PropOp43
 70
     1
102
RTVSPost2010Prop44ColorIndex
 90
        5
102
RTVSPost2010Prop44ColorRGB
 90
      255
102
RTVSPost2010PropOp44
 70
     1
102
RTVSPost2010Prop45
280
     0
102
RTVSPost2010PropOp45
 70
     1
102
RTVSPost2010Prop46
 90
       50
102
RTVSPost2010PropOp46
 70
     1
102
RTVSPost2010Prop47
 90
       50
102
RTVSPost2010PropOp47
 70
     1
102
RTVSPost2010Prop48
 90
       50
102
RTVSPost2010PropOp48
 70
     1
102
RTVSPost2010Prop49
280
     0
102
RTVSPost2010PropOp49
 70
     1
102
RTVSPost2010Prop50
 90
       50
102
RTVSPost2010PropOp50
 70
     1
102
RTVSPost2010Prop51ColorIndex
 90
      256
102
RTVSPost2010Prop51ColorRGB
 90
-16777216
102
RTVSPost2010PropOp51
 70
     0
102
RTVSPost2010Prop52
140
1.0
102
RTVSPost2010PropOp52
 70
     0
102
RTVSPost2010Prop53
 90
        2
102
RTVSPost2010PropOp53
 70
     1
102
RTVSPost2010Prop54
  1
strokes_ogs.tif
102
RTVSPost2010PropOp54
 70
     1
102
RTVSPost2010Prop55
280
     0
102
RTVSPost2010PropOp55
 70
     1
102
RTVSPost2010Prop56
140
1.0
102
RTVSPost2010PropOp56
 70
     1
102
RTVSPost2010Prop57
140
1.0
102
RTVSPost2010PropOp57
 70
     1
  0
XRECORD
  5
257
102
{ACAD_REACTORS
330
256
102
}
330
256
100
AcDbXrecord
280
     1
102
RTVSPropertyOp0
 70
     1
102
RTVSPropertyOp1
 70
     1
102
RTVSPropertyOp2
 70
     1
102
RTVSPropertyOp3
 70
     1
102
RTVSPropertyOp4
 70
     1
102
RTVSPropertyOp5
 70
     1
102
RTVSPropertyOp6
 70
     1
102
RTVSPropertyOp7
 70
     1
102
RTVSPropertyOp8
 70
     1
102
RTVSPropertyOp9
 70
     1
102
RTVSPropertyOp10
 70
     1
102
RTVSPropertyOp11
 70
     1
102
RTVSPropertyOp12
 70
     1
102
RTVSPropertyOp13
 70
     1
102
RTVSPropertyOp14
 70
     1
102
RTVSPropertyOp15
 70
     1
102
RTVSPropertyOp16
 70
     1
102
RTVSPropertyOp17
 70
     1
102
RTVSPropertyOp18
 70
     1
102
RTVSPropertyOp19
 70
     1
102
RTVSPropertyOp20
 70
     1
102
RTVSPropertyOp21
 70
     1
102
RTVSPropertyOp22
 70
     1
102
RTVSPropertyOp23
 70
     1
102
RTVSPropertyOp24
 70
     1
102
RTVSPropertyOp25
 70
     1
102
RTVSPropertyOp26
 70
     1
102
RTVSPropertyOp27
 70
     1
102
RTVSPropertyOp28
 70
     1
102
RTVSPropertyOp29
 70
     1
102
RTVSPropertyOp30
 70
     1
102
RTVSPropertyOp31
 70
     1
102
RTVSPropertyOp32
 70
     1
102
RTVSPropertyOp33
 70
     1
102
RTVSPropertyOp34
 70
     1
102
RTVSPropertyOp35
 70
     1
102
RTVSPropertyOp36
 70
     1
102
RTVSPropertyOp37
 70
     1
102
RTVSPropertyOp38
 70
     1
102
RTVSPropertyOp39
 70
     1
102
RTVSPropertyOp40
 70
     1
102
RTVSPropertyOp41
 70
     1
102
RTVSPropertyOp42
 70
     1
102
RTVSPropertyOp43
 70
     1
102
RTVSPropertyOp44
 70
     1
102
RTVSPropertyOp45
 70
     1
102
RTVSPropertyOp46
 70
     1
102
RTVSPropertyOp47
 70
     1
102
RTVSPropertyOp48
 70
     1
102
RTVSPropertyOp49
 70
     1
102
RTVSPropertyOp50
 70
     1
102
RTVSPropertyOp51
 70
     0
102
RTVSPropertyOp52
 70
     0
102
RTVSPropertyOp53
 70
     1
102
RTVSPropertyOp54
 70
     1
102
RTVSPropertyOp55
 70
     1
102
RTVSPropertyOp56
 70
     1
102
RTVSPropertyOp57
 70
     1
102
RTVSPost2010Prop28
280
     0
102
RTVSPost2010PropOp28
 70
     1
102
RTVSPost2010Prop29
280
     1
102
RTVSPost2010PropOp29
 70
     1
102
RTVSPost2010Prop30
280
     1
102
RTVSPost2010PropOp30
 70
     1
102
RTVSPost2010Prop31
280
     0
102
RTVSPost2010PropOp31
 70
     1
102
RTVSPost2010Prop32
280
     0
102
RTVSPost2010PropOp32
 70
     1
102
RTVSPost2010Prop33
280
     0
102
RTVSPost2010PropOp33
 70
     1
102
RTVSPost2010Prop34
280
     0
102
RTVSPost2010PropOp34
 70
     1
102
RTVSPost2010Prop35
280
     0
102
RTVSPost2010PropOp35
 70
     1
102
RTVSPost2010Prop36
280
     0
102
RTVSPost2010PropOp36
 70
     1
102
RTVSPost2010Prop37
 90
       50
102
RTVSPost2010PropOp37
 70
     1
102
RTVSPost2010Prop38
140
0.0
102
RTVSPost2010PropOp38
 70
     1
102
RTVSPost2010Prop39
140
1.0
102
RTVSPost2010PropOp39
 70
     1
102
RTVSPost2010Prop40
 90
        0
102
RTVSPost2010PropOp40
 70
     1
102
RTVSPost2010Prop41ColorIndex
 90
       18
102
RTVSPost2010Prop41ColorRGB
 90
        0
102
RTVSPost2010PropOp41
 70
     1
102
RTVSPost2010Prop42
 90
       50
102
RTVSPost2010PropOp42
 70
     1
102
RTVSPost2010Prop43
 90
        3
102
RTVSPost2010PropOp43
 70
     1
102
RTVSPost2010Prop44ColorIndex
 90
        5
102
RTVSPost2010Prop44ColorRGB
 90
      255
102
RTVSPost2010PropOp44
 70
     1
102
RTVSPost2010Prop45
280
     0
102
RTVSPost2010PropOp45
 70
     1
102
RTVSPost2010Prop46
 90
       50
102
RTVSPost2010PropOp46
 70
     1
102
RTVSPost2010Prop47
 90
       50
102
RTVSPost2010PropOp47
 70
     1
102
RTVSPost2010Prop48
 90
       50
102
RTVSPost2010PropOp48
 70
     1
102
RTVSPost2010Prop49
280
     0
102
RTVSPost2010PropOp49
 70
     1
102
RTVSPost2010Prop50
 90
       50
102
RTVSPost2010PropOp50
 70
     1
102
RTVSPost2010Prop51ColorIndex
 90
      256
102
RTVSPost2010Prop51ColorRGB
 90
-16777216
102
RTVSPost2010PropOp51
 70
     0
102
RTVSPost2010Prop52
140
1.0
102
RTVSPost2010PropOp52
 70
     0
102
RTVSPost2010Prop53
 90
        2
102
RTVSPost2010PropOp53
 70
     1
102
RTVSPost2010Prop54
  1
strokes_ogs.tif
102
RTVSPost2010PropOp54
 70
     1
102
RTVSPost2010Prop55
280
     0
102
RTVSPost2010PropOp55
 70
     1
102
RTVSPost2010Prop56
140
1.0
102
RTVSPost2010PropOp56
 70
     1
102
RTVSPost2010Prop57
140
1.0
102
RTVSPost2010PropOp57
 70
     1
  0
XRECORD
  5
249
102
{ACAD_REACTORS
330
248
102
}
330
248
100
AcDbXrecord
280
     1
102
RTVSPropertyOp0
 70
     1
102
RTVSPropertyOp1
 70
     1
102
RTVSPropertyOp2
 70
     1
102
RTVSPropertyOp3
 70
     1
102
RTVSPropertyOp4
 70
     1
102
RTVSPropertyOp5
 70
     1
102
RTVSPropertyOp6
 70
     1
102
RTVSPropertyOp7
 70
     1
102
RTVSPropertyOp8
 70
     1
102
RTVSPropertyOp9
 70
     1
102
RTVSPropertyOp10
 70
     1
102
RTVSPropertyOp11
 70
     1
102
RTVSPropertyOp12
 70
     1
102
RTVSPropertyOp13
 70
     1
102
RTVSPropertyOp14
 70
     1
102
RTVSPropertyOp15
 70
     1
102
RTVSPropertyOp16
 70
     1
102
RTVSPropertyOp17
 70
     1
102
RTVSPropertyOp18
 70
     1
102
RTVSPropertyOp19
 70
     1
102
RTVSPropertyOp20
 70
     1
102
RTVSPropertyOp21
 70
     1
102
RTVSPropertyOp22
 70
     1
102
RTVSPropertyOp23
 70
     1
102
RTVSPropertyOp24
 70
     1
102
RTVSPropertyOp25
 70
     1
102
RTVSPropertyOp26
 70
     1
102
RTVSPropertyOp27
 70
     1
102
RTVSPropertyOp28
 70
     1
102
RTVSPropertyOp29
 70
     1
102
RTVSPropertyOp30
 70
     1
102
RTVSPropertyOp31
 70
     1
102
RTVSPropertyOp32
 70
     1
102
RTVSPropertyOp33
 70
     1
102
RTVSPropertyOp34
 70
     1
102
RTVSPropertyOp35
 70
     1
102
RTVSPropertyOp36
 70
     1
102
RTVSPropertyOp37
 70
     1
102
RTVSPropertyOp38
 70
     1
102
RTVSPropertyOp39
 70
     1
102
RTVSPropertyOp40
 70
     1
102
RTVSPropertyOp41
 70
     1
102
RTVSPropertyOp42
 70
     1
102
RTVSPropertyOp43
 70
     1
102
RTVSPropertyOp44
 70
     1
102
RTVSPropertyOp45
 70
     1
102
RTVSPropertyOp46
 70
     1
102
RTVSPropertyOp47
 70
     1
102
RTVSPropertyOp48
 70
     1
102
RTVSPropertyOp49
 70
     1
102
RTVSPropertyOp50
 70
     1
102
RTVSPropertyOp51
 70
     0
102
RTVSPropertyOp52
 70
     0
102
RTVSPropertyOp53
 70
     1
102
RTVSPropertyOp54
 70
     1
102
RTVSPropertyOp55
 70
     1
102
RTVSPropertyOp56
 70
     1
102
RTVSPropertyOp57
 70
     1
102
RTVSPost2010Prop28
280
     0
102
RTVSPost2010PropOp28
 70
     1
102
RTVSPost2010Prop29
280
     1
102
RTVSPost2010PropOp29
 70
     1
102
RTVSPost2010Prop30
280
     1
102
RTVSPost2010PropOp30
 70
     1
102
RTVSPost2010Prop31
280
     0
102
RTVSPost2010PropOp31
 70
     1
102
RTVSPost2010Prop32
280
     0
102
RTVSPost2010PropOp32
 70
     1
102
RTVSPost2010Prop33
280
     0
102
RTVSPost2010PropOp33
 70
     1
102
RTVSPost2010Prop34
280
     0
102
RTVSPost2010PropOp34
 70
     1
102
RTVSPost2010Prop35
280
     0
102
RTVSPost2010PropOp35
 70
     1
102
RTVSPost2010Prop36
280
     0
102
RTVSPost2010PropOp36
 70
     1
102
RTVSPost2010Prop37
 90
       50
102
RTVSPost2010PropOp37
 70
     1
102
RTVSPost2010Prop38
140
0.0
102
RTVSPost2010PropOp38
 70
     1
102
RTVSPost2010Prop39
140
1.0
102
RTVSPost2010PropOp39
 70
     1
102
RTVSPost2010Prop40
 90
        0
102
RTVSPost2010PropOp40
 70
     1
102
RTVSPost2010Prop41ColorIndex
 90
       18
102
RTVSPost2010Prop41ColorRGB
 90
        0
102
RTVSPost2010PropOp41
 70
     1
102
RTVSPost2010Prop42
 90
       50
102
RTVSPost2010PropOp42
 70
     1
102
RTVSPost2010Prop43
 90
        3
102
RTVSPost2010PropOp43
 70
     1
102
RTVSPost2010Prop44ColorIndex
 90
        5
102
RTVSPost2010Prop44ColorRGB
 90
      255
102
RTVSPost2010PropOp44
 70
     1
102
RTVSPost2010Prop45
280
     0
102
RTVSPost2010PropOp45
 70
     1
102
RTVSPost2010Prop46
 90
       50
102
RTVSPost2010PropOp46
 70
     1
102
RTVSPost2010Prop47
 90
       50
102
RTVSPost2010PropOp47
 70
     1
102
RTVSPost2010Prop48
 90
       50
102
RTVSPost2010PropOp48
 70
     1
102
RTVSPost2010Prop49
280
     0
102
RTVSPost2010PropOp49
 70
     1
102
RTVSPost2010Prop50
 90
       50
102
RTVSPost2010PropOp50
 70
     1
102
RTVSPost2010Prop51ColorIndex
 90
      256
102
RTVSPost2010Prop51ColorRGB
 90
-16777216
102
RTVSPost2010PropOp51
 70
     0
102
RTVSPost2010Prop52
140
1.0
102
RTVSPost2010PropOp52
 70
     0
102
RTVSPost2010Prop53
 90
        2
102
RTVSPost2010PropOp53
 70
     1
102
RTVSPost2010Prop54
  1
strokes_ogs.tif
102
RTVSPost2010PropOp54
 70
     1
102
RTVSPost2010Prop55
280
     0
102
RTVSPost2010PropOp55
 70
     1
102
RTVSPost2010Prop56
140
1.0
102
RTVSPost2010PropOp56
 70
     1
102
RTVSPost2010Prop57
140
1.0
102
RTVSPost2010PropOp57
 70
     1
  0
XRECORD
  5
269
102
{ACAD_REACTORS
330
268
102
}
330
268
100
AcDbXrecord
280
     1
102
RTVSPropertyOp0
 70
     1
102
RTVSPropertyOp1
 70
     1
102
RTVSPropertyOp2
 70
     1
102
RTVSPropertyOp3
 70
     1
102
RTVSPropertyOp4
 70
     1
102
RTVSPropertyOp5
 70
     1
102
RTVSPropertyOp6
 70
     1
102
RTVSPropertyOp7
 70
     1
102
RTVSPropertyOp8
 70
     1
102
RTVSPropertyOp9
 70
     1
102
RTVSPropertyOp10
 70
     1
102
RTVSPropertyOp11
 70
     1
102
RTVSPropertyOp12
 70
     1
102
RTVSPropertyOp13
 70
     1
102
RTVSPropertyOp14
 70
     1
102
RTVSPropertyOp15
 70
     1
102
RTVSPropertyOp16
 70
     1
102
RTVSPropertyOp17
 70
     1
102
RTVSPropertyOp18
 70
     1
102
RTVSPropertyOp19
 70
     1
102
RTVSPropertyOp20
 70
     1
102
RTVSPropertyOp21
 70
     1
102
RTVSPropertyOp22
 70
     1
102
RTVSPropertyOp23
 70
     1
102
RTVSPropertyOp24
 70
     1
102
RTVSPropertyOp25
 70
     1
102
RTVSPropertyOp26
 70
     1
102
RTVSPropertyOp27
 70
     1
102
RTVSPropertyOp28
 70
     1
102
RTVSPropertyOp29
 70
     1
102
RTVSPropertyOp30
 70
     1
102
RTVSPropertyOp31
 70
     1
102
RTVSPropertyOp32
 70
     1
102
RTVSPropertyOp33
 70
     1
102
RTVSPropertyOp34
 70
     1
102
RTVSPropertyOp35
 70
     1
102
RTVSPropertyOp36
 70
     1
102
RTVSPropertyOp37
 70
     1
102
RTVSPropertyOp38
 70
     1
102
RTVSPropertyOp39
 70
     1
102
RTVSPropertyOp40
 70
     1
102
RTVSPropertyOp41
 70
     1
102
RTVSPropertyOp42
 70
     1
102
RTVSPropertyOp43
 70
     1
102
RTVSPropertyOp44
 70
     1
102
RTVSPropertyOp45
 70
     1
102
RTVSPropertyOp46
 70
     1
102
RTVSPropertyOp47
 70
     1
102
RTVSPropertyOp48
 70
     1
102
RTVSPropertyOp49
 70
     1
102
RTVSPropertyOp50
 70
     1
102
RTVSPropertyOp51
 70
     0
102
RTVSPropertyOp52
 70
     0
102
RTVSPropertyOp53
 70
     1
102
RTVSPropertyOp54
 70
     1
102
RTVSPropertyOp55
 70
     1
102
RTVSPropertyOp56
 70
     1
102
RTVSPropertyOp57
 70
     1
102
RTVSPost2010Prop28
280
     0
102
RTVSPost2010PropOp28
 70
     1
102
RTVSPost2010Prop29
280
     1
102
RTVSPost2010PropOp29
 70
     1
102
RTVSPost2010Prop30
280
     1
102
RTVSPost2010PropOp30
 70
     1
102
RTVSPost2010Prop31
280
     0
102
RTVSPost2010PropOp31
 70
     1
102
RTVSPost2010Prop32
280
     0
102
RTVSPost2010PropOp32
 70
     1
102
RTVSPost2010Prop33
280
     0
102
RTVSPost2010PropOp33
 70
     1
102
RTVSPost2010Prop34
280
     0
102
RTVSPost2010PropOp34
 70
     1
102
RTVSPost2010Prop35
280
     0
102
RTVSPost2010PropOp35
 70
     1
102
RTVSPost2010Prop36
280
     0
102
RTVSPost2010PropOp36
 70
     1
102
RTVSPost2010Prop37
 90
       50
102
RTVSPost2010PropOp37
 70
     1
102
RTVSPost2010Prop38
140
0.0
102
RTVSPost2010PropOp38
 70
     1
102
RTVSPost2010Prop39
140
1.0
102
RTVSPost2010PropOp39
 70
     1
102
RTVSPost2010Prop40
 90
        0
102
RTVSPost2010PropOp40
 70
     1
102
RTVSPost2010Prop41ColorIndex
 90
       18
102
RTVSPost2010Prop41ColorRGB
 90
        0
102
RTVSPost2010PropOp41
 70
     1
102
RTVSPost2010Prop42
 90
       50
102
RTVSPost2010PropOp42
 70
     1
102
RTVSPost2010Prop43
 90
        3
102
RTVSPost2010PropOp43
 70
     1
102
RTVSPost2010Prop44ColorIndex
 90
        5
102
RTVSPost2010Prop44ColorRGB
 90
      255
102
RTVSPost2010PropOp44
 70
     1
102
RTVSPost2010Prop45
280
     0
102
RTVSPost2010PropOp45
 70
     1
102
RTVSPost2010Prop46
 90
       50
102
RTVSPost2010PropOp46
 70
     1
102
RTVSPost2010Prop47
 90
       50
102
RTVSPost2010PropOp47
 70
     1
102
RTVSPost2010Prop48
 90
       50
102
RTVSPost2010PropOp48
 70
     1
102
RTVSPost2010Prop49
280
     0
102
RTVSPost2010PropOp49
 70
     1
102
RTVSPost2010Prop50
 90
       50
102
RTVSPost2010PropOp50
 70
     1
102
RTVSPost2010Prop51ColorIndex
 90
      256
102
RTVSPost2010Prop51ColorRGB
 90
-16777216
102
RTVSPost2010PropOp51
 70
     0
102
RTVSPost2010Prop52
140
1.0
102
RTVSPost2010PropOp52
 70
     0
102
RTVSPost2010Prop53
 90
        2
102
RTVSPost2010PropOp53
 70
     1
102
RTVSPost2010Prop54
  1
strokes_ogs.tif
102
RTVSPost2010PropOp54
 70
     1
102
RTVSPost2010Prop55
280
     0
102
RTVSPost2010PropOp55
 70
     1
102
RTVSPost2010Prop56
140
1.0
102
RTVSPost2010PropOp56
 70
     1
102
RTVSPost2010Prop57
140
1.0
102
RTVSPost2010PropOp57
 70
     1
  0
ENDSEC
  0
EOF
