  0
SECTION
  2
HEADER
  9
$ACADVER
  1
AC1015
  9
$ACADMAINTVER
 70
     6
  9
$DWGCODEPAGE
  3
ANSI_950
  9
$INSBASE
 10
0.0
 20
0.0
 30
0.0
  9
$EXTMIN
 10
-380.0381
 20
-190.0005
 30
0.0
  9
$EXTMAX
 10
413.2998
 20
190.0381
 30
0.0
  9
$LIMMIN
 10
0.0
 20
0.0
  9
$LIMMAX
 10
12.0
 20
9.0
  9
$ORTHOMODE
 70
     0
  9
$REGENMODE
 70
     1
  9
$FILLMODE
 70
     1
  9
$QTEXTMODE
 70
     0
  9
$MIRRTEXT
 70
     1
  9
$LTSCALE
 40
1.0
  9
$ATTMODE
 70
     1
  9
$TEXTSIZE
 40
0.2
  9
$TRACEWID
 40
0.05
  9
$TEXTSTYLE
  7
Standard
  9
$CLAYER
  8
0
  9
$CELTYPE
  6
ByLayer
  9
$CECOLOR
 62
   256
  9
$CELTSCALE
 40
1.0
  9
$DISPSILH
 70
     0
  9
$DIMSCALE
 40
1.0
  9
$DIMASZ
 40
0.18
  9
$DIMEXO
 40
0.0625
  9
$DIMDLI
 40
0.38
  9
$DIMRND
 40
0.0
  9
$DIMDLE
 40
0.0
  9
$DIMEXE
 40
0.18
  9
$DIMTP
 40
0.0
  9
$DIMTM
 40
0.0
  9
$DIMTXT
 40
0.18
  9
$DIMCEN
 40
0.09
  9
$DIMTSZ
 40
0.0
  9
$DIMTOL
 70
     0
  9
$DIMLIM
 70
     0
  9
$DIMTIH
 70
     1
  9
$DIMTOH
 70
     1
  9
$DIMSE1
 70
     0
  9
$DIMSE2
 70
     0
  9
$DIMTAD
 70
     0
  9
$DIMZIN
 70
     0
  9
$DIMBLK
  1

  9
$DIMASO
 70
     1
  9
$DIMSHO
 70
     1
  9
$DIMPOST
  1

  9
$DIMAPOST
  1

  9
$DIMALT
 70
     0
  9
$DIMALTD
 70
     2
  9
$DIMALTF
 40
25.4
  9
$DIMLFAC
 40
1.0
  9
$DIMTOFL
 70
     0
  9
$DIMTVP
 40
0.0
  9
$DIMTIX
 70
     0
  9
$DIMSOXD
 70
     0
  9
$DIMSAH
 70
     0
  9
$DIMBLK1
  1

  9
$DIMBLK2
  1

  9
$DIMSTYLE
  2
Standard
  9
$DIMCLRD
 70
     0
  9
$DIMCLRE
 70
     0
  9
$DIMCLRT
 70
     0
  9
$DIMTFAC
 40
1.0
  9
$DIMGAP
 40
0.09
  9
$DIMJUST
 70
     0
  9
$DIMSD1
 70
     0
  9
$DIMSD2
 70
     0
  9
$DIMTOLJ
 70
     1
  9
$DIMTZIN
 70
     0
  9
$DIMALTZ
 70
     0
  9
$DIMALTTZ
 70
     0
  9
$DIMUPT
 70
     0
  9
$DIMDEC
 70
     4
  9
$DIMTDEC
 70
     4
  9
$DIMALTU
 70
     2
  9
$DIMALTTD
 70
     2
  9
$DIMTXSTY
  7
Standard
  9
$DIMAUNIT
 70
     0
  9
$DIMADEC
 70
     0
  9
$DIMALTRND
 40
0.0
  9
$DIMAZIN
 70
     0
  9
$DIMDSEP
 70
    46
  9
$DIMATFIT
 70
     3
  9
$DIMFRAC
 70
     0
  9
$DIMLDRBLK
  1

  9
$DIMLUNIT
 70
     2
  9
$DIMLWD
 70
    -2
  9
$DIMLWE
 70
    -2
  9
$DIMTMOVE
 70
     0
  9
$LUNITS
 70
     2
  9
$LUPREC
 70
     4
  9
$SKETCHINC
 40
0.1
  9
$FILLETRAD
 40
0.5
  9
$AUNITS
 70
     0
  9
$AUPREC
 70
     0
  9
$MENU
  1
.
  9
$ELEVATION
 40
0.0
  9
$PELEVATION
 40
0.0
  9
$THICKNESS
 40
0.0
  9
$LIMCHECK
 70
     0
  9
$CHAMFERA
 40
0.5
  9
$CHAMFERB
 40
0.5
  9
$CHAMFERC
 40
1.0
  9
$CHAMFERD
 40
0.0
  9
$SKPOLY
 70
     0
  9
$TDCREATE
 40
2457940.999734028
  9
$TDUCREATE
 40
2457940.666400694
  9
$TDUPDATE
 40
2457940.99973412
  9
$TDUUPDATE
 40
2457940.666400787
  9
$TDINDWG
 40
0.0000000116
  9
$TDUSRTIMER
 40
0.0000000116
  9
$USRTIMER
 70
     1
  9
$ANGBASE
 50
0.0
  9
$ANGDIR
 70
     0
  9
$PDMODE
 70
     0
  9
$PDSIZE
 40
0.0
  9
$PLINEWID
 40
0.0
  9
$SPLFRAME
 70
     0
  9
$SPLINETYPE
 70
     6
  9
$SPLINESEGS
 70
     8
  9
$HANDSEED
  5
95
  9
$SURFTAB1
 70
     6
  9
$SURFTAB2
 70
     6
  9
$SURFTYPE
 70
     6
  9
$SURFU
 70
     6
  9
$SURFV
 70
     6
  9
$UCSBASE
  2

  9
$UCSNAME
  2

  9
$UCSORG
 10
0.0
 20
0.0
 30
0.0
  9
$UCSXDIR
 10
1.0
 20
0.0
 30
0.0
  9
$UCSYDIR
 10
0.0
 20
1.0
 30
0.0
  9
$UCSORTHOREF
  2

  9
$UCSORTHOVIEW
 70
     0
  9
$UCSORGTOP
 10
0.0
 20
0.0
 30
0.0
  9
$UCSORGBOTTOM
 10
0.0
 20
0.0
 30
0.0
  9
$UCSORGLEFT
 10
0.0
 20
0.0
 30
0.0
  9
$UCSORGRIGHT
 10
0.0
 20
0.0
 30
0.0
  9
$UCSORGFRONT
 10
0.0
 20
0.0
 30
0.0
  9
$UCSORGBACK
 10
0.0
 20
0.0
 30
0.0
  9
$PUCSBASE
  2

  9
$PUCSNAME
  2

  9
$PUCSORG
 10
0.0
 20
0.0
 30
0.0
  9
$PUCSXDIR
 10
1.0
 20
0.0
 30
0.0
  9
$PUCSYDIR
 10
0.0
 20
1.0
 30
0.0
  9
$PUCSORTHOREF
  2

  9
$PUCSORTHOVIEW
 70
     0
  9
$PUCSORGTOP
 10
0.0
 20
0.0
 30
0.0
  9
$PUCSORGBOTTOM
 10
0.0
 20
0.0
 30
0.0
  9
$PUCSORGLEFT
 10
0.0
 20
0.0
 30
0.0
  9
$PUCSORGRIGHT
 10
0.0
 20
0.0
 30
0.0
  9
$PUCSORGFRONT
 10
0.0
 20
0.0
 30
0.0
  9
$PUCSORGBACK
 10
0.0
 20
0.0
 30
0.0
  9
$USERI1
 70
     0
  9
$USERI2
 70
     0
  9
$USERI3
 70
     0
  9
$USERI4
 70
     0
  9
$USERI5
 70
     0
  9
$USERR1
 40
0.0
  9
$USERR2
 40
0.0
  9
$USERR3
 40
0.0
  9
$USERR4
 40
0.0
  9
$USERR5
 40
0.0
  9
$WORLDVIEW
 70
     1
  9
$SHADEDGE
 70
     3
  9
$SHADEDIF
 70
    70
  9
$TILEMODE
 70
     1
  9
$MAXACTVP
 70
    64
  9
$PINSBASE
 10
0.0
 20
0.0
 30
0.0
  9
$PLIMCHECK
 70
     0
  9
$PEXTMIN
 10
1.000000000000000E+20
 20
1.000000000000000E+20
 30
1.000000000000000E+20
  9
$PEXTMAX
 10
-1.000000000000000E+20
 20
-1.000000000000000E+20
 30
-1.000000000000000E+20
  9
$PLIMMIN
 10
0.0
 20
0.0
  9
$PLIMMAX
 10
12.0
 20
9.0
  9
$UNITMODE
 70
     0
  9
$VISRETAIN
 70
     1
  9
$PLINEGEN
 70
     0
  9
$PSLTSCALE
 70
     1
  9
$TREEDEPTH
 70
  3020
  9
$CMLSTYLE
  2
Standard
  9
$CMLJUST
 70
     0
  9
$CMLSCALE
 40
1.0
  9
$PROXYGRAPHICS
 70
     1
  9
$MEASUREMENT
 70
     0
  9
$CELWEIGHT
370
    -1
  9
$ENDCAPS
280
     0
  9
$JOINSTYLE
280
     0
  9
$LWDISPLAY
290
     0
  9
$INSUNITS
 70
     4
  9
$HYPERLINKBASE
  1

  9
$STYLESHEET
  1

  9
$XEDIT
290
     1
  9
$CEPSNTYPE
380
     0
  9
$PSTYLEMODE
290
     1
  9
$FINGERPRINTGUID
  2
{9BDCD447-939D-4BD8-BD8E-6ABD3437501F}
  9
$VERSIONGUID
  2
{FAEB1C32-E019-11D5-929B-00C0DF256EC4}
  9
$EXTNAMES
290
     1
  9
$PSVPSCALE
 40
0.0
  9
$OLESTARTUP
290
     0
  0
ENDSEC
  0
SECTION
  2
CLASSES
  0
CLASS
  1
ACDBDICTIONARYWDFLT
  2
AcDbDictionaryWithDefault
  3
ObjectDBX Classes
 90
        0
280
     0
281
     0
  0
CLASS
  1
VISUALSTYLE
  2
AcDbVisualStyle
  3
ObjectDBX Classes
 90
     4095
280
     0
281
     0
  0
CLASS
  1
MATERIAL
  2
AcDbMaterial
  3
ObjectDBX Classes
 90
     1153
280
     0
281
     0
  0
CLASS
  1
DICTIONARYVAR
  2
AcDbDictionaryVar
  3
ObjectDBX Classes
 90
        0
280
     0
281
     0
  0
CLASS
  1
ACDBPLACEHOLDER
  2
AcDbPlaceHolder
  3
ObjectDBX Classes
 90
        0
280
     0
281
     0
  0
CLASS
  1
LAYOUT
  2
AcDbLayout
  3
ObjectDBX Classes
 90
        0
280
     0
281
     0
  0
ENDSEC
  0
SECTION
  2
TABLES
  0
TABLE
  2
VPORT
  5
8
330
0
100
AcDbSymbolTable
 70
     1
  0
VPORT
  5
29
330
8
100
AcDbSymbolTableRecord
100
AcDbViewportTableRecord
  2
*Active
 70
     0
 10
0.0
 20
0.0
 11
1.0
 21
1.0
 12
10.42990654205607
 22
4.5
 13
0.0
 23
0.0
 14
0.5
 24
0.5
 15
0.5
 25
0.5
 16
0.0
 26
0.0
 36
1.0
 17
0.0
 27
0.0
 37
0.0
 40
9.0
 41
1.972972972850329
 42
50.0
 43
0.0
 44
0.0
 50
0.0
 51
0.0
 71
     0
 72
   100
 73
     1
 74
     3
 75
     0
 76
     0
 77
     0
 78
     0
281
     0
 65
     1
110
0.0
120
0.0
130
0.0
111
1.0
121
0.0
131
0.0
112
0.0
122
1.0
132
0.0
 79
     0
146
0.0
  0
ENDTAB
  0
TABLE
  2
LTYPE
  5
5
330
0
100
AcDbSymbolTable
 70
     1
  0
LTYPE
  5
14
330
5
100
AcDbSymbolTableRecord
100
AcDbLinetypeTableRecord
  2
ByBlock
 70
     0
  3

 72
    65
 73
     0
 40
0.0
  0
LTYPE
  5
15
330
5
100
AcDbSymbolTableRecord
100
AcDbLinetypeTableRecord
  2
ByLayer
 70
     0
  3

 72
    65
 73
     0
 40
0.0
  0
LTYPE
  5
16
330
5
100
AcDbSymbolTableRecord
100
AcDbLinetypeTableRecord
  2
Continuous
 70
     0
  3
Solid line
 72
    65
 73
     0
 40
0.0
  0
ENDTAB
  0
TABLE
  2
LAYER
  5
2
330
0
100
AcDbSymbolTable
 70
     2
  0
LAYER
  5
10
330
2
100
AcDbSymbolTableRecord
100
AcDbLayerTableRecord
  2
0
 70
     0
 62
     7
  6
Continuous
370
    -3
390
F
  0
LAYER
  5
40
330
2
100
AcDbSymbolTableRecord
100
AcDbLayerTableRecord
  2
layer 1
 70
     0
 62
     7
  6
Continuous
370
    -3
390
F
  0
ENDTAB
  0
TABLE
  2
STYLE
  5
3
330
0
100
AcDbSymbolTable
 70
     1
  0
STYLE
  5
11
330
3
100
AcDbSymbolTableRecord
100
AcDbTextStyleTableRecord
  2
Standard
 70
     0
 40
0.0
 41
1.0
 50
0.0
 71
     0
 42
0.2
  3
txt
  4

  0
ENDTAB
  0
TABLE
  2
VIEW
  5
6
330
0
100
AcDbSymbolTable
 70
     0
  0
ENDTAB
  0
TABLE
  2
UCS
  5
7
330
0
100
AcDbSymbolTable
 70
     0
  0
ENDTAB
  0
TABLE
  2
APPID
  5
9
330
0
100
AcDbSymbolTable
 70
     2
  0
APPID
  5
12
330
9
100
AcDbSymbolTableRecord
100
AcDbRegAppTableRecord
  2
ACAD
 70
     0
  0
APPID
  5
3F
330
9
100
AcDbSymbolTableRecord
100
AcDbRegAppTableRecord
  2
ODA
 70
     0
  0
ENDTAB
  0
TABLE
  2
DIMSTYLE
  5
A
330
0
100
AcDbSymbolTable
 70
     1
100
AcDbDimStyleTable
  0
DIMSTYLE
105
27
330
A
100
AcDbSymbolTableRecord
100
AcDbDimStyleTableRecord
  2
Standard
 70
     0
178
     0
340
11
  0
ENDTAB
  0
TABLE
  2
BLOCK_RECORD
  5
1
330
0
100
AcDbSymbolTable
 70
     1
  0
BLOCK_RECORD
  5
1F
330
1
100
AcDbSymbolTableRecord
100
AcDbBlockTableRecord
  2
*Model_Space
340
22
  0
BLOCK_RECORD
  5
1B
330
1
100
AcDbSymbolTableRecord
100
AcDbBlockTableRecord
  2
*Paper_Space
340
1E
  0
BLOCK_RECORD
  5
23
330
1
100
AcDbSymbolTableRecord
100
AcDbBlockTableRecord
  2
*Paper_Space0
340
26
  0
ENDTAB
  0
ENDSEC
  0
SECTION
  2
BLOCKS
  0
BLOCK
  5
20
330
1F
100
AcDbEntity
  8
0
100
AcDbBlockBegin
  2
*Model_Space
 70
     0
 10
0.0
 20
0.0
 30
0.0
  3
*Model_Space
  1

  0
ENDBLK
  5
21
330
1F
100
AcDbEntity
  8
0
100
AcDbBlockEnd
  0
BLOCK
  5
1C
330
1B
100
AcDbEntity
 67
     1
  8
0
100
AcDbBlockBegin
  2
*Paper_Space
 70
     0
 10
0.0
 20
0.0
 30
0.0
  3
*Paper_Space
  1

  0
ENDBLK
  5
1D
330
1B
100
AcDbEntity
 67
     1
  8
0
100
AcDbBlockEnd
  0
BLOCK
  5
24
330
23
100
AcDbEntity
  8
0
100
AcDbBlockBegin
  2
*Paper_Space0
 70
     0
 10
0.0
 20
0.0
 30
0.0
  3
*Paper_Space0
  1

  0
ENDBLK
  5
25
330
23
100
AcDbEntity
  8
0
100
AcDbBlockEnd
  0
ENDSEC
  0
SECTION
  2
ENTITIES
  0
SPLINE
  5
41
330
1F
100
AcDbEntity
  8
layer 1
370
     9
100
AcDbSpline
210
0.0
220
0.0
230
1.0
 70
    11
 71
     3
 72
    68
 73
    64
 74
     0
 42
0.0000000001
 43
0.0000000001
 12
1.0
 22
0.0
 32
0.0
 13
1.0
 23
0.0
 33
0.0
 40
0.0
 40
0.0
 40
0.0
 40
0.0
 40
0.0588235294117647
 40
0.0588235294117647
 40
0.0588235294117647
 40
0.0588235294117647
 40
0.1176470588235294
 40
0.1176470588235294
 40
0.1176470588235294
 40
0.1176470588235294
 40
0.1764705882352941
 40
0.1764705882352941
 40
0.1764705882352941
 40
0.1764705882352941
 40
0.2352941176470588
 40
0.2352941176470588
 40
0.2352941176470588
 40
0.2352941176470588
 40
0.2941176470588235
 40
0.2941176470588235
 40
0.2941176470588235
 40
0.2941176470588235
 40
0.3529411764705883
 40
0.3529411764705883
 40
0.3529411764705883
 40
0.3529411764705883
 40
0.4117647058823529
 40
0.4117647058823529
 40
0.4117647058823529
 40
0.4117647058823529
 40
0.4705882352941176
 40
0.4705882352941176
 40
0.4705882352941176
 40
0.4705882352941176
 40
0.5294117647058824
 40
0.5294117647058824
 40
0.5294117647058824
 40
0.5294117647058824
 40
0.5882352941176471
 40
0.5882352941176471
 40
0.5882352941176471
 40
0.5882352941176471
 40
0.6470588235294118
 40
0.6470588235294118
 40
0.6470588235294118
 40
0.6470588235294118
 40
0.7058823529411765
 40
0.7058823529411765
 40
0.7058823529411765
 40
0.7058823529411765
 40
0.7647058823529411
 40
0.7647058823529411
 40
0.7647058823529411
 40
0.7647058823529411
 40
0.8235294117647058
 40
0.8235294117647058
 40
0.8235294117647058
 40
0.8235294117647058
 40
0.8823529411764706
 40
0.8823529411764706
 40
0.8823529411764706
 40
0.8823529411764706
 40
1.0
 40
1.0
 40
1.0
 40
1.0
 10
47.2959
 20
166.0823
 30
0.0
 10
47.2959
 20
166.0823
 30
0.0
 10
47.2959
 20
-103.9177
 30
0.0
 10
47.2959
 20
-103.9177
 30
0.0
 10
47.2959
 20
-103.9177
 30
0.0
 10
47.2959
 20
-103.9177
 30
0.0
 10
-47.7041
 20
-103.9177
 30
0.0
 10
-47.7041
 20
-103.9177
 30
0.0
 10
-47.7041
 20
-103.9177
 30
0.0
 10
-47.7041
 20
-103.9177
 30
0.0
 10
-47.7041
 20
-79.0177
 30
0.0
 10
-47.7041
 20
-79.0177
 30
0.0
 10
-47.7041
 20
-79.0177
 30
0.0
 10
-47.7041
 20
-79.0177
 30
0.0
 10
-53.7041
 20
-79.0177
 30
0.0
 10
-53.7041
 20
-79.0177
 30
0.0
 10
-53.7041
 20
-79.0177
 30
0.0
 10
-53.7041
 20
-79.0177
 30
0.0
 10
-53.7041
 20
-38.8177
 30
0.0
 10
-53.7041
 20
-38.8177
 30
0.0
 10
-53.7041
 20
-38.8177
 30
0.0
 10
-53.7041
 20
-38.8177
 30
0.0
 10
-47.7041
 20
-38.8177
 30
0.0
 10
-47.7041
 20
-38.8177
 30
0.0
 10
-47.7041
 20
-38.8177
 30
0.0
 10
-47.7041
 20
-38.8177
 30
0.0
 10
-47.7041
 20
10.9823
 30
0.0
 10
-47.7041
 20
10.9823
 30
0.0
 10
-47.7041
 20
10.9823
 30
0.0
 10
-47.7041
 20
10.9823
 30
0.0
 10
-53.7041
 20
10.9823
 30
0.0
 10
-53.7041
 20
10.9823
 30
0.0
 10
-53.7041
 20
10.9823
 30
0.0
 10
-53.7041
 20
10.9823
 30
0.0
 10
-53.7041
 20
51.1823
 30
0.0
 10
-53.7041
 20
51.1823
 30
0.0
 10
-53.7041
 20
51.1823
 30
0.0
 10
-53.7041
 20
51.1823
 30
0.0
 10
-47.7041
 20
51.1823
 30
0.0
 10
-47.7041
 20
51.1823
 30
0.0
 10
-47.7041
 20
51.1823
 30
0.0
 10
-47.7041
 20
51.1823
 30
0.0
 10
-47.7041
 20
100.9823
 30
0.0
 10
-47.7041
 20
100.9823
 30
0.0
 10
-47.7041
 20
100.9823
 30
0.0
 10
-47.7041
 20
100.9823
 30
0.0
 10
-53.7041
 20
100.9823
 30
0.0
 10
-53.7041
 20
100.9823
 30
0.0
 10
-53.7041
 20
100.9823
 30
0.0
 10
-53.7041
 20
100.9823
 30
0.0
 10
-53.7041
 20
141.1823
 30
0.0
 10
-53.7041
 20
141.1823
 30
0.0
 10
-53.7041
 20
141.1823
 30
0.0
 10
-53.7041
 20
141.1823
 30
0.0
 10
-47.7041
 20
141.1823
 30
0.0
 10
-47.7041
 20
141.1823
 30
0.0
 10
-47.7041
 20
141.1823
 30
0.0
 10
-47.7041
 20
141.1823
 30
0.0
 10
-47.7041
 20
166.0823
 30
0.0
 10
-47.7041
 20
166.0823
 30
0.0
 10
-47.7041
 20
166.0823
 30
0.0
 10
-47.7041
 20
166.0823
 30
0.0
 10
47.2959
 20
166.0823
 30
0.0
 10
47.2959
 20
166.0823
 30
0.0
  0
SPLINE
  5
42
330
1F
100
AcDbEntity
  8
layer 1
370
     9
100
AcDbSpline
210
0.0
220
0.0
230
1.0
 70
    11
 71
     3
 72
    68
 73
    64
 74
     0
 42
0.0000000001
 43
0.0000000001
 12
1.0
 22
0.0
 32
0.0
 13
1.0
 23
0.0
 33
0.0
 40
0.0
 40
0.0
 40
0.0
 40
0.0
 40
0.0588235294117647
 40
0.0588235294117647
 40
0.0588235294117647
 40
0.0588235294117647
 40
0.1176470588235294
 40
0.1176470588235294
 40
0.1176470588235294
 40
0.1176470588235294
 40
0.1764705882352941
 40
0.1764705882352941
 40
0.1764705882352941
 40
0.1764705882352941
 40
0.2352941176470588
 40
0.2352941176470588
 40
0.2352941176470588
 40
0.2352941176470588
 40
0.2941176470588235
 40
0.2941176470588235
 40
0.2941176470588235
 40
0.2941176470588235
 40
0.3529411764705883
 40
0.3529411764705883
 40
0.3529411764705883
 40
0.3529411764705883
 40
0.4117647058823529
 40
0.4117647058823529
 40
0.4117647058823529
 40
0.4117647058823529
 40
0.4705882352941176
 40
0.4705882352941176
 40
0.4705882352941176
 40
0.4705882352941176
 40
0.5294117647058824
 40
0.5294117647058824
 40
0.5294117647058824
 40
0.5294117647058824
 40
0.5882352941176471
 40
0.5882352941176471
 40
0.5882352941176471
 40
0.5882352941176471
 40
0.6470588235294118
 40
0.6470588235294118
 40
0.6470588235294118
 40
0.6470588235294118
 40
0.7058823529411765
 40
0.7058823529411765
 40
0.7058823529411765
 40
0.7058823529411765
 40
0.7647058823529411
 40
0.7647058823529411
 40
0.7647058823529411
 40
0.7647058823529411
 40
0.8235294117647058
 40
0.8235294117647058
 40
0.8235294117647058
 40
0.8235294117647058
 40
0.8823529411764706
 40
0.8823529411764706
 40
0.8823529411764706
 40
0.8823529411764706
 40
1.0
 40
1.0
 40
1.0
 40
1.0
 10
-102.3262
 20
190.0
 30
0.0
 10
-102.3262
 20
190.0
 30
0.0
 10
-372.3262
 20
190.0
 30
0.0
 10
-372.3262
 20
190.0
 30
0.0
 10
-372.3262
 20
190.0
 30
0.0
 10
-372.3262
 20
190.0
 30
0.0
 10
-372.3262
 20
95.0
 30
0.0
 10
-372.3262
 20
95.0
 30
0.0
 10
-372.3262
 20
95.0
 30
0.0
 10
-372.3262
 20
95.0
 30
0.0
 10
-347.4262
 20
95.0
 30
0.0
 10
-347.4262
 20
95.0
 30
0.0
 10
-347.4262
 20
95.0
 30
0.0
 10
-347.4262
 20
95.0
 30
0.0
 10
-347.4262
 20
89.0
 30
0.0
 10
-347.4262
 20
89.0
 30
0.0
 10
-347.4262
 20
89.0
 30
0.0
 10
-347.4262
 20
89.0
 30
0.0
 10
-307.2262
 20
89.0
 30
0.0
 10
-307.2262
 20
89.0
 30
0.0
 10
-307.2262
 20
89.0
 30
0.0
 10
-307.2262
 20
89.0
 30
0.0
 10
-307.2262
 20
95.0
 30
0.0
 10
-307.2262
 20
95.0
 30
0.0
 10
-307.2262
 20
95.0
 30
0.0
 10
-307.2262
 20
95.0
 30
0.0
 10
-257.4262
 20
95.0
 30
0.0
 10
-257.4262
 20
95.0
 30
0.0
 10
-257.4262
 20
95.0
 30
0.0
 10
-257.4262
 20
95.0
 30
0.0
 10
-257.4262
 20
89.0
 30
0.0
 10
-257.4262
 20
89.0
 30
0.0
 10
-257.4262
 20
89.0
 30
0.0
 10
-257.4262
 20
89.0
 30
0.0
 10
-217.2262
 20
89.0
 30
0.0
 10
-217.2262
 20
89.0
 30
0.0
 10
-217.2262
 20
89.0
 30
0.0
 10
-217.2262
 20
89.0
 30
0.0
 10
-217.2262
 20
95.0
 30
0.0
 10
-217.2262
 20
95.0
 30
0.0
 10
-217.2262
 20
95.0
 30
0.0
 10
-217.2262
 20
95.0
 30
0.0
 10
-167.4262
 20
95.0
 30
0.0
 10
-167.4262
 20
95.0
 30
0.0
 10
-167.4262
 20
95.0
 30
0.0
 10
-167.4262
 20
95.0
 30
0.0
 10
-167.4262
 20
89.0
 30
0.0
 10
-167.4262
 20
89.0
 30
0.0
 10
-167.4262
 20
89.0
 30
0.0
 10
-167.4262
 20
89.0
 30
0.0
 10
-127.2262
 20
89.0
 30
0.0
 10
-127.2262
 20
89.0
 30
0.0
 10
-127.2262
 20
89.0
 30
0.0
 10
-127.2262
 20
89.0
 30
0.0
 10
-127.2262
 20
95.0
 30
0.0
 10
-127.2262
 20
95.0
 30
0.0
 10
-127.2262
 20
95.0
 30
0.0
 10
-127.2262
 20
95.0
 30
0.0
 10
-102.3262
 20
95.0
 30
0.0
 10
-102.3262
 20
95.0
 30
0.0
 10
-102.3262
 20
95.0
 30
0.0
 10
-102.3262
 20
95.0
 30
0.0
 10
-102.3262
 20
190.0
 30
0.0
 10
-102.3262
 20
190.0
 30
0.0
  0
SPLINE
  5
43
330
1F
100
AcDbEntity
  8
layer 1
370
     9
100
AcDbSpline
210
0.0
220
0.0
230
1.0
 70
    11
 71
     3
 72
    84
 73
    80
 74
     0
 42
0.0000000001
 43
0.0000000001
 12
1.0
 22
0.0
 32
0.0
 13
1.0
 23
0.0
 33
0.0
 40
0.0
 40
0.0
 40
0.0
 40
0.0
 40
0.0476190476190476
 40
0.0476190476190476
 40
0.0476190476190476
 40
0.0476190476190476
 40
0.0952380952380952
 40
0.0952380952380952
 40
0.0952380952380952
 40
0.0952380952380952
 40
0.1428571428571428
 40
0.1428571428571428
 40
0.1428571428571428
 40
0.1428571428571428
 40
0.1904761904761905
 40
0.1904761904761905
 40
0.1904761904761905
 40
0.1904761904761905
 40
0.2380952380952381
 40
0.2380952380952381
 40
0.2380952380952381
 40
0.2380952380952381
 40
0.2857142857142857
 40
0.2857142857142857
 40
0.2857142857142857
 40
0.2857142857142857
 40
0.3333333333333333
 40
0.3333333333333333
 40
0.3333333333333333
 40
0.3333333333333333
 40
0.3809523809523809
 40
0.3809523809523809
 40
0.3809523809523809
 40
0.3809523809523809
 40
0.4285714285714285
 40
0.4285714285714285
 40
0.4285714285714285
 40
0.4285714285714285
 40
0.4761904761904762
 40
0.4761904761904762
 40
0.4761904761904762
 40
0.4761904761904762
 40
0.5238095238095238
 40
0.5238095238095238
 40
0.5238095238095238
 40
0.5238095238095238
 40
0.5714285714285714
 40
0.5714285714285714
 40
0.5714285714285714
 40
0.5714285714285714
 40
0.6190476190476191
 40
0.6190476190476191
 40
0.6190476190476191
 40
0.6190476190476191
 40
0.6666666666666666
 40
0.6666666666666666
 40
0.6666666666666666
 40
0.6666666666666666
 40
0.7142857142857143
 40
0.7142857142857143
 40
0.7142857142857143
 40
0.7142857142857143
 40
0.7619047619047619
 40
0.7619047619047619
 40
0.7619047619047619
 40
0.7619047619047619
 40
0.8095238095238095
 40
0.8095238095238095
 40
0.8095238095238095
 40
0.8095238095238095
 40
0.8571428571428571
 40
0.8571428571428571
 40
0.8571428571428571
 40
0.8571428571428571
 40
0.9047619047619048
 40
0.9047619047619048
 40
0.9047619047619048
 40
0.9047619047619048
 40
1.0
 40
1.0
 40
1.0
 40
1.0
 10
-380.0
 20
-17.9177
 30
0.0
 10
-380.0
 20
-17.9177
 30
0.0
 10
-60.0004
 20
-17.9177
 30
0.0
 10
-60.0004
 20
-17.9177
 30
0.0
 10
-60.0004
 20
-17.9177
 30
0.0
 10
-60.0004
 20
-17.9177
 30
0.0
 10
-60.0004
 20
-112.9177
 30
0.0
 10
-60.0004
 20
-112.9177
 30
0.0
 10
-60.0004
 20
-112.9177
 30
0.0
 10
-60.0004
 20
-112.9177
 30
0.0
 10
-64.9004
 20
-112.9177
 30
0.0
 10
-64.9004
 20
-112.9177
 30
0.0
 10
-64.9004
 20
-112.9177
 30
0.0
 10
-64.9004
 20
-112.9177
 30
0.0
 10
-64.9004
 20
-118.9177
 30
0.0
 10
-64.9004
 20
-118.9177
 30
0.0
 10
-64.9004
 20
-118.9177
 30
0.0
 10
-64.9004
 20
-118.9177
 30
0.0
 10
-105.1004
 20
-118.9177
 30
0.0
 10
-105.1004
 20
-118.9177
 30
0.0
 10
-105.1004
 20
-118.9177
 30
0.0
 10
-105.1004
 20
-118.9177
 30
0.0
 10
-105.1004
 20
-112.9177
 30
0.0
 10
-105.1004
 20
-112.9177
 30
0.0
 10
-105.1004
 20
-112.9177
 30
0.0
 10
-105.1004
 20
-112.9177
 30
0.0
 10
-154.9003
 20
-112.9177
 30
0.0
 10
-154.9003
 20
-112.9177
 30
0.0
 10
-154.9003
 20
-112.9177
 30
0.0
 10
-154.9003
 20
-112.9177
 30
0.0
 10
-154.9003
 20
-118.9177
 30
0.0
 10
-154.9003
 20
-118.9177
 30
0.0
 10
-154.9003
 20
-118.9177
 30
0.0
 10
-154.9003
 20
-118.9177
 30
0.0
 10
-195.1002
 20
-118.9177
 30
0.0
 10
-195.1002
 20
-118.9177
 30
0.0
 10
-195.1002
 20
-118.9177
 30
0.0
 10
-195.1002
 20
-118.9177
 30
0.0
 10
-195.1002
 20
-112.9177
 30
0.0
 10
-195.1002
 20
-112.9177
 30
0.0
 10
-195.1002
 20
-112.9177
 30
0.0
 10
-195.1002
 20
-112.9177
 30
0.0
 10
-244.9002
 20
-112.9177
 30
0.0
 10
-244.9002
 20
-112.9177
 30
0.0
 10
-244.9002
 20
-112.9177
 30
0.0
 10
-244.9002
 20
-112.9177
 30
0.0
 10
-244.9002
 20
-118.9177
 30
0.0
 10
-244.9002
 20
-118.9177
 30
0.0
 10
-244.9002
 20
-118.9177
 30
0.0
 10
-244.9002
 20
-118.9177
 30
0.0
 10
-285.1001
 20
-118.9177
 30
0.0
 10
-285.1001
 20
-118.9177
 30
0.0
 10
-285.1001
 20
-118.9177
 30
0.0
 10
-285.1001
 20
-118.9177
 30
0.0
 10
-285.1001
 20
-112.9177
 30
0.0
 10
-285.1001
 20
-112.9177
 30
0.0
 10
-285.1001
 20
-112.9177
 30
0.0
 10
-285.1001
 20
-112.9177
 30
0.0
 10
-334.9001
 20
-112.9177
 30
0.0
 10
-334.9001
 20
-112.9177
 30
0.0
 10
-334.9001
 20
-112.9177
 30
0.0
 10
-334.9001
 20
-112.9177
 30
0.0
 10
-334.9001
 20
-118.9177
 30
0.0
 10
-334.9001
 20
-118.9177
 30
0.0
 10
-334.9001
 20
-118.9177
 30
0.0
 10
-334.9001
 20
-118.9177
 30
0.0
 10
-375.0974
 20
-118.9177
 30
0.0
 10
-375.0974
 20
-118.9177
 30
0.0
 10
-375.0974
 20
-118.9177
 30
0.0
 10
-375.0974
 20
-118.9177
 30
0.0
 10
-375.0974
 20
-113.3753
 30
0.0
 10
-375.0974
 20
-113.3753
 30
0.0
 10
-375.0974
 20
-113.3753
 30
0.0
 10
-375.0974
 20
-113.3753
 30
0.0
 10
-380.0
 20
-113.3753
 30
0.0
 10
-380.0
 20
-113.3753
 30
0.0
 10
-380.0
 20
-113.3753
 30
0.0
 10
-380.0
 20
-113.3753
 30
0.0
 10
-380.0
 20
-17.9177
 30
0.0
 10
-380.0
 20
-17.9177
 30
0.0
  0
SPLINE
  5
44
330
1F
100
AcDbEntity
  8
layer 1
370
     9
100
AcDbSpline
210
0.0
220
0.0
230
1.0
 70
    11
 71
     3
 72
    20
 73
    16
 74
     0
 42
0.0000000001
 43
0.0000000001
 12
1.0
 22
0.0
 32
0.0
 13
1.0
 23
0.0
 33
0.0
 40
0.0
 40
0.0
 40
0.0
 40
0.0
 40
0.2
 40
0.2
 40
0.2
 40
0.2
 40
0.4
 40
0.4
 40
0.4
 40
0.4
 40
0.6
 40
0.6
 40
0.6
 40
0.6
 40
1.0
 40
1.0
 40
1.0
 40
1.0
 10
-80.2751
 20
-97.9177
 30
0.0
 10
-80.2751
 20
-102.1841
 30
0.0
 10
-83.7337
 20
-105.6427
 30
0.0
 10
-88.0001
 20
-105.6427
 30
0.0
 10
-88.0001
 20
-105.6427
 30
0.0
 10
-92.2664
 20
-105.6427
 30
0.0
 10
-95.7251
 20
-102.1842
 30
0.0
 10
-95.7251
 20
-97.9177
 30
0.0
 10
-95.7251
 20
-97.9177
 30
0.0
 10
-95.7251
 20
-93.6514
 30
0.0
 10
-92.2665
 20
-90.1927
 30
0.0
 10
-88.0001
 20
-90.1927
 30
0.0
 10
-88.0001
 20
-90.1927
 30
0.0
 10
-83.7337
 20
-90.1927
 30
0.0
 10
-80.2751
 20
-93.6513
 30
0.0
 10
-80.2751
 20
-97.9177
 30
0.0
  0
SPLINE
  5
45
330
1F
100
AcDbEntity
  8
layer 1
370
     9
100
AcDbSpline
210
0.0
220
0.0
230
1.0
 70
    11
 71
     3
 72
    20
 73
    16
 74
     0
 42
0.0000000001
 43
0.0000000001
 12
1.0
 22
0.0
 32
0.0
 13
1.0
 23
0.0
 33
0.0
 40
0.0
 40
0.0
 40
0.0
 40
0.0
 40
0.2
 40
0.2
 40
0.2
 40
0.2
 40
0.4
 40
0.4
 40
0.4
 40
0.4
 40
0.6
 40
0.6
 40
0.6
 40
0.6
 40
1.0
 40
1.0
 40
1.0
 40
1.0
 10
-344.2751
 20
-97.9177
 30
0.0
 10
-344.2751
 20
-102.1841
 30
0.0
 10
-347.7338
 20
-105.6428
 30
0.0
 10
-352.0002
 20
-105.6428
 30
0.0
 10
-352.0002
 20
-105.6428
 30
0.0
 10
-356.2665
 20
-105.6428
 30
0.0
 10
-359.7252
 20
-102.1842
 30
0.0
 10
-359.7252
 20
-97.9177
 30
0.0
 10
-359.7252
 20
-97.9177
 30
0.0
 10
-359.7252
 20
-93.6514
 30
0.0
 10
-356.2666
 20
-90.1927
 30
0.0
 10
-352.0002
 20
-90.1927
 30
0.0
 10
-352.0002
 20
-90.1927
 30
0.0
 10
-347.7338
 20
-90.1927
 30
0.0
 10
-344.2751
 20
-93.6512
 30
0.0
 10
-344.2751
 20
-97.9177
 30
0.0
  0
SPLINE
  5
46
330
1F
100
AcDbEntity
  8
layer 1
370
     9
100
AcDbSpline
210
0.0
220
0.0
230
1.0
 70
    11
 71
     3
 72
    84
 73
    80
 74
     0
 42
0.0000000001
 43
0.0000000001
 12
1.0
 22
0.0
 32
0.0
 13
1.0
 23
0.0
 33
0.0
 40
0.0
 40
0.0
 40
0.0
 40
0.0
 40
0.0476190476190476
 40
0.0476190476190476
 40
0.0476190476190476
 40
0.0476190476190476
 40
0.0952380952380952
 40
0.0952380952380952
 40
0.0952380952380952
 40
0.0952380952380952
 40
0.1428571428571428
 40
0.1428571428571428
 40
0.1428571428571428
 40
0.1428571428571428
 40
0.1904761904761905
 40
0.1904761904761905
 40
0.1904761904761905
 40
0.1904761904761905
 40
0.2380952380952381
 40
0.2380952380952381
 40
0.2380952380952381
 40
0.2380952380952381
 40
0.2857142857142857
 40
0.2857142857142857
 40
0.2857142857142857
 40
0.2857142857142857
 40
0.3333333333333333
 40
0.3333333333333333
 40
0.3333333333333333
 40
0.3333333333333333
 40
0.3809523809523809
 40
0.3809523809523809
 40
0.3809523809523809
 40
0.3809523809523809
 40
0.4285714285714285
 40
0.4285714285714285
 40
0.4285714285714285
 40
0.4285714285714285
 40
0.4761904761904762
 40
0.4761904761904762
 40
0.4761904761904762
 40
0.4761904761904762
 40
0.5238095238095238
 40
0.5238095238095238
 40
0.5238095238095238
 40
0.5238095238095238
 40
0.5714285714285714
 40
0.5714285714285714
 40
0.5714285714285714
 40
0.5714285714285714
 40
0.6190476190476191
 40
0.6190476190476191
 40
0.6190476190476191
 40
0.6190476190476191
 40
0.6666666666666666
 40
0.6666666666666666
 40
0.6666666666666666
 40
0.6666666666666666
 40
0.7142857142857143
 40
0.7142857142857143
 40
0.7142857142857143
 40
0.7142857142857143
 40
0.7619047619047619
 40
0.7619047619047619
 40
0.7619047619047619
 40
0.7619047619047619
 40
0.8095238095238095
 40
0.8095238095238095
 40
0.8095238095238095
 40
0.8095238095238095
 40
0.8571428571428571
 40
0.8571428571428571
 40
0.8571428571428571
 40
0.8571428571428571
 40
0.9047619047619048
 40
0.9047619047619048
 40
0.9047619047619048
 40
0.9047619047619048
 40
1.0
 40
1.0
 40
1.0
 40
1.0
 10
-380.0
 20
-15.9883
 30
0.0
 10
-380.0
 20
-15.9883
 30
0.0
 10
-60.0004
 20
-15.9883
 30
0.0
 10
-60.0004
 20
-15.9883
 30
0.0
 10
-60.0004
 20
-15.9883
 30
0.0
 10
-60.0004
 20
-15.9883
 30
0.0
 10
-60.0004
 20
79.0117
 30
0.0
 10
-60.0004
 20
79.0117
 30
0.0
 10
-60.0004
 20
79.0117
 30
0.0
 10
-60.0004
 20
79.0117
 30
0.0
 10
-64.9004
 20
79.0117
 30
0.0
 10
-64.9004
 20
79.0117
 30
0.0
 10
-64.9004
 20
79.0117
 30
0.0
 10
-64.9004
 20
79.0117
 30
0.0
 10
-64.9004
 20
85.0117
 30
0.0
 10
-64.9004
 20
85.0117
 30
0.0
 10
-64.9004
 20
85.0117
 30
0.0
 10
-64.9004
 20
85.0117
 30
0.0
 10
-105.1004
 20
85.0117
 30
0.0
 10
-105.1004
 20
85.0117
 30
0.0
 10
-105.1004
 20
85.0117
 30
0.0
 10
-105.1004
 20
85.0117
 30
0.0
 10
-105.1004
 20
79.0117
 30
0.0
 10
-105.1004
 20
79.0117
 30
0.0
 10
-105.1004
 20
79.0117
 30
0.0
 10
-105.1004
 20
79.0117
 30
0.0
 10
-154.9003
 20
79.0117
 30
0.0
 10
-154.9003
 20
79.0117
 30
0.0
 10
-154.9003
 20
79.0117
 30
0.0
 10
-154.9003
 20
79.0117
 30
0.0
 10
-154.9003
 20
85.0117
 30
0.0
 10
-154.9003
 20
85.0117
 30
0.0
 10
-154.9003
 20
85.0117
 30
0.0
 10
-154.9003
 20
85.0117
 30
0.0
 10
-195.1002
 20
85.0117
 30
0.0
 10
-195.1002
 20
85.0117
 30
0.0
 10
-195.1002
 20
85.0117
 30
0.0
 10
-195.1002
 20
85.0117
 30
0.0
 10
-195.1002
 20
79.0117
 30
0.0
 10
-195.1002
 20
79.0117
 30
0.0
 10
-195.1002
 20
79.0117
 30
0.0
 10
-195.1002
 20
79.0117
 30
0.0
 10
-244.9002
 20
79.0117
 30
0.0
 10
-244.9002
 20
79.0117
 30
0.0
 10
-244.9002
 20
79.0117
 30
0.0
 10
-244.9002
 20
79.0117
 30
0.0
 10
-244.9002
 20
85.0117
 30
0.0
 10
-244.9002
 20
85.0117
 30
0.0
 10
-244.9002
 20
85.0117
 30
0.0
 10
-244.9002
 20
85.0117
 30
0.0
 10
-285.1001
 20
85.0117
 30
0.0
 10
-285.1001
 20
85.0117
 30
0.0
 10
-285.1001
 20
85.0117
 30
0.0
 10
-285.1001
 20
85.0117
 30
0.0
 10
-285.1001
 20
79.0117
 30
0.0
 10
-285.1001
 20
79.0117
 30
0.0
 10
-285.1001
 20
79.0117
 30
0.0
 10
-285.1001
 20
79.0117
 30
0.0
 10
-334.9001
 20
79.0117
 30
0.0
 10
-334.9001
 20
79.0117
 30
0.0
 10
-334.9001
 20
79.0117
 30
0.0
 10
-334.9001
 20
79.0117
 30
0.0
 10
-334.9001
 20
85.0117
 30
0.0
 10
-334.9001
 20
85.0117
 30
0.0
 10
-334.9001
 20
85.0117
 30
0.0
 10
-334.9001
 20
85.0117
 30
0.0
 10
-375.0974
 20
85.0117
 30
0.0
 10
-375.0974
 20
85.0117
 30
0.0
 10
-375.0974
 20
85.0117
 30
0.0
 10
-375.0974
 20
85.0117
 30
0.0
 10
-375.0974
 20
79.4693
 30
0.0
 10
-375.0974
 20
79.4693
 30
0.0
 10
-375.0974
 20
79.4693
 30
0.0
 10
-375.0974
 20
79.4693
 30
0.0
 10
-380.0
 20
79.4693
 30
0.0
 10
-380.0
 20
79.4693
 30
0.0
 10
-380.0
 20
79.4693
 30
0.0
 10
-380.0
 20
79.4693
 30
0.0
 10
-380.0
 20
-15.9883
 30
0.0
 10
-380.0
 20
-15.9883
 30
0.0
  0
SPLINE
  5
47
330
1F
100
AcDbEntity
  8
layer 1
370
     9
100
AcDbSpline
210
0.0
220
0.0
230
1.0
 70
    11
 71
     3
 72
    20
 73
    16
 74
     0
 42
0.0000000001
 43
0.0000000001
 12
1.0
 22
0.0
 32
0.0
 13
1.0
 23
0.0
 33
0.0
 40
0.0
 40
0.0
 40
0.0
 40
0.0
 40
0.2
 40
0.2
 40
0.2
 40
0.2
 40
0.4
 40
0.4
 40
0.4
 40
0.4
 40
0.6
 40
0.6
 40
0.6
 40
0.6
 40
1.0
 40
1.0
 40
1.0
 40
1.0
 10
-80.2751
 20
64.0117
 30
0.0
 10
-80.2751
 20
68.2781
 30
0.0
 10
-83.7337
 20
71.7367
 30
0.0
 10
-88.0001
 20
71.7367
 30
0.0
 10
-88.0001
 20
71.7367
 30
0.0
 10
-92.2664
 20
71.7367
 30
0.0
 10
-95.7251
 20
68.2782
 30
0.0
 10
-95.7251
 20
64.0117
 30
0.0
 10
-95.7251
 20
64.0117
 30
0.0
 10
-95.7251
 20
59.7454
 30
0.0
 10
-92.2665
 20
56.2867
 30
0.0
 10
-88.0001
 20
56.2867
 30
0.0
 10
-88.0001
 20
56.2867
 30
0.0
 10
-83.7337
 20
56.2867
 30
0.0
 10
-80.2751
 20
59.7453
 30
0.0
 10
-80.2751
 20
64.0117
 30
0.0
  0
SPLINE
  5
48
330
1F
100
AcDbEntity
  8
layer 1
370
     9
100
AcDbSpline
210
0.0
220
0.0
230
1.0
 70
    11
 71
     3
 72
    20
 73
    16
 74
     0
 42
0.0000000001
 43
0.0000000001
 12
1.0
 22
0.0
 32
0.0
 13
1.0
 23
0.0
 33
0.0
 40
0.0
 40
0.0
 40
0.0
 40
0.0
 40
0.2
 40
0.2
 40
0.2
 40
0.2
 40
0.4
 40
0.4
 40
0.4
 40
0.4
 40
0.6
 40
0.6
 40
0.6
 40
0.6
 40
1.0
 40
1.0
 40
1.0
 40
1.0
 10
-344.2751
 20
64.0117
 30
0.0
 10
-344.2751
 20
68.2781
 30
0.0
 10
-347.7338
 20
71.7368
 30
0.0
 10
-352.0002
 20
71.7368
 30
0.0
 10
-352.0002
 20
71.7368
 30
0.0
 10
-356.2665
 20
71.7368
 30
0.0
 10
-359.7252
 20
68.2782
 30
0.0
 10
-359.7252
 20
64.0117
 30
0.0
 10
-359.7252
 20
64.0117
 30
0.0
 10
-359.7252
 20
59.7454
 30
0.0
 10
-356.2666
 20
56.2867
 30
0.0
 10
-352.0002
 20
56.2867
 30
0.0
 10
-352.0002
 20
56.2867
 30
0.0
 10
-347.7338
 20
56.2867
 30
0.0
 10
-344.2751
 20
59.7452
 30
0.0
 10
-344.2751
 20
64.0117
 30
0.0
  0
LWPOLYLINE
  5
49
330
1F
100
AcDbEntity
  8
layer 1
 62
   242
370
     0
100
AcDbPolyline
 90
        5
 70
     1
 43
0.0
 10
-66.7382
 20
-189.9998
 10
28.2618
 20
-189.9998
 10
28.2618
 20
-130.0
 10
-66.7382
 20
-130.0
 10
-66.7382
 20
-189.9998
  0
SPLINE
  5
4A
330
1F
100
AcDbEntity
  8
layer 1
 62
   250
370
     0
100
AcDbSpline
210
0.0
220
0.0
230
1.0
 70
    11
 71
     3
 72
    36
 73
    32
 74
     0
 42
0.0000000001
 43
0.0000000001
 12
1.0
 22
0.0
 32
0.0
 13
1.0
 23
0.0
 33
0.0
 40
0.0
 40
0.0
 40
0.0
 40
0.0
 40
0.1111111111111111
 40
0.1111111111111111
 40
0.1111111111111111
 40
0.1111111111111111
 40
0.2222222222222222
 40
0.2222222222222222
 40
0.2222222222222222
 40
0.2222222222222222
 40
0.3333333333333333
 40
0.3333333333333333
 40
0.3333333333333333
 40
0.3333333333333333
 40
0.4444444444444444
 40
0.4444444444444444
 40
0.4444444444444444
 40
0.4444444444444444
 40
0.5555555555555556
 40
0.5555555555555556
 40
0.5555555555555556
 40
0.5555555555555556
 40
0.6666666666666666
 40
0.6666666666666666
 40
0.6666666666666666
 40
0.6666666666666666
 40
0.7777777777777778
 40
0.7777777777777778
 40
0.7777777777777778
 40
0.7777777777777778
 40
1.0
 40
1.0
 40
1.0
 40
1.0
 10
-10.0475
 20
-138.3626
 30
0.0
 10
-10.0475
 20
-138.3626
 30
0.0
 10
14.7627
 20
-138.3626
 30
0.0
 10
14.7627
 20
-138.3626
 30
0.0
 10
14.7627
 20
-138.3626
 30
0.0
 10
18.9399
 20
-138.3626
 30
0.0
 10
22.3576
 20
-141.3626
 30
0.0
 10
22.3576
 20
-145.0293
 30
0.0
 10
22.3576
 20
-145.0293
 30
0.0
 10
22.3576
 20
-145.0293
 30
0.0
 10
22.3576
 20
-151.6959
 30
0.0
 10
22.3576
 20
-151.6959
 30
0.0
 10
22.3576
 20
-151.6959
 30
0.0
 10
22.3576
 20
-155.3626
 30
0.0
 10
18.9399
 20
-158.3626
 30
0.0
 10
14.7627
 20
-158.3626
 30
0.0
 10
14.7627
 20
-158.3626
 30
0.0
 10
14.7627
 20
-158.3626
 30
0.0
 10
-10.0475
 20
-158.3626
 30
0.0
 10
-10.0475
 20
-158.3626
 30
0.0
 10
-10.0475
 20
-158.3626
 30
0.0
 10
-14.2247
 20
-158.3626
 30
0.0
 10
-17.6424
 20
-155.3626
 30
0.0
 10
-17.6424
 20
-151.6959
 30
0.0
 10
-17.6424
 20
-151.6959
 30
0.0
 10
-17.6424
 20
-151.6959
 30
0.0
 10
-17.6424
 20
-145.0293
 30
0.0
 10
-17.6424
 20
-145.0293
 30
0.0
 10
-17.6424
 20
-145.0293
 30
0.0
 10
-17.6424
 20
-141.3626
 30
0.0
 10
-14.2247
 20
-138.3626
 30
0.0
 10
-10.0475
 20
-138.3626
 30
0.0
  0
SPLINE
  5
4B
330
1F
100
AcDbEntity
  8
layer 1
 62
   250
370
     0
100
AcDbSpline
210
0.0
220
0.0
230
1.0
 70
    11
 71
     3
 72
    20
 73
    16
 74
     0
 42
0.0000000001
 43
0.0000000001
 12
1.0
 22
0.0
 32
0.0
 13
1.0
 23
0.0
 33
0.0
 40
0.0
 40
0.0
 40
0.0
 40
0.0
 40
0.2
 40
0.2
 40
0.2
 40
0.2
 40
0.4
 40
0.4
 40
0.4
 40
0.4
 40
0.6
 40
0.6
 40
0.6
 40
0.6
 40
1.0
 40
1.0
 40
1.0
 40
1.0
 10
2.1756
 20
-146.415
 30
0.0
 10
3.2478
 20
-146.3617
 30
0.0
 10
4.1985
 20
-147.1904
 30
0.0
 10
4.299
 20
-148.266
 30
0.0
 10
4.299
 20
-148.266
 30
0.0
 10
4.3995
 20
-149.3416
 30
0.0
 10
3.6118
 20
-150.2568
 30
0.0
 10
2.5396
 20
-150.3102
 30
0.0
 10
2.5396
 20
-150.3102
 30
0.0
 10
1.4674
 20
-150.3635
 30
0.0
 10
0.5167
 20
-149.5348
 30
0.0
 10
0.4162
 20
-148.4592
 30
0.0
 10
0.4162
 20
-148.4592
 30
0.0
 10
0.3157
 20
-147.3836
 30
0.0
 10
1.1034
 20
-146.4684
 30
0.0
 10
2.1756
 20
-146.415
 30
0.0
  0
ELLIPSE
  5
4C
330
1F
100
AcDbEntity
  8
layer 1
 62
   250
370
     0
100
AcDbEllipse
 10
-12.8637
 20
-148.3626
 30
0.0
 11
0.0
 21
1.75
 31
0.0
210
0.0
220
0.0
230
1.0
 40
1.0
 41
0.0
 42
6.283185307179586
  0
ELLIPSE
  5
4D
330
1F
100
AcDbEntity
  8
layer 1
 62
   250
370
     0
100
AcDbEllipse
 10
17.5788
 20
-148.3626
 30
0.0
 11
0.0
 21
1.75
 31
0.0
210
0.0
220
0.0
230
1.0
 40
1.0
 41
0.0
 42
6.283185307179586
  0
SPLINE
  5
4E
330
1F
100
AcDbEntity
  8
layer 1
370
     9
100
AcDbSpline
210
0.0
220
0.0
230
1.0
 70
    11
 71
     3
 72
    52
 73
    48
 74
     0
 42
0.0000000001
 43
0.0000000001
 12
1.0
 22
0.0
 32
0.0
 13
1.0
 23
0.0
 33
0.0
 40
0.0
 40
0.0
 40
0.0
 40
0.0
 40
0.0769230769230769
 40
0.0769230769230769
 40
0.0769230769230769
 40
0.0769230769230769
 40
0.1538461538461539
 40
0.1538461538461539
 40
0.1538461538461539
 40
0.1538461538461539
 40
0.2307692307692308
 40
0.2307692307692308
 40
0.2307692307692308
 40
0.2307692307692308
 40
0.3076923076923077
 40
0.3076923076923077
 40
0.3076923076923077
 40
0.3076923076923077
 40
0.3846153846153846
 40
0.3846153846153846
 40
0.3846153846153846
 40
0.3846153846153846
 40
0.4615384615384616
 40
0.4615384615384616
 40
0.4615384615384616
 40
0.4615384615384616
 40
0.5384615384615384
 40
0.5384615384615384
 40
0.5384615384615384
 40
0.5384615384615384
 40
0.6153846153846154
 40
0.6153846153846154
 40
0.6153846153846154
 40
0.6153846153846154
 40
0.6923076923076923
 40
0.6923076923076923
 40
0.6923076923076923
 40
0.6923076923076923
 40
0.7692307692307693
 40
0.7692307692307693
 40
0.7692307692307693
 40
0.7692307692307693
 40
0.8461538461538461
 40
0.8461538461538461
 40
0.8461538461538461
 40
0.8461538461538461
 40
1.0
 40
1.0
 40
1.0
 40
1.0
 10
393.2617
 20
185.0
 30
0.0
 10
393.2617
 20
185.0
 30
0.0
 10
83.2618
 20
185.0
 30
0.0
 10
83.2618
 20
185.0
 30
0.0
 10
83.2618
 20
185.0
 30
0.0
 10
77.9541
 20
184.9966
 30
0.0
 10
72.8651
 20
182.8849
 30
0.0
 10
69.1144
 20
179.1295
 30
0.0
 10
69.1144
 20
179.1295
 30
0.0
 10
65.3637
 20
175.374
 30
0.0
 10
63.2584
 20
170.3076
 30
0.0
 10
63.2618
 20
165.0
 30
0.0
 10
63.2618
 20
165.0
 30
0.0
 10
63.2618
 20
165.0
 30
0.0
 10
63.2618
 20
-94.9999
 30
0.0
 10
63.2618
 20
-94.9999
 30
0.0
 10
63.2618
 20
-94.9999
 30
0.0
 10
63.2651
 20
-100.3076
 30
0.0
 10
65.3768
 20
-105.3966
 30
0.0
 10
69.1323
 20
-109.1473
 30
0.0
 10
69.1323
 20
-109.1473
 30
0.0
 10
72.8878
 20
-112.898
 30
0.0
 10
77.9541
 20
-115.0033
 30
0.0
 10
83.2618
 20
-114.9999
 30
0.0
 10
83.2618
 20
-114.9999
 30
0.0
 10
83.2618
 20
-114.9999
 30
0.0
 10
393.2617
 20
-114.9999
 30
0.0
 10
393.2617
 20
-114.9999
 30
0.0
 10
393.2617
 20
-114.9999
 30
0.0
 10
398.5694
 20
-114.9966
 30
0.0
 10
403.6583
 20
-112.8849
 30
0.0
 10
407.4091
 20
-109.1294
 30
0.0
 10
407.4091
 20
-109.1294
 30
0.0
 10
411.1598
 20
-105.374
 30
0.0
 10
413.265
 20
-100.3076
 30
0.0
 10
413.2617
 20
-94.9999
 30
0.0
 10
413.2617
 20
-94.9999
 30
0.0
 10
413.2617
 20
-94.9999
 30
0.0
 10
413.2617
 20
165.0
 30
0.0
 10
413.2617
 20
165.0
 30
0.0
 10
413.2617
 20
165.0
 30
0.0
 10
413.2583
 20
170.3076
 30
0.0
 10
411.1466
 20
175.3966
 30
0.0
 10
407.3912
 20
179.1473
 30
0.0
 10
407.3912
 20
179.1473
 30
0.0
 10
403.6357
 20
182.8981
 30
0.0
 10
398.5694
 20
185.0033
 30
0.0
 10
393.2617
 20
185.0
 30
0.0
  0
SPLINE
  5
4F
330
1F
100
AcDbEntity
  8
layer 1
370
     9
100
AcDbSpline
210
0.0
220
0.0
230
1.0
 70
    11
 71
     3
 72
    20
 73
    16
 74
     0
 42
0.0000000001
 43
0.0000000001
 12
1.0
 22
0.0
 32
0.0
 13
1.0
 23
0.0
 33
0.0
 40
0.0
 40
0.0
 40
0.0
 40
0.0
 40
0.2
 40
0.2
 40
0.2
 40
0.2
 40
0.4
 40
0.4
 40
0.4
 40
0.4
 40
0.6
 40
0.6
 40
0.6
 40
0.6
 40
1.0
 40
1.0
 40
1.0
 40
1.0
 10
74.2618
 20
145.0
 30
0.0
 10
74.2618
 20
145.0
 30
0.0
 10
68.2618
 20
145.0
 30
0.0
 10
68.2618
 20
145.0
 30
0.0
 10
68.2618
 20
145.0
 30
0.0
 10
68.2618
 20
145.0
 30
0.0
 10
68.2618
 20
105.0
 30
0.0
 10
68.2618
 20
105.0
 30
0.0
 10
68.2618
 20
105.0
 30
0.0
 10
68.2618
 20
105.0
 30
0.0
 10
74.2618
 20
105.0
 30
0.0
 10
74.2618
 20
105.0
 30
0.0
 10
74.2618
 20
105.0
 30
0.0
 10
74.2618
 20
105.0
 30
0.0
 10
74.2618
 20
145.0
 30
0.0
 10
74.2618
 20
145.0
 30
0.0
  0
SPLINE
  5
50
330
1F
100
AcDbEntity
  8
layer 1
370
     9
100
AcDbSpline
210
0.0
220
0.0
230
1.0
 70
    11
 71
     3
 72
    20
 73
    16
 74
     0
 42
0.0000000001
 43
0.0000000001
 12
1.0
 22
0.0
 32
0.0
 13
1.0
 23
0.0
 33
0.0
 40
0.0
 40
0.0
 40
0.0
 40
0.0
 40
0.2
 40
0.2
 40
0.2
 40
0.2
 40
0.4
 40
0.4
 40
0.4
 40
0.4
 40
0.6
 40
0.6
 40
0.6
 40
0.6
 40
1.0
 40
1.0
 40
1.0
 40
1.0
 10
74.2618
 20
55.0
 30
0.0
 10
74.2618
 20
55.0
 30
0.0
 10
68.2618
 20
55.0
 30
0.0
 10
68.2618
 20
55.0
 30
0.0
 10
68.2618
 20
55.0
 30
0.0
 10
68.2618
 20
55.0
 30
0.0
 10
68.2618
 20
15.0
 30
0.0
 10
68.2618
 20
15.0
 30
0.0
 10
68.2618
 20
15.0
 30
0.0
 10
68.2618
 20
15.0
 30
0.0
 10
74.2618
 20
15.0
 30
0.0
 10
74.2618
 20
15.0
 30
0.0
 10
74.2618
 20
15.0
 30
0.0
 10
74.2618
 20
15.0
 30
0.0
 10
74.2618
 20
55.0
 30
0.0
 10
74.2618
 20
55.0
 30
0.0
  0
SPLINE
  5
51
330
1F
100
AcDbEntity
  8
layer 1
370
     9
100
AcDbSpline
210
0.0
220
0.0
230
1.0
 70
    11
 71
     3
 72
    20
 73
    16
 74
     0
 42
0.0000000001
 43
0.0000000001
 12
1.0
 22
0.0
 32
0.0
 13
1.0
 23
0.0
 33
0.0
 40
0.0
 40
0.0
 40
0.0
 40
0.0
 40
0.2
 40
0.2
 40
0.2
 40
0.2
 40
0.4
 40
0.4
 40
0.4
 40
0.4
 40
0.6
 40
0.6
 40
0.6
 40
0.6
 40
1.0
 40
1.0
 40
1.0
 40
1.0
 10
74.2618
 20
-34.9999
 30
0.0
 10
74.2618
 20
-34.9999
 30
0.0
 10
68.2618
 20
-34.9999
 30
0.0
 10
68.2618
 20
-34.9999
 30
0.0
 10
68.2618
 20
-34.9999
 30
0.0
 10
68.2618
 20
-34.9999
 30
0.0
 10
68.2618
 20
-74.9999
 30
0.0
 10
68.2618
 20
-74.9999
 30
0.0
 10
68.2618
 20
-74.9999
 30
0.0
 10
68.2618
 20
-74.9999
 30
0.0
 10
74.2618
 20
-74.9999
 30
0.0
 10
74.2618
 20
-74.9999
 30
0.0
 10
74.2618
 20
-74.9999
 30
0.0
 10
74.2618
 20
-74.9999
 30
0.0
 10
74.2618
 20
-34.9999
 30
0.0
 10
74.2618
 20
-34.9999
 30
0.0
  0
SPLINE
  5
52
330
1F
100
AcDbEntity
  8
layer 1
370
     9
100
AcDbSpline
210
0.0
220
0.0
230
1.0
 70
    11
 71
     3
 72
    20
 73
    16
 74
     0
 42
0.0000000001
 43
0.0000000001
 12
1.0
 22
0.0
 32
0.0
 13
1.0
 23
0.0
 33
0.0
 40
0.0
 40
0.0
 40
0.0
 40
0.0
 40
0.2
 40
0.2
 40
0.2
 40
0.2
 40
0.4
 40
0.4
 40
0.4
 40
0.4
 40
0.6
 40
0.6
 40
0.6
 40
0.6
 40
1.0
 40
1.0
 40
1.0
 40
1.0
 10
408.2617
 20
55.0
 30
0.0
 10
408.2617
 20
55.0
 30
0.0
 10
408.2617
 20
15.0
 30
0.0
 10
408.2617
 20
15.0
 30
0.0
 10
408.2617
 20
15.0
 30
0.0
 10
408.2617
 20
15.0
 30
0.0
 10
402.2617
 20
15.0
 30
0.0
 10
402.2617
 20
15.0
 30
0.0
 10
402.2617
 20
15.0
 30
0.0
 10
402.2617
 20
15.0
 30
0.0
 10
402.2617
 20
55.0
 30
0.0
 10
402.2617
 20
55.0
 30
0.0
 10
402.2617
 20
55.0
 30
0.0
 10
402.2617
 20
55.0
 30
0.0
 10
408.2617
 20
55.0
 30
0.0
 10
408.2617
 20
55.0
 30
0.0
  0
SPLINE
  5
53
330
1F
100
AcDbEntity
  8
layer 1
370
     9
100
AcDbSpline
210
0.0
220
0.0
230
1.0
 70
    11
 71
     3
 72
    20
 73
    16
 74
     0
 42
0.0000000001
 43
0.0000000001
 12
1.0
 22
0.0
 32
0.0
 13
1.0
 23
0.0
 33
0.0
 40
0.0
 40
0.0
 40
0.0
 40
0.0
 40
0.2
 40
0.2
 40
0.2
 40
0.2
 40
0.4
 40
0.4
 40
0.4
 40
0.4
 40
0.6
 40
0.6
 40
0.6
 40
0.6
 40
1.0
 40
1.0
 40
1.0
 40
1.0
 10
408.2617
 20
-34.9999
 30
0.0
 10
408.2617
 20
-34.9999
 30
0.0
 10
408.2617
 20
-74.9999
 30
0.0
 10
408.2617
 20
-74.9999
 30
0.0
 10
408.2617
 20
-74.9999
 30
0.0
 10
408.2617
 20
-74.9999
 30
0.0
 10
402.2617
 20
-74.9999
 30
0.0
 10
402.2617
 20
-74.9999
 30
0.0
 10
402.2617
 20
-74.9999
 30
0.0
 10
402.2617
 20
-74.9999
 30
0.0
 10
402.2617
 20
-34.9999
 30
0.0
 10
402.2617
 20
-34.9999
 30
0.0
 10
402.2617
 20
-34.9999
 30
0.0
 10
402.2617
 20
-34.9999
 30
0.0
 10
408.2617
 20
-34.9999
 30
0.0
 10
408.2617
 20
-34.9999
 30
0.0
  0
SPLINE
  5
54
330
1F
100
AcDbEntity
  8
layer 1
370
     9
100
AcDbSpline
210
0.0
220
0.0
230
1.0
 70
    11
 71
     3
 72
    20
 73
    16
 74
     0
 42
0.0000000001
 43
0.0000000001
 12
1.0
 22
0.0
 32
0.0
 13
1.0
 23
0.0
 33
0.0
 40
0.0
 40
0.0
 40
0.0
 40
0.0
 40
0.2
 40
0.2
 40
0.2
 40
0.2
 40
0.4
 40
0.4
 40
0.4
 40
0.4
 40
0.6
 40
0.6
 40
0.6
 40
0.6
 40
1.0
 40
1.0
 40
1.0
 40
1.0
 10
408.2617
 20
145.0
 30
0.0
 10
408.2617
 20
145.0
 30
0.0
 10
408.2617
 20
105.0
 30
0.0
 10
408.2617
 20
105.0
 30
0.0
 10
408.2617
 20
105.0
 30
0.0
 10
408.2617
 20
105.0
 30
0.0
 10
402.2617
 20
105.0
 30
0.0
 10
402.2617
 20
105.0
 30
0.0
 10
402.2617
 20
105.0
 30
0.0
 10
402.2617
 20
105.0
 30
0.0
 10
402.2617
 20
145.0
 30
0.0
 10
402.2617
 20
145.0
 30
0.0
 10
402.2617
 20
145.0
 30
0.0
 10
402.2617
 20
145.0
 30
0.0
 10
408.2617
 20
145.0
 30
0.0
 10
408.2617
 20
145.0
 30
0.0
  0
SPLINE
  5
55
330
1F
100
AcDbEntity
  8
layer 1
370
     9
100
AcDbSpline
210
0.0
220
0.0
230
1.0
 70
    11
 71
     3
 72
    20
 73
    16
 74
     0
 42
0.0000000001
 43
0.0000000001
 12
1.0
 22
0.0
 32
0.0
 13
1.0
 23
0.0
 33
0.0
 40
0.0
 40
0.0
 40
0.0
 40
0.0
 40
0.2
 40
0.2
 40
0.2
 40
0.2
 40
0.4
 40
0.4
 40
0.4
 40
0.4
 40
0.6
 40
0.6
 40
0.6
 40
0.6
 40
1.0
 40
1.0
 40
1.0
 40
1.0
 10
123.2618
 20
180.0
 30
0.0
 10
123.2618
 20
180.0
 30
0.0
 10
83.2618
 20
180.0
 30
0.0
 10
83.2618
 20
180.0
 30
0.0
 10
83.2618
 20
180.0
 30
0.0
 10
83.2618
 20
180.0
 30
0.0
 10
83.2618
 20
174.0
 30
0.0
 10
83.2618
 20
174.0
 30
0.0
 10
83.2618
 20
174.0
 30
0.0
 10
83.2618
 20
174.0
 30
0.0
 10
123.2618
 20
174.0
 30
0.0
 10
123.2618
 20
174.0
 30
0.0
 10
123.2618
 20
174.0
 30
0.0
 10
123.2618
 20
174.0
 30
0.0
 10
123.2618
 20
180.0
 30
0.0
 10
123.2618
 20
180.0
 30
0.0
  0
SPLINE
  5
56
330
1F
100
AcDbEntity
  8
layer 1
370
     9
100
AcDbSpline
210
0.0
220
0.0
230
1.0
 70
    11
 71
     3
 72
    20
 73
    16
 74
     0
 42
0.0000000001
 43
0.0000000001
 12
1.0
 22
0.0
 32
0.0
 13
1.0
 23
0.0
 33
0.0
 40
0.0
 40
0.0
 40
0.0
 40
0.0
 40
0.2
 40
0.2
 40
0.2
 40
0.2
 40
0.4
 40
0.4
 40
0.4
 40
0.4
 40
0.6
 40
0.6
 40
0.6
 40
0.6
 40
1.0
 40
1.0
 40
1.0
 40
1.0
 10
213.2618
 20
180.0
 30
0.0
 10
213.2618
 20
180.0
 30
0.0
 10
173.2618
 20
180.0
 30
0.0
 10
173.2618
 20
180.0
 30
0.0
 10
173.2618
 20
180.0
 30
0.0
 10
173.2618
 20
180.0
 30
0.0
 10
173.2618
 20
174.0
 30
0.0
 10
173.2618
 20
174.0
 30
0.0
 10
173.2618
 20
174.0
 30
0.0
 10
173.2618
 20
174.0
 30
0.0
 10
213.2618
 20
174.0
 30
0.0
 10
213.2618
 20
174.0
 30
0.0
 10
213.2618
 20
174.0
 30
0.0
 10
213.2618
 20
174.0
 30
0.0
 10
213.2618
 20
180.0
 30
0.0
 10
213.2618
 20
180.0
 30
0.0
  0
SPLINE
  5
57
330
1F
100
AcDbEntity
  8
layer 1
370
     9
100
AcDbSpline
210
0.0
220
0.0
230
1.0
 70
    11
 71
     3
 72
    20
 73
    16
 74
     0
 42
0.0000000001
 43
0.0000000001
 12
1.0
 22
0.0
 32
0.0
 13
1.0
 23
0.0
 33
0.0
 40
0.0
 40
0.0
 40
0.0
 40
0.0
 40
0.2
 40
0.2
 40
0.2
 40
0.2
 40
0.4
 40
0.4
 40
0.4
 40
0.4
 40
0.6
 40
0.6
 40
0.6
 40
0.6
 40
1.0
 40
1.0
 40
1.0
 40
1.0
 10
303.2617
 20
180.0
 30
0.0
 10
303.2617
 20
180.0
 30
0.0
 10
263.2617
 20
180.0
 30
0.0
 10
263.2617
 20
180.0
 30
0.0
 10
263.2617
 20
180.0
 30
0.0
 10
263.2617
 20
180.0
 30
0.0
 10
263.2617
 20
174.0
 30
0.0
 10
263.2617
 20
174.0
 30
0.0
 10
263.2617
 20
174.0
 30
0.0
 10
263.2617
 20
174.0
 30
0.0
 10
303.2617
 20
174.0
 30
0.0
 10
303.2617
 20
174.0
 30
0.0
 10
303.2617
 20
174.0
 30
0.0
 10
303.2617
 20
174.0
 30
0.0
 10
303.2617
 20
180.0
 30
0.0
 10
303.2617
 20
180.0
 30
0.0
  0
SPLINE
  5
58
330
1F
100
AcDbEntity
  8
layer 1
370
     9
100
AcDbSpline
210
0.0
220
0.0
230
1.0
 70
    11
 71
     3
 72
    20
 73
    16
 74
     0
 42
0.0000000001
 43
0.0000000001
 12
1.0
 22
0.0
 32
0.0
 13
1.0
 23
0.0
 33
0.0
 40
0.0
 40
0.0
 40
0.0
 40
0.0
 40
0.2
 40
0.2
 40
0.2
 40
0.2
 40
0.4
 40
0.4
 40
0.4
 40
0.4
 40
0.6
 40
0.6
 40
0.6
 40
0.6
 40
1.0
 40
1.0
 40
1.0
 40
1.0
 10
393.2617
 20
180.0
 30
0.0
 10
393.2617
 20
180.0
 30
0.0
 10
353.2617
 20
180.0
 30
0.0
 10
353.2617
 20
180.0
 30
0.0
 10
353.2617
 20
180.0
 30
0.0
 10
353.2617
 20
180.0
 30
0.0
 10
353.2617
 20
174.0
 30
0.0
 10
353.2617
 20
174.0
 30
0.0
 10
353.2617
 20
174.0
 30
0.0
 10
353.2617
 20
174.0
 30
0.0
 10
393.2617
 20
174.0
 30
0.0
 10
393.2617
 20
174.0
 30
0.0
 10
393.2617
 20
174.0
 30
0.0
 10
393.2617
 20
174.0
 30
0.0
 10
393.2617
 20
180.0
 30
0.0
 10
393.2617
 20
180.0
 30
0.0
  0
SPLINE
  5
59
330
1F
100
AcDbEntity
  8
layer 1
370
     9
100
AcDbSpline
210
0.0
220
0.0
230
1.0
 70
    11
 71
     3
 72
    20
 73
    16
 74
     0
 42
0.0000000001
 43
0.0000000001
 12
1.0
 22
0.0
 32
0.0
 13
1.0
 23
0.0
 33
0.0
 40
0.0
 40
0.0
 40
0.0
 40
0.0
 40
0.2
 40
0.2
 40
0.2
 40
0.2
 40
0.4
 40
0.4
 40
0.4
 40
0.4
 40
0.6
 40
0.6
 40
0.6
 40
0.6
 40
1.0
 40
1.0
 40
1.0
 40
1.0
 10
123.2618
 20
-109.9999
 30
0.0
 10
123.2618
 20
-109.9999
 30
0.0
 10
83.2618
 20
-109.9999
 30
0.0
 10
83.2618
 20
-109.9999
 30
0.0
 10
83.2618
 20
-109.9999
 30
0.0
 10
83.2618
 20
-109.9999
 30
0.0
 10
83.2618
 20
-103.9999
 30
0.0
 10
83.2618
 20
-103.9999
 30
0.0
 10
83.2618
 20
-103.9999
 30
0.0
 10
83.2618
 20
-103.9999
 30
0.0
 10
123.2618
 20
-103.9999
 30
0.0
 10
123.2618
 20
-103.9999
 30
0.0
 10
123.2618
 20
-103.9999
 30
0.0
 10
123.2618
 20
-103.9999
 30
0.0
 10
123.2618
 20
-109.9999
 30
0.0
 10
123.2618
 20
-109.9999
 30
0.0
  0
SPLINE
  5
5A
330
1F
100
AcDbEntity
  8
layer 1
370
     9
100
AcDbSpline
210
0.0
220
0.0
230
1.0
 70
    11
 71
     3
 72
    20
 73
    16
 74
     0
 42
0.0000000001
 43
0.0000000001
 12
1.0
 22
0.0
 32
0.0
 13
1.0
 23
0.0
 33
0.0
 40
0.0
 40
0.0
 40
0.0
 40
0.0
 40
0.2
 40
0.2
 40
0.2
 40
0.2
 40
0.4
 40
0.4
 40
0.4
 40
0.4
 40
0.6
 40
0.6
 40
0.6
 40
0.6
 40
1.0
 40
1.0
 40
1.0
 40
1.0
 10
213.2618
 20
-109.9999
 30
0.0
 10
213.2618
 20
-109.9999
 30
0.0
 10
173.2618
 20
-109.9999
 30
0.0
 10
173.2618
 20
-109.9999
 30
0.0
 10
173.2618
 20
-109.9999
 30
0.0
 10
173.2618
 20
-109.9999
 30
0.0
 10
173.2618
 20
-103.9999
 30
0.0
 10
173.2618
 20
-103.9999
 30
0.0
 10
173.2618
 20
-103.9999
 30
0.0
 10
173.2618
 20
-103.9999
 30
0.0
 10
213.2618
 20
-103.9999
 30
0.0
 10
213.2618
 20
-103.9999
 30
0.0
 10
213.2618
 20
-103.9999
 30
0.0
 10
213.2618
 20
-103.9999
 30
0.0
 10
213.2618
 20
-109.9999
 30
0.0
 10
213.2618
 20
-109.9999
 30
0.0
  0
SPLINE
  5
5B
330
1F
100
AcDbEntity
  8
layer 1
370
     9
100
AcDbSpline
210
0.0
220
0.0
230
1.0
 70
    11
 71
     3
 72
    20
 73
    16
 74
     0
 42
0.0000000001
 43
0.0000000001
 12
1.0
 22
0.0
 32
0.0
 13
1.0
 23
0.0
 33
0.0
 40
0.0
 40
0.0
 40
0.0
 40
0.0
 40
0.2
 40
0.2
 40
0.2
 40
0.2
 40
0.4
 40
0.4
 40
0.4
 40
0.4
 40
0.6
 40
0.6
 40
0.6
 40
0.6
 40
1.0
 40
1.0
 40
1.0
 40
1.0
 10
303.2617
 20
-109.9999
 30
0.0
 10
303.2617
 20
-109.9999
 30
0.0
 10
263.2617
 20
-109.9999
 30
0.0
 10
263.2617
 20
-109.9999
 30
0.0
 10
263.2617
 20
-109.9999
 30
0.0
 10
263.2617
 20
-109.9999
 30
0.0
 10
263.2617
 20
-103.9999
 30
0.0
 10
263.2617
 20
-103.9999
 30
0.0
 10
263.2617
 20
-103.9999
 30
0.0
 10
263.2617
 20
-103.9999
 30
0.0
 10
303.2617
 20
-103.9999
 30
0.0
 10
303.2617
 20
-103.9999
 30
0.0
 10
303.2617
 20
-103.9999
 30
0.0
 10
303.2617
 20
-103.9999
 30
0.0
 10
303.2617
 20
-109.9999
 30
0.0
 10
303.2617
 20
-109.9999
 30
0.0
  0
SPLINE
  5
5C
330
1F
100
AcDbEntity
  8
layer 1
370
     9
100
AcDbSpline
210
0.0
220
0.0
230
1.0
 70
    11
 71
     3
 72
    20
 73
    16
 74
     0
 42
0.0000000001
 43
0.0000000001
 12
1.0
 22
0.0
 32
0.0
 13
1.0
 23
0.0
 33
0.0
 40
0.0
 40
0.0
 40
0.0
 40
0.0
 40
0.2
 40
0.2
 40
0.2
 40
0.2
 40
0.4
 40
0.4
 40
0.4
 40
0.4
 40
0.6
 40
0.6
 40
0.6
 40
0.6
 40
1.0
 40
1.0
 40
1.0
 40
1.0
 10
393.2617
 20
-109.9999
 30
0.0
 10
393.2617
 20
-109.9999
 30
0.0
 10
353.2617
 20
-109.9999
 30
0.0
 10
353.2617
 20
-109.9999
 30
0.0
 10
353.2617
 20
-109.9999
 30
0.0
 10
353.2617
 20
-109.9999
 30
0.0
 10
353.2617
 20
-103.9999
 30
0.0
 10
353.2617
 20
-103.9999
 30
0.0
 10
353.2617
 20
-103.9999
 30
0.0
 10
353.2617
 20
-103.9999
 30
0.0
 10
393.2617
 20
-103.9999
 30
0.0
 10
393.2617
 20
-103.9999
 30
0.0
 10
393.2617
 20
-103.9999
 30
0.0
 10
393.2617
 20
-103.9999
 30
0.0
 10
393.2617
 20
-109.9999
 30
0.0
 10
393.2617
 20
-109.9999
 30
0.0
  0
SPLINE
  5
5D
330
1F
100
AcDbEntity
  8
layer 1
370
     9
100
AcDbSpline
210
0.0
220
0.0
230
1.0
 70
    11
 71
     3
 72
    20
 73
    16
 74
     0
 42
0.0000000001
 43
0.0000000001
 12
1.0
 22
0.0
 32
0.0
 13
1.0
 23
0.0
 33
0.0
 40
0.0
 40
0.0
 40
0.0
 40
0.0
 40
0.2
 40
0.2
 40
0.2
 40
0.2
 40
0.4
 40
0.4
 40
0.4
 40
0.4
 40
0.6
 40
0.6
 40
0.6
 40
0.6
 40
1.0
 40
1.0
 40
1.0
 40
1.0
 10
393.2617
 20
165.0
 30
0.0
 10
393.2617
 20
165.0
 30
0.0
 10
83.2618
 20
165.0
 30
0.0
 10
83.2618
 20
165.0
 30
0.0
 10
83.2618
 20
165.0
 30
0.0
 10
83.2618
 20
165.0
 30
0.0
 10
83.2618
 20
-94.9999
 30
0.0
 10
83.2618
 20
-94.9999
 30
0.0
 10
83.2618
 20
-94.9999
 30
0.0
 10
83.2618
 20
-94.9999
 30
0.0
 10
393.2617
 20
-94.9999
 30
0.0
 10
393.2617
 20
-94.9999
 30
0.0
 10
393.2617
 20
-94.9999
 30
0.0
 10
393.2617
 20
-94.9999
 30
0.0
 10
393.2617
 20
165.0
 30
0.0
 10
393.2617
 20
165.0
 30
0.0
  0
SPLINE
  5
5E
330
1F
100
AcDbEntity
  8
layer 1
 62
   250
370
     0
100
AcDbSpline
210
0.0
220
0.0
230
1.0
 70
    11
 71
     3
 72
    36
 73
    32
 74
     0
 42
0.0000000001
 43
0.0000000001
 12
1.0
 22
0.0
 32
0.0
 13
1.0
 23
0.0
 33
0.0
 40
0.0
 40
0.0
 40
0.0
 40
0.0
 40
0.1111111111111111
 40
0.1111111111111111
 40
0.1111111111111111
 40
0.1111111111111111
 40
0.2222222222222222
 40
0.2222222222222222
 40
0.2222222222222222
 40
0.2222222222222222
 40
0.3333333333333333
 40
0.3333333333333333
 40
0.3333333333333333
 40
0.3333333333333333
 40
0.4444444444444444
 40
0.4444444444444444
 40
0.4444444444444444
 40
0.4444444444444444
 40
0.5555555555555556
 40
0.5555555555555556
 40
0.5555555555555556
 40
0.5555555555555556
 40
0.6666666666666666
 40
0.6666666666666666
 40
0.6666666666666666
 40
0.6666666666666666
 40
0.7777777777777778
 40
0.7777777777777778
 40
0.7777777777777778
 40
0.7777777777777778
 40
1.0
 40
1.0
 40
1.0
 40
1.0
 10
-54.1433
 20
-138.3626
 30
0.0
 10
-54.1433
 20
-138.3626
 30
0.0
 10
-29.3331
 20
-138.3626
 30
0.0
 10
-29.3331
 20
-138.3626
 30
0.0
 10
-29.3331
 20
-138.3626
 30
0.0
 10
-25.1559
 20
-138.3626
 30
0.0
 10
-21.7382
 20
-141.3626
 30
0.0
 10
-21.7382
 20
-145.0293
 30
0.0
 10
-21.7382
 20
-145.0293
 30
0.0
 10
-21.7382
 20
-145.0293
 30
0.0
 10
-21.7382
 20
-151.6959
 30
0.0
 10
-21.7382
 20
-151.6959
 30
0.0
 10
-21.7382
 20
-151.6959
 30
0.0
 10
-21.7382
 20
-155.3626
 30
0.0
 10
-25.1559
 20
-158.3626
 30
0.0
 10
-29.3331
 20
-158.3626
 30
0.0
 10
-29.3331
 20
-158.3626
 30
0.0
 10
-29.3331
 20
-158.3626
 30
0.0
 10
-54.1433
 20
-158.3626
 30
0.0
 10
-54.1433
 20
-158.3626
 30
0.0
 10
-54.1433
 20
-158.3626
 30
0.0
 10
-58.3205
 20
-158.3626
 30
0.0
 10
-61.7382
 20
-155.3626
 30
0.0
 10
-61.7382
 20
-151.6959
 30
0.0
 10
-61.7382
 20
-151.6959
 30
0.0
 10
-61.7382
 20
-151.6959
 30
0.0
 10
-61.7382
 20
-145.0293
 30
0.0
 10
-61.7382
 20
-145.0293
 30
0.0
 10
-61.7382
 20
-145.0293
 30
0.0
 10
-61.7382
 20
-141.3626
 30
0.0
 10
-58.3205
 20
-138.3626
 30
0.0
 10
-54.1433
 20
-138.3626
 30
0.0
  0
SPLINE
  5
5F
330
1F
100
AcDbEntity
  8
layer 1
 62
   250
370
     0
100
AcDbSpline
210
0.0
220
0.0
230
1.0
 70
    11
 71
     3
 72
    20
 73
    16
 74
     0
 42
0.0000000001
 43
0.0000000001
 12
1.0
 22
0.0
 32
0.0
 13
1.0
 23
0.0
 33
0.0
 40
0.0
 40
0.0
 40
0.0
 40
0.0
 40
0.2
 40
0.2
 40
0.2
 40
0.2
 40
0.4
 40
0.4
 40
0.4
 40
0.4
 40
0.6
 40
0.6
 40
0.6
 40
0.6
 40
1.0
 40
1.0
 40
1.0
 40
1.0
 10
-41.9202
 20
-146.415
 30
0.0
 10
-40.848
 20
-146.3617
 30
0.0
 10
-39.8973
 20
-147.1904
 30
0.0
 10
-39.7968
 20
-148.266
 30
0.0
 10
-39.7968
 20
-148.266
 30
0.0
 10
-39.6963
 20
-149.3416
 30
0.0
 10
-40.484
 20
-150.2568
 30
0.0
 10
-41.5562
 20
-150.3102
 30
0.0
 10
-41.5562
 20
-150.3102
 30
0.0
 10
-42.6284
 20
-150.3635
 30
0.0
 10
-43.5791
 20
-149.5348
 30
0.0
 10
-43.6796
 20
-148.4592
 30
0.0
 10
-43.6796
 20
-148.4592
 30
0.0
 10
-43.7801
 20
-147.3836
 30
0.0
 10
-42.9924
 20
-146.4684
 30
0.0
 10
-41.9202
 20
-146.415
 30
0.0
  0
ELLIPSE
  5
60
330
1F
100
AcDbEntity
  8
layer 1
 62
   250
370
     0
100
AcDbEllipse
 10
-56.9595
 20
-148.3626
 30
0.0
 11
0.0
 21
1.75
 31
0.0
210
0.0
220
0.0
230
1.0
 40
1.0
 41
0.0
 42
6.283185307179586
  0
ELLIPSE
  5
61
330
1F
100
AcDbEntity
  8
layer 1
 62
   250
370
     0
100
AcDbEllipse
 10
-26.517
 20
-148.3626
 30
0.0
 11
0.0
 21
1.75
 31
0.0
210
0.0
220
0.0
230
1.0
 40
1.0
 41
0.0
 42
6.283185307179586
  0
SPLINE
  5
62
330
1F
100
AcDbEntity
  8
layer 1
 62
   250
370
     0
100
AcDbSpline
210
0.0
220
0.0
230
1.0
 70
    11
 71
     3
 72
    36
 73
    32
 74
     0
 42
0.0000000001
 43
0.0000000001
 12
1.0
 22
0.0
 32
0.0
 13
1.0
 23
0.0
 33
0.0
 40
0.0
 40
0.0
 40
0.0
 40
0.0
 40
0.1111111111111111
 40
0.1111111111111111
 40
0.1111111111111111
 40
0.1111111111111111
 40
0.2222222222222222
 40
0.2222222222222222
 40
0.2222222222222222
 40
0.2222222222222222
 40
0.3333333333333333
 40
0.3333333333333333
 40
0.3333333333333333
 40
0.3333333333333333
 40
0.4444444444444444
 40
0.4444444444444444
 40
0.4444444444444444
 40
0.4444444444444444
 40
0.5555555555555556
 40
0.5555555555555556
 40
0.5555555555555556
 40
0.5555555555555556
 40
0.6666666666666666
 40
0.6666666666666666
 40
0.6666666666666666
 40
0.6666666666666666
 40
0.7777777777777778
 40
0.7777777777777778
 40
0.7777777777777778
 40
0.7777777777777778
 40
1.0
 40
1.0
 40
1.0
 40
1.0
 10
-9.1433
 20
-160.0
 30
0.0
 10
-9.1433
 20
-160.0
 30
0.0
 10
15.6669
 20
-160.0
 30
0.0
 10
15.6669
 20
-160.0
 30
0.0
 10
15.6669
 20
-160.0
 30
0.0
 10
19.8441
 20
-160.0
 30
0.0
 10
23.2618
 20
-163.0
 30
0.0
 10
23.2618
 20
-166.6667
 30
0.0
 10
23.2618
 20
-166.6667
 30
0.0
 10
23.2618
 20
-166.6667
 30
0.0
 10
23.2618
 20
-173.3333
 30
0.0
 10
23.2618
 20
-173.3333
 30
0.0
 10
23.2618
 20
-173.3333
 30
0.0
 10
23.2618
 20
-177.0
 30
0.0
 10
19.8441
 20
-180.0
 30
0.0
 10
15.6669
 20
-180.0
 30
0.0
 10
15.6669
 20
-180.0
 30
0.0
 10
15.6669
 20
-180.0
 30
0.0
 10
-9.1433
 20
-180.0
 30
0.0
 10
-9.1433
 20
-180.0
 30
0.0
 10
-9.1433
 20
-180.0
 30
0.0
 10
-13.3205
 20
-180.0
 30
0.0
 10
-16.7382
 20
-177.0
 30
0.0
 10
-16.7382
 20
-173.3333
 30
0.0
 10
-16.7382
 20
-173.3333
 30
0.0
 10
-16.7382
 20
-173.3333
 30
0.0
 10
-16.7382
 20
-166.6667
 30
0.0
 10
-16.7382
 20
-166.6667
 30
0.0
 10
-16.7382
 20
-166.6667
 30
0.0
 10
-16.7382
 20
-163.0
 30
0.0
 10
-13.3205
 20
-160.0
 30
0.0
 10
-9.1433
 20
-160.0
 30
0.0
  0
SPLINE
  5
63
330
1F
100
AcDbEntity
  8
layer 1
 62
   250
370
     0
100
AcDbSpline
210
0.0
220
0.0
230
1.0
 70
    11
 71
     3
 72
    20
 73
    16
 74
     0
 42
0.0000000001
 43
0.0000000001
 12
1.0
 22
0.0
 32
0.0
 13
1.0
 23
0.0
 33
0.0
 40
0.0
 40
0.0
 40
0.0
 40
0.0
 40
0.2
 40
0.2
 40
0.2
 40
0.2
 40
0.4
 40
0.4
 40
0.4
 40
0.4
 40
0.6
 40
0.6
 40
0.6
 40
0.6
 40
1.0
 40
1.0
 40
1.0
 40
1.0
 10
3.0798
 20
-168.0524
 30
0.0
 10
4.152
 20
-167.9991
 30
0.0
 10
5.1027
 20
-168.8278
 30
0.0
 10
5.2032
 20
-169.9034
 30
0.0
 10
5.2032
 20
-169.9034
 30
0.0
 10
5.3037
 20
-170.979
 30
0.0
 10
4.516
 20
-171.8942
 30
0.0
 10
3.4438
 20
-171.9476
 30
0.0
 10
3.4438
 20
-171.9476
 30
0.0
 10
2.3716
 20
-172.0009
 30
0.0
 10
1.4209
 20
-171.1722
 30
0.0
 10
1.3204
 20
-170.0966
 30
0.0
 10
1.3204
 20
-170.0966
 30
0.0
 10
1.2199
 20
-169.021
 30
0.0
 10
2.0076
 20
-168.1058
 30
0.0
 10
3.0798
 20
-168.0524
 30
0.0
  0
ELLIPSE
  5
64
330
1F
100
AcDbEntity
  8
layer 1
 62
   250
370
     0
100
AcDbEllipse
 10
-11.9595
 20
-170.0
 30
0.0
 11
0.0
 21
1.75
 31
0.0
210
0.0
220
0.0
230
1.0
 40
1.0
 41
0.0
 42
6.283185307179586
  0
ELLIPSE
  5
65
330
1F
100
AcDbEntity
  8
layer 1
 62
   250
370
     0
100
AcDbEllipse
 10
18.483
 20
-170.0
 30
0.0
 11
0.0
 21
1.75
 31
0.0
210
0.0
220
0.0
230
1.0
 40
1.0
 41
0.0
 42
6.283185307179586
  0
SPLINE
  5
66
330
1F
100
AcDbEntity
  8
layer 1
 62
   250
370
     0
100
AcDbSpline
210
0.0
220
0.0
230
1.0
 70
    11
 71
     3
 72
    36
 73
    32
 74
     0
 42
0.0000000001
 43
0.0000000001
 12
1.0
 22
0.0
 32
0.0
 13
1.0
 23
0.0
 33
0.0
 40
0.0
 40
0.0
 40
0.0
 40
0.0
 40
0.1111111111111111
 40
0.1111111111111111
 40
0.1111111111111111
 40
0.1111111111111111
 40
0.2222222222222222
 40
0.2222222222222222
 40
0.2222222222222222
 40
0.2222222222222222
 40
0.3333333333333333
 40
0.3333333333333333
 40
0.3333333333333333
 40
0.3333333333333333
 40
0.4444444444444444
 40
0.4444444444444444
 40
0.4444444444444444
 40
0.4444444444444444
 40
0.5555555555555556
 40
0.5555555555555556
 40
0.5555555555555556
 40
0.5555555555555556
 40
0.6666666666666666
 40
0.6666666666666666
 40
0.6666666666666666
 40
0.6666666666666666
 40
0.7777777777777778
 40
0.7777777777777778
 40
0.7777777777777778
 40
0.7777777777777778
 40
1.0
 40
1.0
 40
1.0
 40
1.0
 10
-53.2391
 20
-160.0
 30
0.0
 10
-53.2391
 20
-160.0
 30
0.0
 10
-28.4289
 20
-160.0
 30
0.0
 10
-28.4289
 20
-160.0
 30
0.0
 10
-28.4289
 20
-160.0
 30
0.0
 10
-24.2517
 20
-160.0
 30
0.0
 10
-20.834
 20
-163.0
 30
0.0
 10
-20.834
 20
-166.6667
 30
0.0
 10
-20.834
 20
-166.6667
 30
0.0
 10
-20.834
 20
-166.6667
 30
0.0
 10
-20.834
 20
-173.3333
 30
0.0
 10
-20.834
 20
-173.3333
 30
0.0
 10
-20.834
 20
-173.3333
 30
0.0
 10
-20.834
 20
-177.0
 30
0.0
 10
-24.2517
 20
-180.0
 30
0.0
 10
-28.4289
 20
-180.0
 30
0.0
 10
-28.4289
 20
-180.0
 30
0.0
 10
-28.4289
 20
-180.0
 30
0.0
 10
-53.2391
 20
-180.0
 30
0.0
 10
-53.2391
 20
-180.0
 30
0.0
 10
-53.2391
 20
-180.0
 30
0.0
 10
-57.4163
 20
-180.0
 30
0.0
 10
-60.834
 20
-177.0
 30
0.0
 10
-60.834
 20
-173.3333
 30
0.0
 10
-60.834
 20
-173.3333
 30
0.0
 10
-60.834
 20
-173.3333
 30
0.0
 10
-60.834
 20
-166.6667
 30
0.0
 10
-60.834
 20
-166.6667
 30
0.0
 10
-60.834
 20
-166.6667
 30
0.0
 10
-60.834
 20
-163.0
 30
0.0
 10
-57.4163
 20
-160.0
 30
0.0
 10
-53.2391
 20
-160.0
 30
0.0
  0
SPLINE
  5
67
330
1F
100
AcDbEntity
  8
layer 1
 62
   250
370
     0
100
AcDbSpline
210
0.0
220
0.0
230
1.0
 70
    11
 71
     3
 72
    20
 73
    16
 74
     0
 42
0.0000000001
 43
0.0000000001
 12
1.0
 22
0.0
 32
0.0
 13
1.0
 23
0.0
 33
0.0
 40
0.0
 40
0.0
 40
0.0
 40
0.0
 40
0.2
 40
0.2
 40
0.2
 40
0.2
 40
0.4
 40
0.4
 40
0.4
 40
0.4
 40
0.6
 40
0.6
 40
0.6
 40
0.6
 40
1.0
 40
1.0
 40
1.0
 40
1.0
 10
-41.016
 20
-168.0524
 30
0.0
 10
-39.9438
 20
-167.9991
 30
0.0
 10
-38.9931
 20
-168.8278
 30
0.0
 10
-38.8926
 20
-169.9034
 30
0.0
 10
-38.8926
 20
-169.9034
 30
0.0
 10
-38.7921
 20
-170.979
 30
0.0
 10
-39.5798
 20
-171.8942
 30
0.0
 10
-40.652
 20
-171.9476
 30
0.0
 10
-40.652
 20
-171.9476
 30
0.0
 10
-41.7242
 20
-172.0009
 30
0.0
 10
-42.6749
 20
-171.1722
 30
0.0
 10
-42.7754
 20
-170.0966
 30
0.0
 10
-42.7754
 20
-170.0966
 30
0.0
 10
-42.8759
 20
-169.021
 30
0.0
 10
-42.0882
 20
-168.1058
 30
0.0
 10
-41.016
 20
-168.0524
 30
0.0
  0
ELLIPSE
  5
68
330
1F
100
AcDbEntity
  8
layer 1
 62
   250
370
     0
100
AcDbEllipse
 10
-56.0553
 20
-170.0
 30
0.0
 11
0.0
 21
1.75
 31
0.0
210
0.0
220
0.0
230
1.0
 40
1.0
 41
0.0
 42
6.283185307179586
  0
ELLIPSE
  5
69
330
1F
100
AcDbEntity
  8
layer 1
 62
   250
370
     0
100
AcDbEllipse
 10
-25.6128
 20
-170.0
 30
0.0
 11
0.0
 21
1.75
 31
0.0
210
0.0
220
0.0
230
1.0
 40
1.0
 41
0.0
 42
6.283185307179586
  0
ENDSEC
  0
SECTION
  2
OBJECTS
  0
DICTIONARY
  5
C
330
0
100
AcDbDictionary
281
     1
  3
ACAD_GROUP
350
D
  3
ACAD_LAYOUT
350
1A
  3
ACAD_MATERIAL
350
3B
  3
ACAD_MLEADERSTYLE
350
6C
  3
ACAD_MLINESTYLE
350
17
  3
ACAD_PLOTSETTINGS
350
19
  3
ACAD_PLOTSTYLENAME
350
E
  3
ACAD_VISUALSTYLE
350
2A
  3
AcDbVariableDictionary
350
6A
  0
DICTIONARY
  5
D
102
{ACAD_REACTORS
330
C
102
}
330
C
100
AcDbDictionary
281
     1
  0
DICTIONARY
  5
1A
102
{ACAD_REACTORS
330
C
102
}
330
C
100
AcDbDictionary
281
     1
  3
Layout1
350
1E
  3
Layout2
350
26
  3
Model
350
22
  0
DICTIONARY
  5
3B
102
{ACAD_REACTORS
330
C
102
}
330
C
100
AcDbDictionary
281
     1
  3
ByBlock
350
3D
  3
ByLayer
350
3C
  3
Global
350
3E
  0
DICTIONARY
  5
6C
102
{ACAD_REACTORS
330
C
102
}
330
C
100
AcDbDictionary
281
     1
  0
DICTIONARY
  5
17
102
{ACAD_REACTORS
330
C
102
}
330
C
100
AcDbDictionary
281
     1
  3
Standard
350
18
  0
DICTIONARY
  5
19
102
{ACAD_REACTORS
330
C
102
}
330
C
100
AcDbDictionary
281
     1
  0
ACDBDICTIONARYWDFLT
  5
E
102
{ACAD_REACTORS
330
C
102
}
330
C
100
AcDbDictionary
281
     1
  3
Normal
350
F
100
AcDbDictionaryWithDefault
340
F
  0
DICTIONARY
  5
2A
102
{ACAD_REACTORS
330
C
102
}
330
C
100
AcDbDictionary
281
     1
  3
2dWireframe
350
2F
  3
3D Hidden
350
31
  3
3dWireframe
350
30
  3
Basic
350
32
  3
Brighten
350
36
  3
ColorChange
350
3A
  3
Conceptual
350
34
  3
Dim
350
35
  3
Facepattern
350
39
  3
Flat
350
2B
  3
FlatWithEdges
350
2C
  3
Gouraud
350
2D
  3
GouraudWithEdges
350
2E
  3
Linepattern
350
38
  3
Realistic
350
33
  3
Thicken
350
37
  0
DICTIONARY
  5
6A
102
{ACAD_REACTORS
330
C
102
}
330
C
100
AcDbDictionary
281
     1
  3
DIMASSOC
350
6D
  3
HIDETEXT
350
6E
  0
LAYOUT
  5
1E
102
{ACAD_REACTORS
330
1A
102
}
330
1A
100
AcDbPlotSettings
  1

  2
none_device
  4

  6

 40
0.0
 41
0.0
 42
0.0
 43
0.0
 44
0.0
 45
0.0
 46
0.0
 47
0.0
 48
0.0
 49
0.0
140
0.0
141
0.0
142
1.0
143
1.0
 70
   688
 72
     0
 73
     0
 74
     5
  7

 75
    16
147
1.0
148
0.0
149
0.0
100
AcDbLayout
  1
Layout1
 70
     1
 71
     1
 10
0.0
 20
0.0
 11
12.0
 21
9.0
 12
0.0
 22
0.0
 32
0.0
 14
1.000000000000000E+20
 24
1.000000000000000E+20
 34
1.000000000000000E+20
 15
-1.000000000000000E+20
 25
-1.000000000000000E+20
 35
-1.000000000000000E+20
146
0.0
 13
0.0
 23
0.0
 33
0.0
 16
1.0
 26
0.0
 36
0.0
 17
0.0
 27
1.0
 37
0.0
 76
     0
330
1B
  0
LAYOUT
  5
26
102
{ACAD_REACTORS
330
1A
102
}
330
1A
100
AcDbPlotSettings
  1

  2
none_device
  4

  6

 40
0.0
 41
0.0
 42
0.0
 43
0.0
 44
0.0
 45
0.0
 46
0.0
 47
0.0
 48
0.0
 49
0.0
140
0.0
141
0.0
142
1.0
143
1.0
 70
   688
 72
     0
 73
     0
 74
     5
  7

 75
    16
147
1.0
148
0.0
149
0.0
100
AcDbLayout
  1
Layout2
 70
     1
 71
     2
 10
0.0
 20
0.0
 11
0.0
 21
0.0
 12
0.0
 22
0.0
 32
0.0
 14
0.0
 24
0.0
 34
0.0
 15
0.0
 25
0.0
 35
0.0
146
0.0
 13
0.0
 23
0.0
 33
0.0
 16
1.0
 26
0.0
 36
0.0
 17
0.0
 27
1.0
 37
0.0
 76
     0
330
23
  0
LAYOUT
  5
22
102
{ACAD_REACTORS
330
1A
102
}
330
1A
100
AcDbPlotSettings
  1

  2
none_device
  4

  6

 40
0.0
 41
0.0
 42
0.0
 43
0.0
 44
0.0
 45
0.0
 46
0.0
 47
0.0
 48
0.0
 49
0.0
140
0.0
141
0.0
142
1.0
143
1.0
 70
  1712
 72
     0
 73
     0
 74
     0
  7

 75
     0
147
1.0
148
0.0
149
0.0
100
AcDbLayout
  1
Model
 70
     1
 71
     0
 10
0.0
 20
0.0
 11
12.0
 21
9.0
 12
0.0
 22
0.0
 32
0.0
 14
-380.0381
 24
-190.0005
 34
0.0
 15
413.2998
 25
190.0381
 35
0.0
146
0.0
 13
0.0
 23
0.0
 33
0.0
 16
1.0
 26
0.0
 36
0.0
 17
0.0
 27
1.0
 37
0.0
 76
     0
330
1F
331
29
  0
MATERIAL
  5
3D
102
{ACAD_REACTORS
330
3B
102
}
102
{ACAD_XDICTIONARY
360
91
102
}
330
3B
100
AcDbMaterial
  1
ByBlock
  0
MATERIAL
  5
3C
102
{ACAD_REACTORS
330
3B
102
}
102
{ACAD_XDICTIONARY
360
8F
102
}
330
3B
100
AcDbMaterial
  1
ByLayer
  0
MATERIAL
  5
3E
102
{ACAD_REACTORS
330
3B
102
}
102
{ACAD_XDICTIONARY
360
93
102
}
330
3B
100
AcDbMaterial
  1
Global
  0
MLINESTYLE
  5
18
102
{ACAD_REACTORS
330
17
102
}
330
17
100
AcDbMlineStyle
  2
Standard
 70
     0
  3

 62
   256
 51
90.0
 52
90.0
 71
     2
 49
0.5
 62
   256
  6
BYLAYER
 49
-0.5
 62
   256
  6
BYLAYER
  0
ACDBPLACEHOLDER
  5
F
102
{ACAD_REACTORS
330
E
102
}
330
E
  0
VISUALSTYLE
  5
2F
102
{ACAD_REACTORS
330
2A
102
}
102
{ACAD_XDICTIONARY
360
77
102
}
330
2A
100
AcDbVisualStyle
  2
2dWireframe
 70
     4
 71
     0
 72
     2
 73
     0
 90
        0
 40
-0.6
 41
-30.0
 62
     5
 63
     7
 74
     1
 91
        4
 64
     7
 65
   257
 75
     1
175
     1
 42
1.0
 92
        0
 66
   257
 43
1.0
 76
     1
 77
     6
 78
     2
 67
     7
 79
     5
170
     0
171
     0
290
     0
174
     0
 93
        1
 44
0.0
173
     0
291
     0
 45
0.0
1001
ACAD
1000
AcDbSavedByObjectVersion
1070
     0
  0
VISUALSTYLE
  5
31
102
{ACAD_REACTORS
330
2A
102
}
102
{ACAD_XDICTIONARY
360
7B
102
}
330
2A
100
AcDbVisualStyle
  2
3D Hidden
 70
     6
 71
     1
 72
     2
 73
     2
 90
        0
 40
-0.6
 41
-30.0
 62
     5
 63
     7
 74
     2
 91
        2
 64
     7
 65
   257
 75
     2
175
     1
 42
40.0
 92
        0
 66
   257
 43
1.0
 76
     1
 77
     6
 78
     2
 67
     7
 79
     3
170
     0
171
     0
290
     0
174
     0
 93
        1
 44
0.0
173
     0
291
     0
 45
0.0
1001
ACAD
1000
AcDbSavedByObjectVersion
1070
     0
  0
VISUALSTYLE
  5
30
102
{ACAD_REACTORS
330
2A
102
}
102
{ACAD_XDICTIONARY
360
79
102
}
330
2A
100
AcDbVisualStyle
  2
3dWireframe
 70
     5
 71
     0
 72
     2
 73
     0
 90
        0
 40
-0.6
 41
-30.0
 62
     5
 63
     7
 74
     1
 91
        4
 64
     7
 65
   257
 75
     1
175
     1
 42
1.0
 92
        0
 66
   257
 43
1.0
 76
     1
 77
     6
 78
     2
 67
     7
 79
     5
170
     0
171
     0
290
     0
174
     0
 93
        1
 44
0.0
173
     0
291
     0
 45
0.0
1001
ACAD
1000
AcDbSavedByObjectVersion
1070
     0
  0
VISUALSTYLE
  5
32
102
{ACAD_REACTORS
330
2A
102
}
102
{ACAD_XDICTIONARY
360
7D
102
}
330
2A
100
AcDbVisualStyle
  2
Basic
 70
     7
 71
     1
 72
     0
 73
     1
 90
        0
 40
-0.6
 41
-30.0
 62
     5
 63
     7
 74
     0
 91
        4
 64
     7
 65
   257
 75
     1
175
     1
 42
1.0
 92
        8
 66
     7
 43
1.0
 76
     1
 77
     6
 78
     2
 67
     7
 79
     5
170
     0
171
     0
290
     0
174
     0
 93
        1
 44
0.0
173
     0
291
     1
 45
0.0
1001
ACAD
1000
AcDbSavedByObjectVersion
1070
     0
  0
VISUALSTYLE
  5
36
102
{ACAD_REACTORS
330
2A
102
}
102
{ACAD_XDICTIONARY
360
85
102
}
330
2A
100
AcDbVisualStyle
  2
Brighten
 70
    12
 71
     2
 72
     2
 73
     0
 90
        0
 40
-0.6
 41
-30.0
 62
     5
 63
     7
 74
     1
 91
        4
 64
     7
 65
   257
 75
     1
175
     1
 42
1.0
 92
        8
 66
     7
 43
1.0
 76
     1
 77
     6
 78
     2
 67
     7
 79
     5
170
     0
171
     0
290
     0
174
     0
 93
        1
 44
50.0
173
     0
291
     1
 45
0.0
1001
ACAD
1000
AcDbSavedByObjectVersion
1070
     0
  0
VISUALSTYLE
  5
3A
102
{ACAD_REACTORS
330
2A
102
}
102
{ACAD_XDICTIONARY
360
8D
102
}
330
2A
100
AcDbVisualStyle
  2
ColorChange
 70
    16
 71
     2
 72
     2
 73
     3
 90
        0
 40
-0.6
 41
-30.0
 62
     5
 63
     8
 74
     1
 91
        4
 64
     7
 65
   257
 75
     1
175
     1
 42
1.0
 92
        8
 66
     8
 43
1.0
 76
     1
 77
     6
 78
     2
 67
     7
 79
     5
170
     0
171
     0
290
     0
174
     0
 93
        1
 44
0.0
173
     0
291
     1
 45
0.0
1001
ACAD
1000
AcDbSavedByObjectVersion
1070
     0
  0
VISUALSTYLE
  5
34
102
{ACAD_REACTORS
330
2A
102
}
102
{ACAD_XDICTIONARY
360
81
102
}
330
2A
100
AcDbVisualStyle
  2
Conceptual
 70
     9
 71
     3
 72
     2
 73
     0
 90
        0
 40
-0.6
 41
-30.0
 62
     5
 63
     7
 74
     2
 91
        2
 64
     7
 65
   257
 75
     1
175
     1
 42
40.0
 92
        8
 66
     7
 43
1.0
 76
     1
 77
     6
 78
     2
 67
     7
 79
     3
170
     0
171
     0
290
     0
174
     0
 93
        1
 44
0.0
173
     0
291
     0
 45
0.0
1001
ACAD
1000
AcDbSavedByObjectVersion
1070
     0
  0
VISUALSTYLE
  5
35
102
{ACAD_REACTORS
330
2A
102
}
102
{ACAD_XDICTIONARY
360
83
102
}
330
2A
100
AcDbVisualStyle
  2
Dim
 70
    11
 71
     2
 72
     2
 73
     0
 90
        0
 40
-0.6
 41
-30.0
 62
     5
 63
     7
 74
     1
 91
        4
 64
     7
 65
   257
 75
     1
175
     1
 42
1.0
 92
        8
 66
     7
 43
1.0
 76
     1
 77
     6
 78
     2
 67
     7
 79
     5
170
     0
171
     0
290
     0
174
     0
 93
        1
 44
-50.0
173
     0
291
     1
 45
0.0
1001
ACAD
1000
AcDbSavedByObjectVersion
1070
     0
  0
VISUALSTYLE
  5
39
102
{ACAD_REACTORS
330
2A
102
}
102
{ACAD_XDICTIONARY
360
8B
102
}
330
2A
100
AcDbVisualStyle
  2
Facepattern
 70
    15
 71
     2
 72
     2
 73
     0
 90
        0
 40
-0.6
 41
-30.0
 62
     5
 63
     7
 74
     1
 91
        4
 64
     7
 65
   257
 75
     1
175
     1
 42
1.0
 92
        8
 66
     7
 43
1.0
 76
     1
 77
     6
 78
     2
 67
     7
 79
     5
170
     0
171
     0
290
     0
174
     0
 93
        1
 44
0.0
173
     0
291
     1
 45
0.0
1001
ACAD
1000
AcDbSavedByObjectVersion
1070
     0
  0
VISUALSTYLE
  5
2B
102
{ACAD_REACTORS
330
2A
102
}
102
{ACAD_XDICTIONARY
360
6F
102
}
330
2A
100
AcDbVisualStyle
  2
Flat
 70
     0
 71
     2
 72
     1
 73
     1
 90
        2
 40
-0.6
 41
30.0
 62
     5
 63
     7
 74
     0
 91
        4
 64
     7
 65
   257
 75
     1
175
     1
 42
1.0
 92
        8
 66
     7
 43
1.0
 76
     1
 77
     6
 78
     2
 67
     7
 79
     5
170
     0
171
     0
290
     0
174
     0
 93
       13
 44
0.0
173
     0
291
     1
 45
0.0
1001
ACAD
1000
AcDbSavedByObjectVersion
1070
     0
  0
VISUALSTYLE
  5
2C
102
{ACAD_REACTORS
330
2A
102
}
102
{ACAD_XDICTIONARY
360
71
102
}
330
2A
100
AcDbVisualStyle
  2
FlatWithEdges
 70
     1
 71
     2
 72
     1
 73
     1
 90
        2
 40
-0.6
 41
30.0
 62
     5
 63
     7
 74
     1
 91
        4
 64
     7
 65
   257
 75
     1
175
     1
 42
1.0
 92
        0
 66
   257
 43
1.0
 76
     1
 77
     6
 78
     2
 67
     7
 79
     5
170
     0
171
     0
290
     0
174
     0
 93
       13
 44
0.0
173
     0
291
     1
 45
0.0
1001
ACAD
1000
AcDbSavedByObjectVersion
1070
     0
  0
VISUALSTYLE
  5
2D
102
{ACAD_REACTORS
330
2A
102
}
102
{ACAD_XDICTIONARY
360
73
102
}
330
2A
100
AcDbVisualStyle
  2
Gouraud
 70
     2
 71
     2
 72
     2
 73
     1
 90
        2
 40
-0.6
 41
30.0
 62
     5
 63
     7
 74
     0
 91
        4
 64
     7
 65
   257
 75
     1
175
     1
 42
1.0
 92
        0
 66
     7
 43
1.0
 76
     1
 77
     6
 78
     2
 67
     7
 79
     5
170
     0
171
     0
290
     0
174
     0
 93
       13
 44
0.0
173
     0
291
     1
 45
0.0
1001
ACAD
1000
AcDbSavedByObjectVersion
1070
     0
  0
VISUALSTYLE
  5
2E
102
{ACAD_REACTORS
330
2A
102
}
102
{ACAD_XDICTIONARY
360
75
102
}
330
2A
100
AcDbVisualStyle
  2
GouraudWithEdges
 70
     3
 71
     2
 72
     2
 73
     1
 90
        2
 40
-0.6
 41
30.0
 62
     5
 63
     7
 74
     1
 91
        4
 64
     7
 65
   257
 75
     1
175
     1
 42
1.0
 92
        0
 66
   257
 43
1.0
 76
     1
 77
     6
 78
     2
 67
     7
 79
     5
170
     0
171
     0
290
     0
174
     0
 93
       13
 44
0.0
173
     0
291
     1
 45
0.0
1001
ACAD
1000
AcDbSavedByObjectVersion
1070
     0
  0
VISUALSTYLE
  5
38
102
{ACAD_REACTORS
330
2A
102
}
102
{ACAD_XDICTIONARY
360
89
102
}
330
2A
100
AcDbVisualStyle
  2
Linepattern
 70
    14
 71
     2
 72
     2
 73
     0
 90
        0
 40
-0.6
 41
-30.0
 62
     5
 63
     7
 74
     1
 91
        4
 64
     7
 65
   257
 75
     7
175
     7
 42
1.0
 92
        8
 66
     7
 43
1.0
 76
     1
 77
     6
 78
     2
 67
     7
 79
     5
170
     0
171
     0
290
     0
174
     0
 93
        1
 44
0.0
173
     0
291
     1
 45
0.0
1001
ACAD
1000
AcDbSavedByObjectVersion
1070
     0
  0
VISUALSTYLE
  5
33
102
{ACAD_REACTORS
330
2A
102
}
102
{ACAD_XDICTIONARY
360
7F
102
}
330
2A
100
AcDbVisualStyle
  2
Realistic
 70
     8
 71
     2
 72
     2
 73
     0
 90
        0
 40
-0.6
 41
-30.0
 62
     5
 63
     7
 74
     1
 91
        0
 64
     7
 65
   257
 75
     1
175
     1
 42
1.0
 92
        8
 66
     8
 43
1.0
 76
     1
 77
     6
 78
     2
 67
     7
 79
     5
170
     0
171
     0
290
     0
174
     0
 93
       13
 44
0.0
173
     0
291
     0
 45
0.0
1001
ACAD
1000
AcDbSavedByObjectVersion
1070
     0
  0
VISUALSTYLE
  5
37
102
{ACAD_REACTORS
330
2A
102
}
102
{ACAD_XDICTIONARY
360
87
102
}
330
2A
100
AcDbVisualStyle
  2
Thicken
 70
    13
 71
     2
 72
     2
 73
     0
 90
        0
 40
-0.6
 41
-30.0
 62
     5
 63
     7
 74
     1
 91
        4
 64
     7
 65
   257
 75
     1
175
     1
 42
1.0
 92
       12
 66
     7
 43
1.0
 76
     1
 77
     6
 78
     2
 67
     7
 79
     5
170
     0
171
     0
290
     0
174
     0
 93
        1
 44
0.0
173
     0
291
     1
 45
0.0
1001
ACAD
1000
AcDbSavedByObjectVersion
1070
     0
  0
DICTIONARYVAR
  5
6D
102
{ACAD_REACTORS
330
6A
102
}
330
6A
100
DictionaryVariables
280
     0
  1
2
  0
DICTIONARYVAR
  5
6E
102
{ACAD_REACTORS
330
6A
102
}
330
6A
100
DictionaryVariables
280
     0
  1
1
  0
DICTIONARY
  5
91
330
3D
100
AcDbDictionary
280
     1
281
     1
  3
ACAD_XREC_ROUNDTRIP
360
92
  0
DICTIONARY
  5
8F
330
3C
100
AcDbDictionary
280
     1
281
     1
  3
ACAD_XREC_ROUNDTRIP
360
90
  0
DICTIONARY
  5
93
330
3E
100
AcDbDictionary
280
     1
281
     1
  3
ACAD_XREC_ROUNDTRIP
360
94
  0
DICTIONARY
  5
77
330
2F
100
AcDbDictionary
280
     1
281
     1
  3
ACAD_XREC_ROUNDTRIP
360
78
  0
DICTIONARY
  5
7B
330
31
100
AcDbDictionary
280
     1
281
     1
  3
ACAD_XREC_ROUNDTRIP
360
7C
  0
DICTIONARY
  5
79
330
30
100
AcDbDictionary
280
     1
281
     1
  3
ACAD_XREC_ROUNDTRIP
360
7A
  0
DICTIONARY
  5
7D
330
32
100
AcDbDictionary
280
     1
281
     1
  3
ACAD_XREC_ROUNDTRIP
360
7E
  0
DICTIONARY
  5
85
330
36
100
AcDbDictionary
280
     1
281
     1
  3
ACAD_XREC_ROUNDTRIP
360
86
  0
DICTIONARY
  5
8D
330
3A
100
AcDbDictionary
280
     1
281
     1
  3
ACAD_XREC_ROUNDTRIP
360
8E
  0
DICTIONARY
  5
81
330
34
100
AcDbDictionary
280
     1
281
     1
  3
ACAD_XREC_ROUNDTRIP
360
82
  0
DICTIONARY
  5
83
330
35
100
AcDbDictionary
280
     1
281
     1
  3
ACAD_XREC_ROUNDTRIP
360
84
  0
DICTIONARY
  5
8B
330
39
100
AcDbDictionary
280
     1
281
     1
  3
ACAD_XREC_ROUNDTRIP
360
8C
  0
DICTIONARY
  5
6F
330
2B
100
AcDbDictionary
280
     1
281
     1
  3
ACAD_XREC_ROUNDTRIP
360
70
  0
DICTIONARY
  5
71
330
2C
100
AcDbDictionary
280
     1
281
     1
  3
ACAD_XREC_ROUNDTRIP
360
72
  0
DICTIONARY
  5
73
330
2D
100
AcDbDictionary
280
     1
281
     1
  3
ACAD_XREC_ROUNDTRIP
360
74
  0
DICTIONARY
  5
75
330
2E
100
AcDbDictionary
280
     1
281
     1
  3
ACAD_XREC_ROUNDTRIP
360
76
  0
DICTIONARY
  5
89
330
38
100
AcDbDictionary
280
     1
281
     1
  3
ACAD_XREC_ROUNDTRIP
360
8A
  0
DICTIONARY
  5
7F
330
33
100
AcDbDictionary
280
     1
281
     1
  3
ACAD_XREC_ROUNDTRIP
360
80
  0
DICTIONARY
  5
87
330
37
100
AcDbDictionary
280
     1
281
     1
  3
ACAD_XREC_ROUNDTRIP
360
88
  0
XRECORD
  5
92
102
{ACAD_REACTORS
330
91
102
}
330
91
100
AcDbXrecord
280
     1
102
MATERIAL
148
0.0
149
0.0
149
0.0
 93
        0
 94
      127
282
     0
 72
     1
 77
     1
171
     1
175
     1
179
     1
273
     0
  0
XRECORD
  5
90
102
{ACAD_REACTORS
330
8F
102
}
330
8F
100
AcDbXrecord
280
     1
102
MATERIAL
148
0.0
149
0.0
149
0.0
 93
        0
 94
      127
282
     0
 72
     1
 77
     1
171
     1
175
     1
179
     1
273
     0
  0
XRECORD
  5
94
102
{ACAD_REACTORS
330
93
102
}
330
93
100
AcDbXrecord
280
     1
102
MATERIAL
148
0.0
149
0.0
149
0.0
 93
        0
 94
      127
282
     0
 72
     1
 77
     1
171
     1
175
     1
179
     1
273
     0
  0
XRECORD
  5
78
102
{ACAD_REACTORS
330
77
102
}
330
77
100
AcDbXrecord
280
     1
102
RTVSPropertyOp0
 70
     1
102
RTVSPropertyOp1
 70
     1
102
RTVSPropertyOp2
 70
     1
102
RTVSPropertyOp3
 70
     1
102
RTVSPropertyOp4
 70
     1
102
RTVSPropertyOp5
 70
     1
102
RTVSPropertyOp6
 70
     1
102
RTVSPropertyOp7
 70
     1
102
RTVSPropertyOp8
 70
     1
102
RTVSPropertyOp9
 70
     1
102
RTVSPropertyOp10
 70
     1
102
RTVSPropertyOp11
 70
     1
102
RTVSPropertyOp12
 70
     1
102
RTVSPropertyOp13
 70
     1
102
RTVSPropertyOp14
 70
     1
102
RTVSPropertyOp15
 70
     1
102
RTVSPropertyOp16
 70
     1
102
RTVSPropertyOp17
 70
     1
102
RTVSPropertyOp18
 70
     1
102
RTVSPropertyOp19
 70
     1
102
RTVSPropertyOp20
 70
     1
102
RTVSPropertyOp21
 70
     1
102
RTVSPropertyOp22
 70
     1
102
RTVSPropertyOp23
 70
     1
102
RTVSPropertyOp24
 70
     1
102
RTVSPropertyOp25
 70
     1
102
RTVSPropertyOp26
 70
     1
102
RTVSPropertyOp27
 70
     1
102
RTVSPropertyOp28
 70
     1
102
RTVSPropertyOp29
 70
     1
102
RTVSPropertyOp30
 70
     1
102
RTVSPropertyOp31
 70
     1
102
RTVSPropertyOp32
 70
     1
  0
XRECORD
  5
7C
102
{ACAD_REACTORS
330
7B
102
}
330
7B
100
AcDbXrecord
280
     1
102
RTVSPropertyOp0
 70
     1
102
RTVSPropertyOp1
 70
     1
102
RTVSPropertyOp2
 70
     1
102
RTVSPropertyOp3
 70
     1
102
RTVSPropertyOp4
 70
     1
102
RTVSPropertyOp5
 70
     1
102
RTVSPropertyOp6
 70
     1
102
RTVSPropertyOp7
 70
     1
102
RTVSPropertyOp8
 70
     1
102
RTVSPropertyOp9
 70
     1
102
RTVSPropertyOp10
 70
     1
102
RTVSPropertyOp11
 70
     1
102
RTVSPropertyOp12
 70
     1
102
RTVSPropertyOp13
 70
     1
102
RTVSPropertyOp14
 70
     1
102
RTVSPropertyOp15
 70
     1
102
RTVSPropertyOp16
 70
     1
102
RTVSPropertyOp17
 70
     1
102
RTVSPropertyOp18
 70
     1
102
RTVSPropertyOp19
 70
     1
102
RTVSPropertyOp20
 70
     1
102
RTVSPropertyOp21
 70
     1
102
RTVSPropertyOp22
 70
     1
102
RTVSPropertyOp23
 70
     1
102
RTVSPropertyOp24
 70
     1
102
RTVSPropertyOp25
 70
     1
102
RTVSPropertyOp26
 70
     1
102
RTVSPropertyOp27
 70
     1
102
RTVSPropertyOp28
 70
     1
102
RTVSPropertyOp29
 70
     1
102
RTVSPropertyOp30
 70
     1
102
RTVSPropertyOp31
 70
     1
102
RTVSPropertyOp32
 70
     1
  0
XRECORD
  5
7A
102
{ACAD_REACTORS
330
79
102
}
330
79
100
AcDbXrecord
280
     1
102
RTVSPropertyOp0
 70
     1
102
RTVSPropertyOp1
 70
     1
102
RTVSPropertyOp2
 70
     1
102
RTVSPropertyOp3
 70
     1
102
RTVSPropertyOp4
 70
     1
102
RTVSPropertyOp5
 70
     1
102
RTVSPropertyOp6
 70
     1
102
RTVSPropertyOp7
 70
     1
102
RTVSPropertyOp8
 70
     1
102
RTVSPropertyOp9
 70
     1
102
RTVSPropertyOp10
 70
     1
102
RTVSPropertyOp11
 70
     1
102
RTVSPropertyOp12
 70
     1
102
RTVSPropertyOp13
 70
     1
102
RTVSPropertyOp14
 70
     1
102
RTVSPropertyOp15
 70
     1
102
RTVSPropertyOp16
 70
     1
102
RTVSPropertyOp17
 70
     1
102
RTVSPropertyOp18
 70
     1
102
RTVSPropertyOp19
 70
     1
102
RTVSPropertyOp20
 70
     1
102
RTVSPropertyOp21
 70
     1
102
RTVSPropertyOp22
 70
     1
102
RTVSPropertyOp23
 70
     1
102
RTVSPropertyOp24
 70
     1
102
RTVSPropertyOp25
 70
     1
102
RTVSPropertyOp26
 70
     1
102
RTVSPropertyOp27
 70
     1
102
RTVSPropertyOp28
 70
     1
102
RTVSPropertyOp29
 70
     1
102
RTVSPropertyOp30
 70
     1
102
RTVSPropertyOp31
 70
     1
102
RTVSPropertyOp32
 70
     1
  0
XRECORD
  5
7E
102
{ACAD_REACTORS
330
7D
102
}
330
7D
100
AcDbXrecord
280
     1
102
RTVSPropertyOp0
 70
     1
102
RTVSPropertyOp1
 70
     1
102
RTVSPropertyOp2
 70
     1
102
RTVSPropertyOp3
 70
     1
102
RTVSPropertyOp4
 70
     1
102
RTVSPropertyOp5
 70
     1
102
RTVSPropertyOp6
 70
     1
102
RTVSPropertyOp7
 70
     1
102
RTVSPropertyOp8
 70
     1
102
RTVSPropertyOp9
 70
     1
102
RTVSPropertyOp10
 70
     1
102
RTVSPropertyOp11
 70
     1
102
RTVSPropertyOp12
 70
     1
102
RTVSPropertyOp13
 70
     1
102
RTVSPropertyOp14
 70
     1
102
RTVSPropertyOp15
 70
     1
102
RTVSPropertyOp16
 70
     1
102
RTVSPropertyOp17
 70
     1
102
RTVSPropertyOp18
 70
     1
102
RTVSPropertyOp19
 70
     1
102
RTVSPropertyOp20
 70
     1
102
RTVSPropertyOp21
 70
     1
102
RTVSPropertyOp22
 70
     1
102
RTVSPropertyOp23
 70
     1
102
RTVSPropertyOp24
 70
     1
102
RTVSPropertyOp25
 70
     1
102
RTVSPropertyOp26
 70
     1
102
RTVSPropertyOp27
 70
     1
102
RTVSPropertyOp28
 70
     1
102
RTVSPropertyOp29
 70
     1
102
RTVSPropertyOp30
 70
     1
102
RTVSPropertyOp31
 70
     1
102
RTVSPropertyOp32
 70
     1
  0
XRECORD
  5
86
102
{ACAD_REACTORS
330
85
102
}
330
85
100
AcDbXrecord
280
     1
102
RTVSPropertyOp0
 70
     1
102
RTVSPropertyOp1
 70
     1
102
RTVSPropertyOp2
 70
     1
102
RTVSPropertyOp3
 70
     1
102
RTVSPropertyOp4
 70
     1
102
RTVSPropertyOp5
 70
     1
102
RTVSPropertyOp6
 70
     1
102
RTVSPropertyOp7
 70
     1
102
RTVSPropertyOp8
 70
     1
102
RTVSPropertyOp9
 70
     1
102
RTVSPropertyOp10
 70
     1
102
RTVSPropertyOp11
 70
     1
102
RTVSPropertyOp12
 70
     1
102
RTVSPropertyOp13
 70
     1
102
RTVSPropertyOp14
 70
     1
102
RTVSPropertyOp15
 70
     1
102
RTVSPropertyOp16
 70
     1
102
RTVSPropertyOp17
 70
     1
102
RTVSPropertyOp18
 70
     1
102
RTVSPropertyOp19
 70
     1
102
RTVSPropertyOp20
 70
     1
102
RTVSPropertyOp21
 70
     1
102
RTVSPropertyOp22
 70
     1
102
RTVSPropertyOp23
 70
     1
102
RTVSPropertyOp24
 70
     1
102
RTVSPropertyOp25
 70
     1
102
RTVSPropertyOp26
 70
     1
102
RTVSPropertyOp27
 70
     1
102
RTVSPropertyOp28
 70
     1
102
RTVSPropertyOp29
 70
     1
102
RTVSPropertyOp30
 70
     1
102
RTVSPropertyOp31
 70
     1
102
RTVSPropertyOp32
 70
     1
  0
XRECORD
  5
8E
102
{ACAD_REACTORS
330
8D
102
}
330
8D
100
AcDbXrecord
280
     1
102
RTVSPropertyOp0
 70
     1
102
RTVSPropertyOp1
 70
     1
102
RTVSPropertyOp2
 70
     1
102
RTVSPropertyOp3
 70
     1
102
RTVSPropertyOp4
 70
     1
102
RTVSPropertyOp5
 70
     1
102
RTVSPropertyOp6
 70
     1
102
RTVSPropertyOp7
 70
     1
102
RTVSPropertyOp8
 70
     1
102
RTVSPropertyOp9
 70
     1
102
RTVSPropertyOp10
 70
     1
102
RTVSPropertyOp11
 70
     1
102
RTVSPropertyOp12
 70
     1
102
RTVSPropertyOp13
 70
     1
102
RTVSPropertyOp14
 70
     1
102
RTVSPropertyOp15
 70
     1
102
RTVSPropertyOp16
 70
     1
102
RTVSPropertyOp17
 70
     1
102
RTVSPropertyOp18
 70
     1
102
RTVSPropertyOp19
 70
     1
102
RTVSPropertyOp20
 70
     1
102
RTVSPropertyOp21
 70
     1
102
RTVSPropertyOp22
 70
     1
102
RTVSPropertyOp23
 70
     1
102
RTVSPropertyOp24
 70
     1
102
RTVSPropertyOp25
 70
     1
102
RTVSPropertyOp26
 70
     1
102
RTVSPropertyOp27
 70
     1
102
RTVSPropertyOp28
 70
     1
102
RTVSPropertyOp29
 70
     1
102
RTVSPropertyOp30
 70
     1
102
RTVSPropertyOp31
 70
     1
102
RTVSPropertyOp32
 70
     1
  0
XRECORD
  5
82
102
{ACAD_REACTORS
330
81
102
}
330
81
100
AcDbXrecord
280
     1
102
RTVSPropertyOp0
 70
     1
102
RTVSPropertyOp1
 70
     1
102
RTVSPropertyOp2
 70
     1
102
RTVSPropertyOp3
 70
     1
102
RTVSPropertyOp4
 70
     1
102
RTVSPropertyOp5
 70
     1
102
RTVSPropertyOp6
 70
     1
102
RTVSPropertyOp7
 70
     1
102
RTVSPropertyOp8
 70
     1
102
RTVSPropertyOp9
 70
     1
102
RTVSPropertyOp10
 70
     1
102
RTVSPropertyOp11
 70
     1
102
RTVSPropertyOp12
 70
     1
102
RTVSPropertyOp13
 70
     1
102
RTVSPropertyOp14
 70
     1
102
RTVSPropertyOp15
 70
     1
102
RTVSPropertyOp16
 70
     1
102
RTVSPropertyOp17
 70
     1
102
RTVSPropertyOp18
 70
     1
102
RTVSPropertyOp19
 70
     1
102
RTVSPropertyOp20
 70
     1
102
RTVSPropertyOp21
 70
     1
102
RTVSPropertyOp22
 70
     1
102
RTVSPropertyOp23
 70
     1
102
RTVSPropertyOp24
 70
     1
102
RTVSPropertyOp25
 70
     1
102
RTVSPropertyOp26
 70
     1
102
RTVSPropertyOp27
 70
     1
102
RTVSPropertyOp28
 70
     1
102
RTVSPropertyOp29
 70
     1
102
RTVSPropertyOp30
 70
     1
102
RTVSPropertyOp31
 70
     1
102
RTVSPropertyOp32
 70
     1
  0
XRECORD
  5
84
102
{ACAD_REACTORS
330
83
102
}
330
83
100
AcDbXrecord
280
     1
102
RTVSPropertyOp0
 70
     1
102
RTVSPropertyOp1
 70
     1
102
RTVSPropertyOp2
 70
     1
102
RTVSPropertyOp3
 70
     1
102
RTVSPropertyOp4
 70
     1
102
RTVSPropertyOp5
 70
     1
102
RTVSPropertyOp6
 70
     1
102
RTVSPropertyOp7
 70
     1
102
RTVSPropertyOp8
 70
     1
102
RTVSPropertyOp9
 70
     1
102
RTVSPropertyOp10
 70
     1
102
RTVSPropertyOp11
 70
     1
102
RTVSPropertyOp12
 70
     1
102
RTVSPropertyOp13
 70
     1
102
RTVSPropertyOp14
 70
     1
102
RTVSPropertyOp15
 70
     1
102
RTVSPropertyOp16
 70
     1
102
RTVSPropertyOp17
 70
     1
102
RTVSPropertyOp18
 70
     1
102
RTVSPropertyOp19
 70
     1
102
RTVSPropertyOp20
 70
     1
102
RTVSPropertyOp21
 70
     1
102
RTVSPropertyOp22
 70
     1
102
RTVSPropertyOp23
 70
     1
102
RTVSPropertyOp24
 70
     1
102
RTVSPropertyOp25
 70
     1
102
RTVSPropertyOp26
 70
     1
102
RTVSPropertyOp27
 70
     1
102
RTVSPropertyOp28
 70
     1
102
RTVSPropertyOp29
 70
     1
102
RTVSPropertyOp30
 70
     1
102
RTVSPropertyOp31
 70
     1
102
RTVSPropertyOp32
 70
     1
  0
XRECORD
  5
8C
102
{ACAD_REACTORS
330
8B
102
}
330
8B
100
AcDbXrecord
280
     1
102
RTVSPropertyOp0
 70
     1
102
RTVSPropertyOp1
 70
     1
102
RTVSPropertyOp2
 70
     1
102
RTVSPropertyOp3
 70
     1
102
RTVSPropertyOp4
 70
     1
102
RTVSPropertyOp5
 70
     1
102
RTVSPropertyOp6
 70
     1
102
RTVSPropertyOp7
 70
     1
102
RTVSPropertyOp8
 70
     1
102
RTVSPropertyOp9
 70
     1
102
RTVSPropertyOp10
 70
     1
102
RTVSPropertyOp11
 70
     1
102
RTVSPropertyOp12
 70
     1
102
RTVSPropertyOp13
 70
     1
102
RTVSPropertyOp14
 70
     1
102
RTVSPropertyOp15
 70
     1
102
RTVSPropertyOp16
 70
     1
102
RTVSPropertyOp17
 70
     1
102
RTVSPropertyOp18
 70
     1
102
RTVSPropertyOp19
 70
     1
102
RTVSPropertyOp20
 70
     1
102
RTVSPropertyOp21
 70
     1
102
RTVSPropertyOp22
 70
     1
102
RTVSPropertyOp23
 70
     1
102
RTVSPropertyOp24
 70
     1
102
RTVSPropertyOp25
 70
     1
102
RTVSPropertyOp26
 70
     1
102
RTVSPropertyOp27
 70
     1
102
RTVSPropertyOp28
 70
     1
102
RTVSPropertyOp29
 70
     1
102
RTVSPropertyOp30
 70
     1
102
RTVSPropertyOp31
 70
     1
102
RTVSPropertyOp32
 70
     1
  0
XRECORD
  5
70
102
{ACAD_REACTORS
330
6F
102
}
330
6F
100
AcDbXrecord
280
     1
102
RTVSPropertyOp0
 70
     1
102
RTVSPropertyOp1
 70
     1
102
RTVSPropertyOp2
 70
     1
102
RTVSPropertyOp3
 70
     1
102
RTVSPropertyOp4
 70
     1
102
RTVSPropertyOp5
 70
     1
102
RTVSPropertyOp6
 70
     1
102
RTVSPropertyOp7
 70
     1
102
RTVSPropertyOp8
 70
     1
102
RTVSPropertyOp9
 70
     1
102
RTVSPropertyOp10
 70
     1
102
RTVSPropertyOp11
 70
     1
102
RTVSPropertyOp12
 70
     1
102
RTVSPropertyOp13
 70
     1
102
RTVSPropertyOp14
 70
     1
102
RTVSPropertyOp15
 70
     1
102
RTVSPropertyOp16
 70
     1
102
RTVSPropertyOp17
 70
     1
102
RTVSPropertyOp18
 70
     1
102
RTVSPropertyOp19
 70
     1
102
RTVSPropertyOp20
 70
     1
102
RTVSPropertyOp21
 70
     1
102
RTVSPropertyOp22
 70
     1
102
RTVSPropertyOp23
 70
     1
102
RTVSPropertyOp24
 70
     1
102
RTVSPropertyOp25
 70
     1
102
RTVSPropertyOp26
 70
     1
102
RTVSPropertyOp27
 70
     1
102
RTVSPropertyOp28
 70
     1
102
RTVSPropertyOp29
 70
     1
102
RTVSPropertyOp30
 70
     1
102
RTVSPropertyOp31
 70
     1
102
RTVSPropertyOp32
 70
     1
  0
XRECORD
  5
72
102
{ACAD_REACTORS
330
71
102
}
330
71
100
AcDbXrecord
280
     1
102
RTVSPropertyOp0
 70
     1
102
RTVSPropertyOp1
 70
     1
102
RTVSPropertyOp2
 70
     1
102
RTVSPropertyOp3
 70
     1
102
RTVSPropertyOp4
 70
     1
102
RTVSPropertyOp5
 70
     1
102
RTVSPropertyOp6
 70
     1
102
RTVSPropertyOp7
 70
     1
102
RTVSPropertyOp8
 70
     1
102
RTVSPropertyOp9
 70
     1
102
RTVSPropertyOp10
 70
     1
102
RTVSPropertyOp11
 70
     1
102
RTVSPropertyOp12
 70
     1
102
RTVSPropertyOp13
 70
     1
102
RTVSPropertyOp14
 70
     1
102
RTVSPropertyOp15
 70
     1
102
RTVSPropertyOp16
 70
     1
102
RTVSPropertyOp17
 70
     1
102
RTVSPropertyOp18
 70
     1
102
RTVSPropertyOp19
 70
     1
102
RTVSPropertyOp20
 70
     1
102
RTVSPropertyOp21
 70
     1
102
RTVSPropertyOp22
 70
     1
102
RTVSPropertyOp23
 70
     1
102
RTVSPropertyOp24
 70
     1
102
RTVSPropertyOp25
 70
     1
102
RTVSPropertyOp26
 70
     1
102
RTVSPropertyOp27
 70
     1
102
RTVSPropertyOp28
 70
     1
102
RTVSPropertyOp29
 70
     1
102
RTVSPropertyOp30
 70
     1
102
RTVSPropertyOp31
 70
     1
102
RTVSPropertyOp32
 70
     1
  0
XRECORD
  5
74
102
{ACAD_REACTORS
330
73
102
}
330
73
100
AcDbXrecord
280
     1
102
RTVSPropertyOp0
 70
     1
102
RTVSPropertyOp1
 70
     1
102
RTVSPropertyOp2
 70
     1
102
RTVSPropertyOp3
 70
     1
102
RTVSPropertyOp4
 70
     1
102
RTVSPropertyOp5
 70
     1
102
RTVSPropertyOp6
 70
     1
102
RTVSPropertyOp7
 70
     1
102
RTVSPropertyOp8
 70
     1
102
RTVSPropertyOp9
 70
     1
102
RTVSPropertyOp10
 70
     1
102
RTVSPropertyOp11
 70
     1
102
RTVSPropertyOp12
 70
     1
102
RTVSPropertyOp13
 70
     1
102
RTVSPropertyOp14
 70
     1
102
RTVSPropertyOp15
 70
     1
102
RTVSPropertyOp16
 70
     1
102
RTVSPropertyOp17
 70
     1
102
RTVSPropertyOp18
 70
     1
102
RTVSPropertyOp19
 70
     1
102
RTVSPropertyOp20
 70
     1
102
RTVSPropertyOp21
 70
     1
102
RTVSPropertyOp22
 70
     1
102
RTVSPropertyOp23
 70
     1
102
RTVSPropertyOp24
 70
     1
102
RTVSPropertyOp25
 70
     1
102
RTVSPropertyOp26
 70
     1
102
RTVSPropertyOp27
 70
     1
102
RTVSPropertyOp28
 70
     1
102
RTVSPropertyOp29
 70
     1
102
RTVSPropertyOp30
 70
     1
102
RTVSPropertyOp31
 70
     1
102
RTVSPropertyOp32
 70
     1
  0
XRECORD
  5
76
102
{ACAD_REACTORS
330
75
102
}
330
75
100
AcDbXrecord
280
     1
102
RTVSPropertyOp0
 70
     1
102
RTVSPropertyOp1
 70
     1
102
RTVSPropertyOp2
 70
     1
102
RTVSPropertyOp3
 70
     1
102
RTVSPropertyOp4
 70
     1
102
RTVSPropertyOp5
 70
     1
102
RTVSPropertyOp6
 70
     1
102
RTVSPropertyOp7
 70
     1
102
RTVSPropertyOp8
 70
     1
102
RTVSPropertyOp9
 70
     1
102
RTVSPropertyOp10
 70
     1
102
RTVSPropertyOp11
 70
     1
102
RTVSPropertyOp12
 70
     1
102
RTVSPropertyOp13
 70
     1
102
RTVSPropertyOp14
 70
     1
102
RTVSPropertyOp15
 70
     1
102
RTVSPropertyOp16
 70
     1
102
RTVSPropertyOp17
 70
     1
102
RTVSPropertyOp18
 70
     1
102
RTVSPropertyOp19
 70
     1
102
RTVSPropertyOp20
 70
     1
102
RTVSPropertyOp21
 70
     1
102
RTVSPropertyOp22
 70
     1
102
RTVSPropertyOp23
 70
     1
102
RTVSPropertyOp24
 70
     1
102
RTVSPropertyOp25
 70
     1
102
RTVSPropertyOp26
 70
     1
102
RTVSPropertyOp27
 70
     1
102
RTVSPropertyOp28
 70
     1
102
RTVSPropertyOp29
 70
     1
102
RTVSPropertyOp30
 70
     1
102
RTVSPropertyOp31
 70
     1
102
RTVSPropertyOp32
 70
     1
  0
XRECORD
  5
8A
102
{ACAD_REACTORS
330
89
102
}
330
89
100
AcDbXrecord
280
     1
102
RTVSPropertyOp0
 70
     1
102
RTVSPropertyOp1
 70
     1
102
RTVSPropertyOp2
 70
     1
102
RTVSPropertyOp3
 70
     1
102
RTVSPropertyOp4
 70
     1
102
RTVSPropertyOp5
 70
     1
102
RTVSPropertyOp6
 70
     1
102
RTVSPropertyOp7
 70
     1
102
RTVSPropertyOp8
 70
     1
102
RTVSPropertyOp9
 70
     1
102
RTVSPropertyOp10
 70
     1
102
RTVSPropertyOp11
 70
     1
102
RTVSPropertyOp12
 70
     1
102
RTVSPropertyOp13
 70
     1
102
RTVSPropertyOp14
 70
     1
102
RTVSPropertyOp15
 70
     1
102
RTVSPropertyOp16
 70
     1
102
RTVSPropertyOp17
 70
     1
102
RTVSPropertyOp18
 70
     1
102
RTVSPropertyOp19
 70
     1
102
RTVSPropertyOp20
 70
     1
102
RTVSPropertyOp21
 70
     1
102
RTVSPropertyOp22
 70
     1
102
RTVSPropertyOp23
 70
     1
102
RTVSPropertyOp24
 70
     1
102
RTVSPropertyOp25
 70
     1
102
RTVSPropertyOp26
 70
     1
102
RTVSPropertyOp27
 70
     1
102
RTVSPropertyOp28
 70
     1
102
RTVSPropertyOp29
 70
     1
102
RTVSPropertyOp30
 70
     1
102
RTVSPropertyOp31
 70
     1
102
RTVSPropertyOp32
 70
     1
  0
XRECORD
  5
80
102
{ACAD_REACTORS
330
7F
102
}
330
7F
100
AcDbXrecord
280
     1
102
RTVSPropertyOp0
 70
     1
102
RTVSPropertyOp1
 70
     1
102
RTVSPropertyOp2
 70
     1
102
RTVSPropertyOp3
 70
     1
102
RTVSPropertyOp4
 70
     1
102
RTVSPropertyOp5
 70
     1
102
RTVSPropertyOp6
 70
     1
102
RTVSPropertyOp7
 70
     1
102
RTVSPropertyOp8
 70
     1
102
RTVSPropertyOp9
 70
     1
102
RTVSPropertyOp10
 70
     1
102
RTVSPropertyOp11
 70
     1
102
RTVSPropertyOp12
 70
     1
102
RTVSPropertyOp13
 70
     1
102
RTVSPropertyOp14
 70
     1
102
RTVSPropertyOp15
 70
     1
102
RTVSPropertyOp16
 70
     1
102
RTVSPropertyOp17
 70
     1
102
RTVSPropertyOp18
 70
     1
102
RTVSPropertyOp19
 70
     1
102
RTVSPropertyOp20
 70
     1
102
RTVSPropertyOp21
 70
     1
102
RTVSPropertyOp22
 70
     1
102
RTVSPropertyOp23
 70
     1
102
RTVSPropertyOp24
 70
     1
102
RTVSPropertyOp25
 70
     1
102
RTVSPropertyOp26
 70
     1
102
RTVSPropertyOp27
 70
     1
102
RTVSPropertyOp28
 70
     1
102
RTVSPropertyOp29
 70
     1
102
RTVSPropertyOp30
 70
     1
102
RTVSPropertyOp31
 70
     1
102
RTVSPropertyOp32
 70
     1
  0
XRECORD
  5
88
102
{ACAD_REACTORS
330
87
102
}
330
87
100
AcDbXrecord
280
     1
102
RTVSPropertyOp0
 70
     1
102
RTVSPropertyOp1
 70
     1
102
RTVSPropertyOp2
 70
     1
102
RTVSPropertyOp3
 70
     1
102
RTVSPropertyOp4
 70
     1
102
RTVSPropertyOp5
 70
     1
102
RTVSPropertyOp6
 70
     1
102
RTVSPropertyOp7
 70
     1
102
RTVSPropertyOp8
 70
     1
102
RTVSPropertyOp9
 70
     1
102
RTVSPropertyOp10
 70
     1
102
RTVSPropertyOp11
 70
     1
102
RTVSPropertyOp12
 70
     1
102
RTVSPropertyOp13
 70
     1
102
RTVSPropertyOp14
 70
     1
102
RTVSPropertyOp15
 70
     1
102
RTVSPropertyOp16
 70
     1
102
RTVSPropertyOp17
 70
     1
102
RTVSPropertyOp18
 70
     1
102
RTVSPropertyOp19
 70
     1
102
RTVSPropertyOp20
 70
     1
102
RTVSPropertyOp21
 70
     1
102
RTVSPropertyOp22
 70
     1
102
RTVSPropertyOp23
 70
     1
102
RTVSPropertyOp24
 70
     1
102
RTVSPropertyOp25
 70
     1
102
RTVSPropertyOp26
 70
     1
102
RTVSPropertyOp27
 70
     1
102
RTVSPropertyOp28
 70
     1
102
RTVSPropertyOp29
 70
     1
102
RTVSPropertyOp30
 70
     1
102
RTVSPropertyOp31
 70
     1
102
RTVSPropertyOp32
 70
     1
  0
ENDSEC
  0
EOF
