0
SECTION
2
HEADER
9
$INSUNITS
70
4
9
$ACADVER
1
AC1014
9
$HANDSEED
5
FFFF
0
ENDSEC
0
SECTION
2
TABLES
0
TABLE
2
VPORT
5
8
100
AcDbSymbolTable
0
ENDTAB
0
TABLE
2
LTYPE
5
5
100
AcDbSymbolTable
0
LTYPE
5
14
100
AcDbSymbolTableRecord
100
AcDbLinetypeTableRecord
2
BYBLOCK
70
0
0
LTYPE
5
15
100
AcDbSymbolTableRecord
100
AcDbLinetypeTableRecord
2
BYLAYER
70
0
0
ENDTAB
0
TABLE
2
LAYER
5
2
100
AcDbSymbolTable
70
2
0
LAYER
5
50
100
AcDbSymbolTableRecord
100
AcDbLayerTableRecord
2
0
70
0
6
CONTINUOUS
0
ENDTAB
0
TABLE
2
STYLE
5
3
100
AcDbSymbolTable
70
1
0
STYLE
5
11
100
AcDbSymbolTableRecord
100
AcDbTextStyleTableRecord
2
STANDARD
70
0
0
ENDTAB
0
TABLE
2
VIEW
5
6
100
AcDbSymbolTable
70
0
0
ENDTAB
0
TABLE
2
UCS
5
7
100
AcDbSymbolTable
70
0
0
ENDTAB
0
TABLE
2
APPID
5
9
100
AcDbSymbolTable
70
2
0
APPID
5
12
100
AcDbSymbolTableRecord
100
AcDbRegAppTableRecord
2
ACAD
70
0
0
ENDTAB
0
TABLE
2
DIMSTYLE
5
A
100
AcDbSymbolTable
70
1
0
ENDTAB
0
TABLE
2
BLOCK_RECORD
5
1
100
AcDbSymbolTable
70
1
0
BLOCK_RECORD
5
1F
100
AcDbSymbolTableRecord
100
AcDbBlockTableRecord
2
*MODEL_SPACE
0
BLOCK_RECORD
5
1B
100
AcDbSymbolTableRecord
100
AcDbBlockTableRecord
2
*PAPER_SPACE
0
ENDTAB
0
ENDSEC
0
SECTION
2
BLOCKS
0
BLOCK
5
20
100
AcDbEntity
100
AcDbBlockBegin
2
*MODEL_SPACE
0
ENDBLK
5
21
100
AcDbEntity
100
AcDbBlockEnd
0
BLOCK
5
1C
100
AcDbEntity
100
AcDbBlockBegin
2
*PAPER_SPACE
0
ENDBLK
5
1D
100
AcDbEntity
100
AcDbBlockEnd
0
ENDSEC
0
SECTION
2
ENTITIES
0
CIRCLE
5
100
100
AcDbEntity
8
0
100
AcDbCircle
10
0
20
0
30
0
40
150.00000000000003
0
LWPOLYLINE
5
101
100
AcDbEntity
8
0
100
AcDbPolyline
90
4
70
1
43
0.0
10
-30
20
8.5
10
-79.999999999999986
20
8.5000000000000036
10
-79.999999999999986
20
-8.5
10
-30
20
-8.5
0
LWPOLYLINE
5
102
100
AcDbEntity
8
0
100
AcDbPolyline
90
4
70
1
43
0.0
10
30
20
8.4999999999999982
10
80
20
8.4999999999999982
10
80
20
-8.5000000000000036
10
30
20
-8.5000000000000036
0
LWPOLYLINE
5
103
100
AcDbEntity
8
0
100
AcDbPolyline
90
4
70
1
43
0.0
10
-8.5
20
-30
10
8.5
20
-30
10
8.4999999999999964
20
-80
10
-8.5
20
-80
0
LWPOLYLINE
5
104
100
AcDbEntity
8
0
100
AcDbPolyline
90
4
70
1
43
0.0
10
-8.5
20
30
10
8.5
20
30
10
8.5000000000000036
20
80
10
-8.5
20
80
0
LWPOLYLINE
5
105
100
AcDbEntity
8
0
100
AcDbPolyline
90
14
70
1
43
0.0
10
120.65013025212522
20
182.4552905098852
10
120.65013025212522
20
165.4552905098852
10
70.650130252125223
20
165.4552905098852
10
70.650130252125223
20
182.4552905098852
10
-21.516391989245204
20
274.62181275125567
42
-0.66817863791929888
10
-18.687964864499023
20
281.45023987600183
10
-14.40343757196004
20
281.45023987600189
42
-0.1990395726415691
10
-11.573626431389172
20
280.27728230736034
10
5.7379787071930366
20
262.94872277145555
10
101.15265556906692
20
262.94872277145555
10
101.15265556906692
20
277.45023987600183
42
-0.4142135623730977
10
105.15265556906691
20
281.45023987600189
10
116.65013025212524
20
281.45023987600189
42
-0.4142135623730977
10
120.65013025212522
20
277.45023987600183
0
LWPOLYLINE
5
106
100
AcDbEntity
8
0
100
AcDbPolyline
90
8
70
1
43
0.0
10
87.810656771797255
20
182.4552905098852
10
97.152655569066937
20
182.4552905098852
42
0.41421356237310281
10
101.15265556906692
20
186.45529050988523
10
101.15265556906692
20
249.14435443946564
42
0.41421356237309509
10
97.152655569066937
20
253.14435443946564
10
25.182928309566854
20
253.14435443946564
42
0.66800166202507982
10
22.353117168995986
20
246.31731200810719
10
84.98084563122643
20
183.62824807852675
42
0.19903957264158517
0
LWPOLYLINE
5
107
100
AcDbEntity
8
0
100
AcDbPolyline
90
14
70
1
43
0.0
10
-68.349869747874763
20
281.45023987600183
42
-0.41421356237309509
10
-64.349869747874777
20
277.45023987600183
10
-64.349869747874777
20
182.45529050988517
10
-64.349869747874777
20
165.4552905098852
10
-114.34986974787478
20
165.4552905098852
10
-114.34986974787478
20
182.45529050988517
10
-206.51639198924522
20
274.62181275125567
42
-0.66817863791929888
10
-203.68796486449901
20
281.45023987600183
10
-199.40343757196004
20
281.45023987600189
42
-0.1990395726415691
10
-196.57362643138919
20
280.27728230736034
10
-179.26202129280696
20
262.94872277145555
10
-83.847344430933077
20
262.94872277145555
10
-83.847344430933077
20
277.45023987600183
42
-0.41421356237309509
10
-79.847344430933092
20
281.45023987600183
0
LWPOLYLINE
5
108
100
AcDbEntity
8
0
100
AcDbPolyline
90
8
70
1
43
0.0
10
-159.81707169043315
20
253.14435443946564
10
-87.847344430933063
20
253.14435443946564
42
-0.4142135623731002
10
-83.847344430933077
20
249.14435443946559
10
-83.847344430933049
20
186.45529050988515
42
-0.4142135623730977
10
-87.847344430933063
20
182.45529050988517
10
-97.189343228202731
20
182.4552905098852
42
-0.19903957264158517
10
-100.01915436877357
20
183.62824807852675
10
-162.64688283100409
20
246.31731200810714
42
-0.6680016620250776
0
LWPOLYLINE
5
109
100
AcDbEntity
8
0
100
AcDbPolyline
90
14
70
1
43
0.0
10
-168.34986974787478
20
131.45023987600186
42
-0.4142135623730977
10
-164.34986974787478
20
127.45023987600185
10
-164.34986974787478
20
32.455290509885195
10
-164.34986974787478
20
15.455290509885202
10
-214.34986974787478
20
15.455290509885202
10
-214.34986974787478
20
32.455290509885195
10
-306.51639198924522
20
124.62181275125567
42
-0.66817863791929766
10
-303.68796486449901
20
131.45023987600183
10
-299.40343757196001
20
131.45023987600183
42
-0.1990395726415691
10
-296.57362643138919
20
130.27728230736028
10
-279.26202129280693
20
112.94872277145559
10
-183.84734443093308
20
112.94872277145559
10
-183.84734443093308
20
127.45023987600185
42
-0.41421356237309637
10
-179.84734443093311
20
131.45023987600186
0
LWPOLYLINE
5
110
100
AcDbEntity
8
0
100
AcDbPolyline
90
8
70
1
43
0.0
10
-259.81707169043312
20
103.14435443946564
10
-187.84734443093305
20
103.14435443946564
42
-0.41421356237309509
10
-183.84734443093308
20
99.144354439465658
10
-183.84734443093308
20
36.455290509885216
42
-0.41421356237310281
10
-187.84734443093305
20
32.455290509885195
10
-197.18934322820274
20
32.455290509885174
42
-0.19903957264158517
10
-200.01915436877357
20
33.628248078526752
10
-262.64688283100401
20
96.31731200810718
42
-0.66800166202507982
0
LWPOLYLINE
5
111
100
AcDbEntity
8
0
100
AcDbPolyline
90
14
70
1
43
0.0
10
-168.34986974787478
20
-18.549760123998134
42
-0.4142135623730977
10
-164.34986974787478
20
-22.549760123998155
10
-164.34986974787478
20
-117.54470949011477
10
-164.34986974787478
20
-134.5447094901148
10
-214.34986974787478
20
-134.5447094901148
10
-214.34986974787478
20
-117.54470949011477
10
-306.51639198924522
20
-25.378187248744336
42
-0.66817863791929888
10
-303.68796486449901
20
-18.549760123998169
10
-299.40343757196001
20
-18.549760123998148
42
-0.1990395726415691
10
-296.57362643138919
20
-19.722717692639691
10
-279.26202129280693
20
-37.051277228544421
10
-183.84734443093308
20
-37.051277228544421
10
-183.84734443093308
20
-22.549760123998155
42
-0.4142135623730977
10
-179.84734443093311
20
-18.549760123998134
0
LWPOLYLINE
5
112
100
AcDbEntity
8
0
100
AcDbPolyline
90
8
70
1
43
0.0
10
-259.81707169043312
20
-46.855645560534356
10
-187.84734443093305
20
-46.855645560534356
42
-0.41421356237309509
10
-183.84734443093308
20
-50.855645560534342
10
-183.84734443093311
20
-113.54470949011478
42
-0.41421356237310281
10
-187.84734443093305
20
-117.54470949011477
10
-197.18934322820274
20
-117.54470949011483
42
-0.19903957264158517
10
-200.01915436877357
20
-116.37175192147325
10
-262.64688283100395
20
-53.682687991892777
42
-0.66800166202508215
0
ENDSEC
0
SECTION
2
OBJECTS
0
DICTIONARY
5
C
100
AcDbDictionary
3
ACAD_GROUP
350
D
3
ACAD_MLINESTYLE
350
17
0
DICTIONARY
5
D
100
AcDbDictionary
0
DICTIONARY
5
1A
330
C
100
AcDbDictionary
0
DICTIONARY
5
17
100
AcDbDictionary
0
ENDSEC
0
EOF
