  0
SECTION
  2
HEADER
  9
$ACADVER
  1
AC1015
  9
$ACADMAINTVER
 70
     6
  9
$DWGCODEPAGE
  3
ANSI_932
  9
$INSBASE
 10
0.0
 20
0.0
 30
0.0
  9
$EXTMIN
 10
1.000000000000000E+20
 20
1.000000000000000E+20
 30
1.000000000000000E+20
  9
$EXTMAX
 10
-1.000000000000000E+20
 20
-1.000000000000000E+20
 30
-1.000000000000000E+20
  9
$LIMMIN
 10
0.0
 20
0.0
  9
$LIMMAX
 10
12.0
 20
9.0
  9
$ORTHOMODE
 70
     0
  9
$REGENMODE
 70
     1
  9
$FILLMODE
 70
     1
  9
$QTEXTMODE
 70
     0
  9
$MIRRTEXT
 70
     1
  9
$LTSCALE
 40
1.0
  9
$ATTMODE
 70
     1
  9
$TEXTSIZE
 40
0.2
  9
$TRACEWID
 40
0.05
  9
$TEXTSTYLE
  7
Standard
  9
$CLAYER
  8
0
  9
$CELTYPE
  6
ByLayer
  9
$CECOLOR
 62
   256
  9
$CELTSCALE
 40
1.0
  9
$DISPSILH
 70
     0
  9
$DIMSCALE
 40
1.0
  9
$DIMASZ
 40
0.18
  9
$DIMEXO
 40
0.0625
  9
$DIMDLI
 40
0.38
  9
$DIMRND
 40
0.0
  9
$DIMDLE
 40
0.0
  9
$DIMEXE
 40
0.18
  9
$DIMTP
 40
0.0
  9
$DIMTM
 40
0.0
  9
$DIMTXT
 40
0.18
  9
$DIMCEN
 40
0.09
  9
$DIMTSZ
 40
0.0
  9
$DIMTOL
 70
     0
  9
$DIMLIM
 70
     0
  9
$DIMTIH
 70
     1
  9
$DIMTOH
 70
     1
  9
$DIMSE1
 70
     0
  9
$DIMSE2
 70
     0
  9
$DIMTAD
 70
     0
  9
$DIMZIN
 70
     0
  9
$DIMBLK
  1

  9
$DIMASO
 70
     1
  9
$DIMSHO
 70
     1
  9
$DIMPOST
  1

  9
$DIMAPOST
  1

  9
$DIMALT
 70
     0
  9
$DIMALTD
 70
     2
  9
$DIMALTF
 40
25.4
  9
$DIMLFAC
 40
1.0
  9
$DIMTOFL
 70
     0
  9
$DIMTVP
 40
0.0
  9
$DIMTIX
 70
     0
  9
$DIMSOXD
 70
     0
  9
$DIMSAH
 70
     0
  9
$DIMBLK1
  1

  9
$DIMBLK2
  1

  9
$DIMSTYLE
  2
Standard
  9
$DIMCLRD
 70
     0
  9
$DIMCLRE
 70
     0
  9
$DIMCLRT
 70
     0
  9
$DIMTFAC
 40
1.0
  9
$DIMGAP
 40
0.09
  9
$DIMJUST
 70
     0
  9
$DIMSD1
 70
     0
  9
$DIMSD2
 70
     0
  9
$DIMTOLJ
 70
     1
  9
$DIMTZIN
 70
     0
  9
$DIMALTZ
 70
     0
  9
$DIMALTTZ
 70
     0
  9
$DIMUPT
 70
     0
  9
$DIMDEC
 70
     4
  9
$DIMTDEC
 70
     4
  9
$DIMALTU
 70
     2
  9
$DIMALTTD
 70
     2
  9
$DIMTXSTY
  7
Standard
  9
$DIMAUNIT
 70
     0
  9
$DIMADEC
 70
     0
  9
$DIMALTRND
 40
0.0
  9
$DIMAZIN
 70
     0
  9
$DIMDSEP
 70
    46
  9
$DIMATFIT
 70
     3
  9
$DIMFRAC
 70
     0
  9
$DIMLDRBLK
  1

  9
$DIMLUNIT
 70
     2
  9
$DIMLWD
 70
    -2
  9
$DIMLWE
 70
    -2
  9
$DIMTMOVE
 70
     0
  9
$LUNITS
 70
     2
  9
$LUPREC
 70
     4
  9
$SKETCHINC
 40
0.1
  9
$FILLETRAD
 40
0.5
  9
$AUNITS
 70
     0
  9
$AUPREC
 70
     0
  9
$MENU
  1
.
  9
$ELEVATION
 40
0.0
  9
$PELEVATION
 40
0.0
  9
$THICKNESS
 40
0.0
  9
$LIMCHECK
 70
     0
  9
$CHAMFERA
 40
0.5
  9
$CHAMFERB
 40
0.5
  9
$CHAMFERC
 40
1.0
  9
$CHAMFERD
 40
0.0
  9
$SKPOLY
 70
     0
  9
$TDCREATE
 40
2457794.589675926
  9
$TDUCREATE
 40
2457794.214675926
  9
$TDUPDATE
 40
2457794.589675937
  9
$TDUUPDATE
 40
2457794.214675937
  9
$TDINDWG
 40
0.0000000116
  9
$TDUSRTIMER
 40
0.0000000116
  9
$USRTIMER
 70
     1
  9
$ANGBASE
 50
0.0
  9
$ANGDIR
 70
     0
  9
$PDMODE
 70
     0
  9
$PDSIZE
 40
0.0
  9
$PLINEWID
 40
0.0
  9
$SPLFRAME
 70
     0
  9
$SPLINETYPE
 70
     6
  9
$SPLINESEGS
 70
     8
  9
$HANDSEED
  5
80
  9
$SURFTAB1
 70
     6
  9
$SURFTAB2
 70
     6
  9
$SURFTYPE
 70
     6
  9
$SURFU
 70
     6
  9
$SURFV
 70
     6
  9
$UCSBASE
  2

  9
$UCSNAME
  2

  9
$UCSORG
 10
0.0
 20
0.0
 30
0.0
  9
$UCSXDIR
 10
1.0
 20
0.0
 30
0.0
  9
$UCSYDIR
 10
0.0
 20
1.0
 30
0.0
  9
$UCSORTHOREF
  2

  9
$UCSORTHOVIEW
 70
     0
  9
$UCSORGTOP
 10
0.0
 20
0.0
 30
0.0
  9
$UCSORGBOTTOM
 10
0.0
 20
0.0
 30
0.0
  9
$UCSORGLEFT
 10
0.0
 20
0.0
 30
0.0
  9
$UCSORGRIGHT
 10
0.0
 20
0.0
 30
0.0
  9
$UCSORGFRONT
 10
0.0
 20
0.0
 30
0.0
  9
$UCSORGBACK
 10
0.0
 20
0.0
 30
0.0
  9
$PUCSBASE
  2

  9
$PUCSNAME
  2

  9
$PUCSORG
 10
0.0
 20
0.0
 30
0.0
  9
$PUCSXDIR
 10
1.0
 20
0.0
 30
0.0
  9
$PUCSYDIR
 10
0.0
 20
1.0
 30
0.0
  9
$PUCSORTHOREF
  2

  9
$PUCSORTHOVIEW
 70
     0
  9
$PUCSORGTOP
 10
0.0
 20
0.0
 30
0.0
  9
$PUCSORGBOTTOM
 10
0.0
 20
0.0
 30
0.0
  9
$PUCSORGLEFT
 10
0.0
 20
0.0
 30
0.0
  9
$PUCSORGRIGHT
 10
0.0
 20
0.0
 30
0.0
  9
$PUCSORGFRONT
 10
0.0
 20
0.0
 30
0.0
  9
$PUCSORGBACK
 10
0.0
 20
0.0
 30
0.0
  9
$USERI1
 70
     0
  9
$USERI2
 70
     0
  9
$USERI3
 70
     0
  9
$USERI4
 70
     0
  9
$USERI5
 70
     0
  9
$USERR1
 40
0.0
  9
$USERR2
 40
0.0
  9
$USERR3
 40
0.0
  9
$USERR4
 40
0.0
  9
$USERR5
 40
0.0
  9
$WORLDVIEW
 70
     1
  9
$SHADEDGE
 70
     3
  9
$SHADEDIF
 70
    70
  9
$TILEMODE
 70
     1
  9
$MAXACTVP
 70
    64
  9
$PINSBASE
 10
0.0
 20
0.0
 30
0.0
  9
$PLIMCHECK
 70
     0
  9
$PEXTMIN
 10
1.000000000000000E+20
 20
1.000000000000000E+20
 30
1.000000000000000E+20
  9
$PEXTMAX
 10
-1.000000000000000E+20
 20
-1.000000000000000E+20
 30
-1.000000000000000E+20
  9
$PLIMMIN
 10
0.0
 20
0.0
  9
$PLIMMAX
 10
12.0
 20
9.0
  9
$UNITMODE
 70
     0
  9
$VISRETAIN
 70
     1
  9
$PLINEGEN
 70
     0
  9
$PSLTSCALE
 70
     1
  9
$TREEDEPTH
 70
  3020
  9
$CMLSTYLE
  2
Standard
  9
$CMLJUST
 70
     0
  9
$CMLSCALE
 40
1.0
  9
$PROXYGRAPHICS
 70
     1
  9
$MEASUREMENT
 70
     0
  9
$CELWEIGHT
370
    -1
  9
$ENDCAPS
280
     0
  9
$JOINSTYLE
280
     0
  9
$LWDISPLAY
290
     1
  9
$INSUNITS
 70
     1
  9
$HYPERLINKBASE
  1

  9
$STYLESHEET
  1

  9
$XEDIT
290
     1
  9
$CEPSNTYPE
380
     0
  9
$PSTYLEMODE
290
     1
  9
$FINGERPRINTGUID
  2
{6EFE8FBB-9CC5-3517-F69D-F61CFB80C044}
  9
$VERSIONGUID
  2
{FAEB1C32-E019-11D5-929B-00C0DF256EC4}
  9
$EXTNAMES
290
     1
  9
$PSVPSCALE
 40
0.0
  9
$OLESTARTUP
290
     0
  0
ENDSEC
  0
SECTION
  2
CLASSES
  0
CLASS
  1
ACDBDICTIONARYWDFLT
  2
AcDbDictionaryWithDefault
  3
ObjectDBX Classes
 90
        0
280
     0
281
     0
  0
CLASS
  1
VISUALSTYLE
  2
AcDbVisualStyle
  3
ObjectDBX Classes
 90
     4095
280
     0
281
     0
  0
CLASS
  1
ACDBPLACEHOLDER
  2
AcDbPlaceHolder
  3
ObjectDBX Classes
 90
        0
280
     0
281
     0
  0
CLASS
  1
LAYOUT
  2
AcDbLayout
  3
ObjectDBX Classes
 90
        0
280
     0
281
     0
  0
ENDSEC
  0
SECTION
  2
TABLES
  0
TABLE
  2
VPORT
  5
8
330
0
100
AcDbSymbolTable
 70
     1
  0
VPORT
  5
29
330
8
100
AcDbSymbolTableRecord
100
AcDbViewportTableRecord
  2
*Active
 70
     0
 10
0.0
 20
0.0
 11
1.0
 21
1.0
 12
0.0
 22
0.0
 13
0.0
 23
0.0
 14
0.5
 24
0.5
 15
0.5
 25
0.5
 16
0.0
 26
0.0
 36
1.0
 17
599.9992077493058
 27
400.0005627797742
 37
0.0
 40
800.0011255595483
 41
1.499995908954867
 42
50.0
 43
0.0
 44
0.0
 50
0.0
 51
0.0
 71
     0
 72
   100
 73
     1
 74
     3
 75
     0
 76
     0
 77
     0
 78
     0
281
     0
 65
     1
110
0.0
120
0.0
130
0.0
111
1.0
121
0.0
131
0.0
112
0.0
122
1.0
132
0.0
 79
     0
146
0.0
  0
ENDTAB
  0
TABLE
  2
LTYPE
  5
5
330
0
100
AcDbSymbolTable
 70
     1
  0
LTYPE
  5
14
330
5
100
AcDbSymbolTableRecord
100
AcDbLinetypeTableRecord
  2
ByBlock
 70
     0
  3

 72
    65
 73
     0
 40
0.0
  0
LTYPE
  5
15
330
5
100
AcDbSymbolTableRecord
100
AcDbLinetypeTableRecord
  2
ByLayer
 70
     0
  3

 72
    65
 73
     0
 40
0.0
  0
LTYPE
  5
16
330
5
100
AcDbSymbolTableRecord
100
AcDbLinetypeTableRecord
  2
Continuous
 70
     0
  3
Solid line
 72
    65
 73
     0
 40
0.0
  0
ENDTAB
  0
TABLE
  2
LAYER
  5
2
330
0
100
AcDbSymbolTable
 70
     2
  0
LAYER
  5
10
330
2
100
AcDbSymbolTableRecord
100
AcDbLayerTableRecord
  2
0
 70
     0
 62
     7
  6
Continuous
370
    -3
390
F
  0
LAYER
  5
3B
330
2
100
AcDbSymbolTableRecord
100
AcDbLayerTableRecord
  2
Layer 1
 70
     0
 62
     7
  6
Continuous
370
    -3
390
F
  0
ENDTAB
  0
TABLE
  2
STYLE
  5
3
330
0
100
AcDbSymbolTable
 70
     1
  0
STYLE
  5
11
330
3
100
AcDbSymbolTableRecord
100
AcDbTextStyleTableRecord
  2
Standard
 70
     0
 40
0.0
 41
1.0
 50
0.0
 71
     0
 42
0.2
  3
txt
  4

  0
ENDTAB
  0
TABLE
  2
VIEW
  5
6
330
0
100
AcDbSymbolTable
 70
     0
  0
ENDTAB
  0
TABLE
  2
UCS
  5
7
330
0
100
AcDbSymbolTable
 70
     0
  0
ENDTAB
  0
TABLE
  2
APPID
  5
9
330
0
100
AcDbSymbolTable
 70
     1
  0
APPID
  5
12
330
9
100
AcDbSymbolTableRecord
100
AcDbRegAppTableRecord
  2
ACAD
 70
     0
  0
ENDTAB
  0
TABLE
  2
DIMSTYLE
  5
A
330
0
100
AcDbSymbolTable
 70
     1
100
AcDbDimStyleTable
  0
DIMSTYLE
105
27
330
A
100
AcDbSymbolTableRecord
100
AcDbDimStyleTableRecord
  2
Standard
 70
     0
340
11
  0
ENDTAB
  0
TABLE
  2
BLOCK_RECORD
  5
1
330
0
100
AcDbSymbolTable
 70
     1
  0
BLOCK_RECORD
  5
1F
330
1
100
AcDbSymbolTableRecord
100
AcDbBlockTableRecord
  2
*Model_Space
340
22
  0
BLOCK_RECORD
  5
1B
330
1
100
AcDbSymbolTableRecord
100
AcDbBlockTableRecord
  2
*Paper_Space
340
1E
  0
BLOCK_RECORD
  5
23
330
1
100
AcDbSymbolTableRecord
100
AcDbBlockTableRecord
  2
*Paper_Space0
340
26
  0
ENDTAB
  0
ENDSEC
  0
SECTION
  2
BLOCKS
  0
BLOCK
  5
20
330
1F
100
AcDbEntity
  8
0
100
AcDbBlockBegin
  2
*Model_Space
 70
     0
 71
     0
 10
0.0
 20
0.0
 30
0.0
  3
*Model_Space
  1

  0
ENDBLK
  5
21
330
1F
100
AcDbEntity
  8
0
100
AcDbBlockEnd
  0
BLOCK
  5
1C
330
1B
100
AcDbEntity
 67
     1
  8
0
100
AcDbBlockBegin
  2
*Paper_Space
 70
     0
 71
     0
 10
0.0
 20
0.0
 30
0.0
  3
*Paper_Space
  1

  0
ENDBLK
  5
1D
330
1B
100
AcDbEntity
 67
     1
  8
0
100
AcDbBlockEnd
  0
BLOCK
  5
24
330
23
100
AcDbEntity
  8
0
100
AcDbBlockBegin
  2
*Paper_Space0
 70
     0
 71
     0
 10
0.0
 20
0.0
 30
0.0
  3
*Paper_Space0
  1

  0
ENDBLK
  5
25
330
23
100
AcDbEntity
  8
0
100
AcDbBlockEnd
  0
ENDSEC
  0
SECTION
  2
ENTITIES
  0
SPLINE
  5
3C
330
1F
100
AcDbEntity
  8
Layer 1
 62
     7
370
    53
100
AcDbSpline
210
0.0
220
0.0
230
1.0
 70
    11
 71
     3
 72
   125
 73
   121
 74
     0
 42
0.0000000001
 43
0.0000000001
 40
0.0
 40
0.0
 40
0.0
 40
0.0
 40
1.0
 40
1.0
 40
1.0
 40
2.0
 40
2.0
 40
2.0
 40
3.0
 40
3.0
 40
3.0
 40
4.0
 40
4.0
 40
4.0
 40
5.0
 40
5.0
 40
5.0
 40
6.0
 40
6.0
 40
6.0
 40
7.0
 40
7.0
 40
7.0
 40
8.0
 40
8.0
 40
8.0
 40
9.0
 40
9.0
 40
9.0
 40
10.0
 40
10.0
 40
10.0
 40
11.0
 40
11.0
 40
11.0
 40
12.0
 40
12.0
 40
12.0
 40
13.0
 40
13.0
 40
13.0
 40
14.0
 40
14.0
 40
14.0
 40
15.0
 40
15.0
 40
15.0
 40
16.0
 40
16.0
 40
16.0
 40
17.0
 40
17.0
 40
17.0
 40
18.0
 40
18.0
 40
18.0
 40
19.0
 40
19.0
 40
19.0
 40
20.0
 40
20.0
 40
20.0
 40
21.0
 40
21.0
 40
21.0
 40
22.0
 40
22.0
 40
22.0
 40
23.0
 40
23.0
 40
23.0
 40
24.0
 40
24.0
 40
24.0
 40
25.0
 40
25.0
 40
25.0
 40
26.0
 40
26.0
 40
26.0
 40
27.0
 40
27.0
 40
27.0
 40
28.0
 40
28.0
 40
28.0
 40
29.0
 40
29.0
 40
29.0
 40
30.0
 40
30.0
 40
30.0
 40
31.0
 40
31.0
 40
31.0
 40
32.0
 40
32.0
 40
32.0
 40
33.0
 40
33.0
 40
33.0
 40
34.0
 40
34.0
 40
34.0
 40
35.0
 40
35.0
 40
35.0
 40
36.0
 40
36.0
 40
36.0
 40
37.0
 40
37.0
 40
37.0
 40
38.0
 40
38.0
 40
38.0
 40
39.0
 40
39.0
 40
39.0
 40
40.0
 40
40.0
 40
40.0
 40
40.0
 10
377.4873805479893
 20
604.0885360902973
 30
0.0
 10
378.7164183623522
 20
604.0885360902973
 30
0.0
 10
379.9459729410378
 20
604.0885360902973
 30
0.0
 10
381.175183010175
 20
604.0885360902973
 30
0.0
 10
381.2130790605127
 20
603.6127684037843
 30
0.0
 10
381.2866318491228
 20
603.1370007172713
 30
0.0
 10
381.2847370466059
 20
602.6615775403069
 30
0.0
 10
381.2542479515615
 20
596.0397595081081
 30
0.0
 10
381.2098062198017
 20
589.4177692211351
 30
0.0
 10
381.1829344750168
 20
582.7959511889364
 30
0.0
 10
381.1806951629514
 20
582.3148436044213
 30
0.0
 10
381.2855983204772
 20
581.8335637651319
 30
0.0
 10
381.3407198482412
 20
581.3522839258425
 30
0.0
 10
381.4885144445585
 20
581.3619301932013
 30
0.0
 10
381.6366535504242
 20
581.3710596962371
 30
0.0
 10
381.7847926562899
 20
581.3807059635958
 30
0.0
 10
381.7847926562899
 20
588.6696667365131
 30
0.0
 10
381.7847926562899
 20
595.958972018979
 30
0.0
 10
381.7847926562899
 20
603.4153644324795
 30
0.0
 10
384.602019489353
 20
602.8834416895569
 30
0.0
 10
387.2480250767991
 20
602.8121282130123
 30
0.0
 10
389.5142088869965
 20
601.2292790923142
 30
0.0
 10
392.7529431526798
 20
598.9670571419249
 30
0.0
 10
394.8596190419101
 20
595.9207314590927
 30
0.0
 10
395.6395886597707
 20
592.0768661714253
 30
0.0
 10
396.1684108167565
 20
589.4684121247683
 30
0.0
 10
396.360991654382
 20
586.7926064613748
 30
0.0
 10
396.7292723617552
 20
584.1505627337367
 30
0.0
 10
397.0293401785204
 20
581.9999618770695
 30
0.0
 10
397.220026213629
 20
579.8934582426135
 30
0.0
 10
398.7084797180312
 20
578.0284558016734
 30
0.0
 10
402.2148979029185
 20
573.6356145484314
 30
0.0
 10
405.165622186035
 20
568.8770764094301
 30
0.0
 10
407.1589544338005
 20
563.5797253365356
 30
0.0
 10
407.8927597721588
 20
561.6294567823358
 30
0.0
 10
408.626565110517
 20
559.678671463813
 30
0.0
 10
409.3601981941009
 20
557.7280584000646
 30
0.0
 10
409.3601981941009
 20
557.5521862755426
 30
0.0
 10
409.3601981941009
 20
557.3768309153434
 30
0.0
 10
409.3601981941009
 20
557.2013033003699
 30
0.0
 10
407.8765678233781
 20
555.4067530621032
 30
0.0
 10
406.392765197881
 20
553.6123750786109
 30
0.0
 10
404.7484211227712
 20
551.6238659645246
 30
0.0
 10
404.5430934318504
 20
552.2310640437998
 30
0.0
 10
404.4350896883878
 20
552.4320853653642
 30
0.0
 10
404.4099404913454
 20
552.642580699513
 30
0.0
 10
403.745553827015
 20
558.1499103422334
 30
0.0
 10
401.7067463188442
 20
563.2336654950423
 30
0.0
 10
399.380273337655
 20
568.1832341787008
 30
0.0
 10
398.3708603604767
 20
570.3309067042055
 30
0.0
 10
396.9731851221109
 20
572.3757431294755
 30
0.0
 10
395.4067002049678
 20
574.1656424888371
 30
0.0
 10
392.4935274626405
 20
577.4948105110083
 30
0.0
 10
387.7537650940338
 20
577.6128050313781
 30
0.0
 10
384.5336343439708
 20
574.616433233082
 30
0.0
 10
383.3188936758717
 20
573.4860974043715
 30
0.0
 10
382.3058633484339
 20
572.1416488912528
 30
0.0
 10
381.120061482411
 20
570.9768621076898
 30
0.0
 10
379.9203069796727
 20
569.7981226874116
 30
0.0
 10
378.7279594322277
 20
569.8053573879306
 30
0.0
 10
377.5354396300085
 20
570.9754840694958
 30
0.0
 10
376.6621079244977
 20
571.8324515714517
 30
0.0
 10
375.9338147389159
 20
572.8356633767564
 30
0.0
 10
375.081498115865
 20
573.7158852732377
 30
0.0
 10
373.5692734526147
 20
575.27789156625
 30
0.0
 10
371.9612751348743
 20
576.6345701683414
 30
0.0
 10
369.588810128957
 20
576.7103622690169
 30
0.0
 10
366.2491345655558
 20
576.8176769933824
 30
0.0
 10
363.75953631314
 20
575.3891681504235
 30
0.0
 10
361.9210611074364
 20
572.7071613151566
 30
0.0
 10
358.4086140054499
 20
567.582926290396
 30
0.0
 10
356.3351832876523
 20
561.8456365240352
 30
0.0
 10
354.8475910571215
 20
555.8697738953208
 30
0.0
 10
354.5278861960903
 20
554.5857868079681
 30
0.0
 10
354.3187689001356
 20
553.2744112115079
 30
0.0
 10
354.0586641909993
 20
551.9756102135686
 30
0.0
 10
353.9368800655956
 20
551.9316852461317
 30
0.0
 10
353.8150959401921
 20
551.8877602786947
 30
0.0
 10
353.6933118147885
 20
551.8440075660321
 30
0.0
 10
352.2296629978801
 20
553.6297728108113
 30
0.0
 10
350.7658419261974
 20
555.4155380555906
 30
0.0
 10
349.3021931092891
 20
557.2013033003699
 30
0.0
 10
349.3021931092891
 20
557.3768309153434
 30
0.0
 10
349.3021931092891
 20
557.5521862755426
 30
0.0
 10
349.3021931092891
 20
557.7280584000646
 30
0.0
 10
349.67684724331
 20
558.7881142808759
 30
0.0
 10
350.0490898104912
 20
559.8488591807843
 30
0.0
 10
350.4265000209003
 20
560.9080537877244
 30
0.0
 10
352.7095647989754
 20
567.3166204093861
 30
0.0
 10
356.0366657638554
 20
573.1412433462981
 30
0.0
 10
360.2107434537841
 20
578.5018119213468
 30
0.0
 10
360.7092487704998
 20
579.1420829172805
 30
0.0
 10
361.242205042068
 20
579.8950085355818
 30
0.0
 10
361.3691568106994
 20
580.6605087524043
 30
0.0
 10
361.8278712745604
 20
583.4215805290578
 30
0.0
 10
362.1579114220473
 20
586.2059067002367
 30
0.0
 10
362.4646971750088
 20
588.9891993427701
 30
0.0
 10
362.8564045316817
 20
592.5416095523855
 30
0.0
 10
363.8653007445371
 20
595.830986721702
 30
0.0
 10
366.2045205790218
 20
598.623925631594
 30
0.0
 10
368.9578408908335
 20
601.9105467245224
 30
0.0
 10
372.5762246789914
 20
603.1535371756005
 30
0.0
 10
376.9613144673916
 20
603.2455212250567
 30
0.0
 10
376.9613144673916
 20
599.5141383049826
 30
0.0
 10
376.9613144673916
 20
595.8787012941727
 30
0.0
 10
376.9613144673916
 20
592.2434365381371
 30
0.0
 10
376.9613144673916
 20
588.6186793233314
 30
0.0
 10
376.9613144673916
 20
584.9939221085259
 30
0.0
 10
376.9613144673916
 20
581.3691648937203
 30
0.0
 10
377.0774141852445
 20
581.3607244097814
 30
0.0
 10
377.1931693935489
 20
581.3519394162939
 30
0.0
 10
377.3092691114019
 20
581.3436711871294
 30
0.0
 10
377.3685247537481
 20
581.8726655988895
 30
0.0
 10
377.4818683952129
 20
582.4020045201981
 30
0.0
 10
377.4791123188247
 20
582.930826677184
 30
0.0
 10
377.4439723448751
 20
589.4661728127029
 30
0.0
 10
377.3888508171111
 20
596.0010021838991
 30
0.0
 10
377.3514715310962
 20
602.5365205741923
 30
0.0
 10
377.3483709451594
 20
603.0536294065283
 30
0.0
 10
377.4398382302928
 20
603.5710827484128
 30
0.0
 10
377.4873805479893
 20
604.0885360902973
 30
0.0
  0
SPLINE
  5
3D
330
1F
100
AcDbEntity
  8
Layer 1
 62
     7
370
    53
100
AcDbSpline
210
0.0
220
0.0
230
1.0
 70
    11
 71
     3
 72
    11
 73
     7
 74
     0
 42
0.0000000001
 43
0.0000000001
 40
0.0
 40
0.0
 40
0.0
 40
0.0
 40
1.0
 40
1.0
 40
1.0
 40
2.0
 40
2.0
 40
2.0
 40
2.0
 10
396.1527356322986
 20
577.0395411426325
 30
0.0
 10
391.7092514754234
 20
581.0169038803534
 30
0.0
 10
385.9922877724256
 20
580.998300364733
 30
0.0
 10
383.0424247631804
 20
577.8930635491032
 30
0.0
 10
387.7594495015845
 20
580.4176295206943
 30
0.0
 10
392.0177597761275
 20
579.541369484021
 30
0.0
 10
396.1527356322986
 20
577.0395411426325
 30
0.0
  0
SPLINE
  5
3E
330
1F
100
AcDbEntity
  8
Layer 1
 62
     7
370
    53
100
AcDbSpline
210
0.0
220
0.0
230
1.0
 70
    11
 71
     3
 72
    11
 73
     7
 74
     0
 42
0.0000000001
 43
0.0000000001
 40
0.0
 40
0.0
 40
0.0
 40
0.0
 40
1.0
 40
1.0
 40
1.0
 40
2.0
 40
2.0
 40
2.0
 40
2.0
 10
362.5273979128404
 20
577.0729585688395
 30
0.0
 10
366.682355322826
 20
579.5790932795844
 30
0.0
 10
370.9458332405969
 20
580.3983369859768
 30
0.0
 10
375.4692436127299
 20
578.0604951896863
 30
0.0
 10
372.1719427237973
 20
581.1755505274492
 30
0.0
 10
366.8391071674048
 20
580.7741969034175
 30
0.0
 10
362.5273979128404
 20
577.0729585688395
 30
0.0
  0
SPLINE
  5
3F
330
1F
100
AcDbEntity
  8
Layer 1
 62
     7
370
    53
100
AcDbSpline
210
0.0
220
0.0
230
1.0
 70
    11
 71
     3
 72
    17
 73
    13
 74
     0
 42
0.0000000001
 43
0.0000000001
 40
0.0
 40
0.0
 40
0.0
 40
0.0
 40
1.0
 40
1.0
 40
1.0
 40
2.0
 40
2.0
 40
2.0
 40
3.0
 40
3.0
 40
3.0
 40
4.0
 40
4.0
 40
4.0
 40
4.0
 10
379.0676458470734
 20
545.8745183639654
 30
0.0
 10
376.7840643046756
 20
547.1304279231133
 30
0.0
 10
374.5004827622777
 20
548.3858207179383
 30
0.0
 10
371.989352663079
 20
549.766959497975
 30
0.0
 10
376.8998195129799
 20
549.766959497975
 30
0.0
 10
381.5780869271749
 20
549.766959497975
 30
0.0
 10
386.4274033322126
 20
549.766959497975
 30
0.0
 10
384.0644123388797
 20
548.4207884371136
 30
0.0
 10
381.8295788975982
 20
547.1478256553138
 30
0.0
 10
379.5947454563166
 20
545.8745183639654
 30
0.0
 10
379.4192178413431
 20
545.8745183639654
 30
0.0
 10
379.2433457168211
 20
545.8745183639654
 30
0.0
 10
379.0676458470734
 20
545.8745183639654
 30
0.0
  0
SPLINE
  5
40
330
1F
100
AcDbEntity
  8
Layer 1
 62
     7
370
    25
100
AcDbSpline
210
0.0
220
0.0
230
1.0
 70
    11
 71
     3
 72
   131
 73
   127
 74
     0
 42
0.0000000001
 43
0.0000000001
 40
0.0
 40
0.0
 40
0.0
 40
0.0
 40
1.0
 40
1.0
 40
1.0
 40
2.0
 40
2.0
 40
2.0
 40
3.0
 40
3.0
 40
3.0
 40
4.0
 40
4.0
 40
4.0
 40
5.0
 40
5.0
 40
5.0
 40
6.0
 40
6.0
 40
6.0
 40
7.0
 40
7.0
 40
7.0
 40
8.0
 40
8.0
 40
8.0
 40
9.0
 40
9.0
 40
9.0
 40
10.0
 40
10.0
 40
10.0
 40
11.0
 40
11.0
 40
11.0
 40
12.0
 40
12.0
 40
12.0
 40
13.0
 40
13.0
 40
13.0
 40
14.0
 40
14.0
 40
14.0
 40
15.0
 40
15.0
 40
15.0
 40
16.0
 40
16.0
 40
16.0
 40
17.0
 40
17.0
 40
17.0
 40
18.0
 40
18.0
 40
18.0
 40
19.0
 40
19.0
 40
19.0
 40
20.0
 40
20.0
 40
20.0
 40
21.0
 40
21.0
 40
21.0
 40
22.0
 40
22.0
 40
22.0
 40
23.0
 40
23.0
 40
23.0
 40
24.0
 40
24.0
 40
24.0
 40
25.0
 40
25.0
 40
25.0
 40
26.0
 40
26.0
 40
26.0
 40
27.0
 40
27.0
 40
27.0
 40
28.0
 40
28.0
 40
28.0
 40
29.0
 40
29.0
 40
29.0
 40
30.0
 40
30.0
 40
30.0
 40
31.0
 40
31.0
 40
31.0
 40
32.0
 40
32.0
 40
32.0
 40
33.0
 40
33.0
 40
33.0
 40
34.0
 40
34.0
 40
34.0
 40
35.0
 40
35.0
 40
35.0
 40
36.0
 40
36.0
 40
36.0
 40
37.0
 40
37.0
 40
37.0
 40
38.0
 40
38.0
 40
38.0
 40
39.0
 40
39.0
 40
39.0
 40
40.0
 40
40.0
 40
40.0
 40
41.0
 40
41.0
 40
41.0
 40
42.0
 40
42.0
 40
42.0
 40
42.0
 10
355.1107963521945
 20
554.1415417451452
 30
0.0
 10
355.9393418163971
 20
556.7885808612369
 30
0.0
 10
356.7089761478019
 20
559.6061522038485
 30
0.0
 10
357.7054700169105
 20
562.3413857643626
 30
0.0
 10
359.0216687470502
 20
565.9540851449698
 30
0.0
 10
360.3433796299663
 20
569.5817706909379
 30
0.0
 10
362.8286715130255
 20
572.6303356858355
 30
0.0
 10
364.5865314843742
 20
574.7867932048276
 30
0.0
 10
366.5033826123672
 20
576.0215154267412
 30
0.0
 10
368.4223007976514
 20
576.1088485972923
 30
0.0
 10
367.7542967830614
 20
575.1004691487597
 30
0.0
 10
367.0732014056276
 20
574.0938122479696
 30
0.0
 10
366.4162216965904
 20
573.071652417496
 30
0.0
 10
366.003843767006
 20
572.4308646572396
 30
0.0
 10
366.1164983893736
 20
571.9023870098022
 30
0.0
 10
366.8480644156665
 20
571.5838879321908
 30
0.0
 10
369.7596868650254
 20
570.3162650483932
 30
0.0
 10
372.695424982781
 20
569.1733546211616
 30
0.0
 10
376.0478473994776
 20
569.9252467108173
 30
0.0
 10
375.9835963686778
 20
570.4540688678031
 30
0.0
 10
375.9184840640065
 20
570.9925372921477
 30
0.0
 10
375.8697359628902
 20
571.3945799352764
 30
0.0
 10
377.0069619825712
 20
570.8350964284718
 30
0.0
 10
378.1533175052881
 20
569.8387748141375
 30
0.0
 10
379.3131089003974
 20
569.8230996296796
 30
0.0
 10
380.4460285507218
 20
569.8077689547703
 30
0.0
 10
381.5929008377615
 20
570.793238518326
 30
0.0
 10
382.7680229077802
 20
571.3558226110673
 30
0.0
 10
382.7297823478939
 20
571.0586831254645
 30
0.0
 10
382.6629474954801
 20
570.5393349810631
 30
0.0
 10
382.5852605922877
 20
569.9362710163701
 30
0.0
 10
384.3910073908814
 20
569.5342283732415
 30
0.0
 10
386.1969264442494
 20
569.5859048055203
 30
0.0
 10
387.967188759345
 20
570.1450438027763
 30
0.0
 10
389.2165526370709
 20
570.5400240001602
 30
0.0
 10
390.4328435981383
 20
571.0409408837155
 30
0.0
 10
391.6580918074674
 20
571.5094738697095
 30
0.0
 10
392.5007621631595
 20
571.8319348071288
 30
0.0
 10
392.6993719178842
 20
572.3960691928385
 30
0.0
 10
392.1969047413605
 20
573.1595023523698
 30
0.0
 10
391.5519828665218
 20
574.1389429988265
 30
0.0
 10
390.8915580619994
 20
575.10856512315
 30
0.0
 10
390.1603365452551
 20
576.1968707869404
 30
0.0
 10
391.8651420461309
 20
576.0070460257032
 30
0.0
 10
393.3146659715498
 20
575.3459322020836
 30
0.0
 10
394.3321749231184
 20
574.1559962214784
 30
0.0
 10
395.7739473836954
 20
572.4708277648684
 30
0.0
 10
397.3707491411087
 20
570.7525863916001
 30
0.0
 10
398.2168645922861
 20
568.7578761056404
 30
0.0
 10
400.1232081790491
 20
564.263060026035
 30
0.0
 10
401.6137287407424
 20
559.5916828028104
 30
0.0
 10
403.2563502681095
 20
554.9861069033542
 30
0.0
 10
403.3700384191228
 20
554.6679523352914
 30
0.0
 10
403.3443724577577
 20
554.3000161374667
 30
0.0
 10
403.3845078201608
 20
553.945171302486
 30
0.0
 10
401.3744668592918
 20
554.4605575870793
 30
0.0
 10
399.4217867382522
 20
554.9693981902508
 30
0.0
 10
397.4635944644362
 20
555.4561901823165
 30
0.0
 10
397.0841171967359
 20
555.5504135438381
 30
0.0
 10
396.6844861204469
 20
555.5827974413995
 30
0.0
 10
396.292089744677
 20
555.6014009570198
 30
0.0
 10
392.3335027773506
 20
555.7886418966432
 30
0.0
 10
392.3109374019223
 20
555.7932927755483
 30
0.0
 10
391.1358153319036
 20
552.0047212704189
 30
0.0
 10
390.859174164438
 20
551.1124415397393
 30
0.0
 10
390.5246553928203
 20
550.7259018262943
 30
0.0
 10
389.5710529625031
 20
551.1720416916341
 30
0.0
 10
389.2396347768221
 20
551.3270709884704
 30
0.0
 10
388.7952174592248
 20
551.240943601339
 30
0.0
 10
388.3652695426657
 20
551.4783106802728
 30
0.0
 10
388.8691147573834
 20
551.5790797232164
 30
0.0
 10
389.372787717327
 20
551.6803655304827
 30
0.0
 10
390.0287338977186
 20
551.8116236684707
 30
0.0
 10
390.9043049152948
 20
554.8126463456719
 30
0.0
 10
391.8182887475315
 20
557.944238141764
 30
0.0
 10
392.7322725797683
 20
561.0761744474046
 30
0.0
 10
392.6649209630317
 20
561.1035629565123
 30
0.0
 10
392.5975693462951
 20
561.1309514656201
 30
0.0
 10
392.5302177295584
 20
561.1583399747278
 30
0.0
 10
391.3638806530271
 20
558.3070066963608
 30
0.0
 10
390.1973713217215
 20
555.455845672768
 30
0.0
 10
389.01122494615
 20
552.5552475289619
 30
0.0
 10
386.4082830522695
 20
555.1368298308339
 30
0.0
 10
383.8520222022141
 20
557.6586397260368
 30
0.0
 10
381.3238388803635
 20
560.2078381303473
 30
0.0
 10
381.120061482411
 20
560.413682585591
 30
0.0
 10
381.0415133053473
 20
560.8067679804581
 30
0.0
 10
381.0217040063071
 20
561.1204439243901
 30
0.0
 10
380.9374714216927
 20
562.4679930234455
 30
0.0
 10
380.3571450872024
 20
563.1976642472215
 30
0.0
 10
379.2860649008382
 20
563.1253172420312
 30
0.0
 10
378.0978514679755
 20
563.0453910267734
 30
0.0
 10
377.6448214116652
 20
562.2916041346008
 30
0.0
 10
377.6148490809435
 20
561.170914573249
 30
0.0
 10
377.6064085970046
 20
560.8555160815744
 30
0.0
 10
377.5555934385972
 20
560.4460664831524
 30
0.0
 10
377.3568114290983
 20
560.2455619259108
 30
0.0
 10
374.8270778142793
 20
557.6937796999863
 30
0.0
 10
372.2666828496417
 20
555.172314314332
 30
0.0
 10
369.6370414657505
 20
552.5673053631602
 30
0.0
 10
368.4546846952127
 20
555.4634248828355
 30
0.0
 10
367.2878308543586
 20
558.3226818808187
 30
0.0
 10
366.1204602491817
 20
561.1822833883502
 30
0.0
 10
366.0531086324451
 20
561.1595457581476
 30
0.0
 10
365.9857570157084
 20
561.1369803827192
 30
0.0
 10
365.9184053989718
 20
561.1144150072909
 30
0.0
 10
366.8196423779132
 20
558.0062498604984
 30
0.0
 10
367.7208793568545
 20
554.8980847137061
 30
0.0
 10
368.6159151639224
 20
551.8112791589222
 30
0.0
 10
369.2079548230626
 20
551.6958684601664
 30
0.0
 10
369.7552082408945
 20
551.5890705001236
 30
0.0
 10
370.3019448944037
 20
551.4822725400809
 30
0.0
 10
370.2854084360745
 20
551.3842595735255
 30
0.0
 10
370.2688719777453
 20
551.2859020974216
 30
0.0
 10
370.2523355194161
 20
551.1880613856405
 30
0.0
 10
369.9915417911827
 20
551.2345701746914
 30
0.0
 10
369.6615016436958
 20
551.4073417132767
 30
0.0
 10
369.4809786402687
 20
551.30846747285
 30
0.0
 10
367.8161362470217
 20
550.3946558953875
 30
0.0
 10
367.6412976511452
 20
551.6314451745922
 30
0.0
 10
367.3033337840423
 20
552.7373208253574
 30
0.0
 10
366.4194945373014
 20
555.6315455425157
 30
0.0
 10
366.3910724995481
 20
555.8112072720716
 30
0.0
 10
363.4420707641742
 20
555.5674667664902
 30
0.0
 10
360.7307806172826
 20
555.3435355599489
 30
0.0
 10
358.057558775503
 20
554.6653685136774
 30
0.0
 10
355.1107963521945
 20
554.1415417451452
 30
0.0
  0
SPLINE
  5
41
330
1F
100
AcDbEntity
  8
Layer 1
 62
     7
370
    25
100
AcDbSpline
210
0.0
220
0.0
230
1.0
 70
    11
 71
     3
 72
    23
 73
    19
 74
     0
 42
0.0000000001
 43
0.0000000001
 40
0.0
 40
0.0
 40
0.0
 40
0.0
 40
1.0
 40
1.0
 40
1.0
 40
2.0
 40
2.0
 40
2.0
 40
3.0
 40
3.0
 40
3.0
 40
4.0
 40
4.0
 40
4.0
 40
5.0
 40
5.0
 40
5.0
 40
6.0
 40
6.0
 40
6.0
 40
6.0
 10
388.3652695426657
 20
556.3166027797577
 30
0.0
 10
388.0252386182715
 20
559.5331161795611
 30
0.0
 10
387.6461058601197
 20
562.7484237959449
 30
0.0
 10
384.0556273453923
 20
564.3088797959888
 30
0.0
 10
385.5075628376509
 20
564.4396211696541
 30
0.0
 10
386.9686278329453
 20
564.6048134981718
 30
0.0
 10
388.3762938482184
 20
564.4006915906707
 30
0.0
 10
390.4578205404064
 20
564.0992457357113
 30
0.0
 10
390.5353351888245
 20
564.0260374566498
 30
0.0
 10
391.7435301755016
 20
565.9299694765731
 30
0.0
 10
390.6838188042388
 20
564.6232447590178
 30
0.0
 10
389.4298040476078
 20
564.9343368813359
 30
0.0
 10
388.0565889871872
 20
565.2140786347381
 30
0.0
 10
386.1511066742956
 20
565.6026854054744
 30
0.0
 10
384.2549261192141
 20
565.3949461477138
 30
0.0
 10
382.1577242425682
 20
564.1102700412641
 30
0.0
 10
386.5400579545803
 20
563.0987900067947
 30
0.0
 10
387.4960719517371
 20
559.7596312077163
 30
0.0
 10
388.3652695426657
 20
556.3166027797577
 30
0.0
  0
SPLINE
  5
42
330
1F
100
AcDbEntity
  8
Layer 1
 62
     7
370
    25
100
AcDbSpline
210
0.0
220
0.0
230
1.0
 70
    11
 71
     3
 72
    29
 73
    25
 74
     0
 42
0.0000000001
 43
0.0000000001
 40
0.0
 40
0.0
 40
0.0
 40
0.0
 40
1.0
 40
1.0
 40
1.0
 40
2.0
 40
2.0
 40
2.0
 40
3.0
 40
3.0
 40
3.0
 40
4.0
 40
4.0
 40
4.0
 40
5.0
 40
5.0
 40
5.0
 40
6.0
 40
6.0
 40
6.0
 40
7.0
 40
7.0
 40
7.0
 40
8.0
 40
8.0
 40
8.0
 40
8.0
 10
370.2685274681968
 20
556.2881807420043
 30
0.0
 10
371.171659249655
 20
559.7046819347266
 30
0.0
 10
372.0813367125352
 20
563.1108478409932
 30
0.0
 10
376.4535073928658
 20
564.094422602032
 30
0.0
 10
374.6146876776137
 20
565.3165702254244
 30
0.0
 10
372.9360649024257
 20
565.450239930252
 30
0.0
 10
371.2266085226448
 20
565.3194985565868
 30
0.0
 10
370.4495672359466
 20
565.2597261499177
 30
0.0
 10
369.6690808537633
 20
564.8278834308417
 30
0.0
 10
368.9232176812067
 20
564.9009194551289
 30
0.0
 10
368.1973360624646
 20
564.9715439125766
 30
0.0
 10
367.5136568634167
 20
565.4715995222606
 30
0.0
 10
366.8165417919764
 20
565.7811413516102
 30
0.0
 10
367.7039983889768
 20
564.3104300889571
 30
0.0
 10
368.843980485046
 20
563.9688488715947
 30
0.0
 10
370.5482692215991
 20
564.4482339083671
 30
0.0
 10
371.7998724113903
 20
564.7999781574111
 30
0.0
 10
373.230276056866
 20
564.5171358180721
 30
0.0
 10
374.580753487084
 20
564.5171358180721
 30
0.0
 10
374.5876436780545
 20
564.401552864542
 30
0.0
 10
374.594533869025
 20
564.2859699110119
 30
0.0
 10
374.6014240599955
 20
564.170559212256
 30
0.0
 10
370.9978541824242
 20
562.7411890954259
 30
0.0
 10
370.6347411182788
 20
559.5203693262657
 30
0.0
 10
370.2685274681968
 20
556.2881807420043
 30
0.0
  0
SPLINE
  5
43
330
1F
100
AcDbEntity
  8
Layer 1
 62
     7
370
    25
100
AcDbSpline
210
0.0
220
0.0
230
1.0
 70
    11
 71
     3
 72
    11
 73
     7
 74
     0
 42
0.0000000001
 43
0.0000000001
 40
0.0
 40
0.0
 40
0.0
 40
0.0
 40
1.0
 40
1.0
 40
1.0
 40
2.0
 40
2.0
 40
2.0
 40
2.0
 10
375.836146281909
 20
568.2292262034289
 30
0.0
 10
372.3493651412876
 20
567.5500256285118
 30
0.0
 10
369.0761799207518
 20
567.2267034172211
 30
0.0
 10
366.4045083719406
 20
570.0275660467292
 30
0.0
 10
368.7633652506911
 20
566.7586871955499
 30
0.0
 10
372.5062892406408
 20
566.0379732200357
 30
0.0
 10
375.836146281909
 20
568.2292262034289
 30
0.0
  0
SPLINE
  5
44
330
1F
100
AcDbEntity
  8
Layer 1
 62
     7
370
    25
100
AcDbSpline
210
0.0
220
0.0
230
1.0
 70
    11
 71
     3
 72
    14
 73
    10
 74
     0
 42
0.0000000001
 43
0.0000000001
 40
0.0
 40
0.0
 40
0.0
 40
0.0
 40
1.0
 40
1.0
 40
1.0
 40
2.0
 40
2.0
 40
2.0
 40
3.0
 40
3.0
 40
3.0
 40
3.0
 10
392.1889810217444
 20
570.0099960597545
 30
0.0
 10
390.9272148002717
 20
568.8279837987652
 30
0.0
 10
389.5682968861149
 20
567.9028034062014
 30
0.0
 10
387.8023409403758
 20
567.8575004005704
 30
0.0
 10
386.2150131955469
 20
567.8170205286187
 30
0.0
 10
384.626307412524
 20
567.848715407083
 30
0.0
 10
383.3903794071906
 20
567.848715407083
 30
0.0
 10
386.4835583886222
 20
566.0617443788839
 30
0.0
 10
390.1808348633923
 20
566.8287948886748
 30
0.0
 10
392.1889810217444
 20
570.0099960597545
 30
0.0
  0
SPLINE
  5
45
330
1F
100
AcDbEntity
  8
Layer 1
 62
     7
370
    25
100
AcDbSpline
210
0.0
220
0.0
230
1.0
 70
    11
 71
     3
 72
    11
 73
     7
 74
     0
 42
0.0000000001
 43
0.0000000001
 40
0.0
 40
0.0
 40
0.0
 40
0.0
 40
1.0
 40
1.0
 40
1.0
 40
2.0
 40
2.0
 40
2.0
 40
2.0
 10
377.5583495149854
 20
567.9646428701617
 30
0.0
 10
378.7114229738986
 20
567.9646428701617
 30
0.0
 10
380.0114297552576
 20
567.9646428701617
 30
0.0
 10
381.1837957488881
 20
567.9646428701617
 30
0.0
 10
379.8638074137146
 20
569.113926724041
 30
0.0
 10
378.8445759144034
 20
569.1085868260388
 30
0.0
 10
377.5583495149854
 20
567.9646428701617
 30
0.0
  0
SPLINE
  5
46
330
1F
100
AcDbEntity
  8
Layer 1
 62
     7
370
    53
100
AcDbSpline
210
0.0
220
0.0
230
1.0
 70
    11
 71
     3
 72
    23
 73
    19
 74
     0
 42
0.0000000001
 43
0.0000000001
 40
0.0
 40
0.0
 40
0.0
 40
0.0
 40
1.0
 40
1.0
 40
1.0
 40
2.0
 40
2.0
 40
2.0
 40
3.0
 40
3.0
 40
3.0
 40
4.0
 40
4.0
 40
4.0
 40
5.0
 40
5.0
 40
5.0
 40
6.0
 40
6.0
 40
6.0
 40
6.0
 10
387.3334634448333
 20
550.9617186122596
 30
0.0
 10
387.0166869149646
 20
550.8115124491027
 30
0.0
 10
386.7007716589672
 20
550.5317706957004
 30
0.0
 10
386.3831338552271
 20
550.5298758931835
 30
0.0
 10
381.6108153342848
 20
550.5017983649788
 30
0.0
 10
376.8379800490197
 20
550.5009370911074
 30
0.0
 10
372.0653170185288
 20
550.5307371670549
 30
0.0
 10
371.7313150112338
 20
550.532804224346
 30
0.0
 10
371.3992078064558
 20
550.8275321431091
 30
0.0
 10
371.0662393278064
 20
550.9863510449792
 30
0.0
 10
371.1160209575683
 20
551.1102022276739
 30
0.0
 10
371.1652858230073
 20
551.2343979199171
 30
0.0
 10
371.2150674527692
 20
551.3579045930634
 30
0.0
 10
376.5336058628978
 20
551.3579045930634
 30
0.0
 10
381.8521442730266
 20
551.3579045930634
 30
0.0
 10
387.1708549379295
 20
551.3579045930634
 30
0.0
 10
387.2247706822737
 20
551.2259574359782
 30
0.0
 10
387.2790309361664
 20
551.0940102788932
 30
0.0
 10
387.3334634448333
 20
550.9617186122596
 30
0.0
  0
SPLINE
  5
47
330
1F
100
AcDbEntity
  8
Layer 1
 62
     7
370
    53
100
AcDbSpline
210
0.0
220
0.0
230
1.0
 70
    11
 71
     3
 72
    17
 73
    13
 74
     0
 42
0.0000000001
 43
0.0000000001
 40
0.0
 40
0.0
 40
0.0
 40
0.0
 40
1.0
 40
1.0
 40
1.0
 40
2.0
 40
2.0
 40
2.0
 40
3.0
 40
3.0
 40
3.0
 40
4.0
 40
4.0
 40
4.0
 40
4.0
 10
380.0767143147031
 20
552.235714922705
 30
0.0
 10
379.5187811008669
 20
552.235714922705
 30
0.0
 10
379.0566215415206
 20
552.235714922705
 30
0.0
 10
378.5219427222098
 20
552.235714922705
 30
0.0
 10
378.5219427222098
 20
554.5487520315017
 30
0.0
 10
378.5219427222098
 20
556.795815561756
 30
0.0
 10
378.5219427222098
 20
559.106441103713
 30
0.0
 10
379.0559325224235
 20
559.106441103713
 30
0.0
 10
379.5225707059006
 20
559.106441103713
 30
0.0
 10
380.0767143147031
 20
559.106441103713
 30
0.0
 10
380.0767143147031
 20
556.8421520960326
 30
0.0
 10
380.0767143147031
 20
554.5956053301011
 30
0.0
 10
380.0767143147031
 20
552.235714922705
 30
0.0
  0
SPLINE
  5
48
330
1F
100
AcDbEntity
  8
Layer 1
 62
     7
370
    53
100
AcDbSpline
210
0.0
220
0.0
230
1.0
 70
    11
 71
     3
 72
    17
 73
    13
 74
     0
 42
0.0000000001
 43
0.0000000001
 40
0.0
 40
0.0
 40
0.0
 40
0.0
 40
1.0
 40
1.0
 40
1.0
 40
2.0
 40
2.0
 40
2.0
 40
3.0
 40
3.0
 40
3.0
 40
4.0
 40
4.0
 40
4.0
 40
4.0
 10
377.1576849100509
 20
552.2176281714075
 30
0.0
 10
376.7091334778713
 20
552.2176281714075
 30
0.0
 10
376.370308336897
 20
552.2176281714075
 30
0.0
 10
375.8736978226983
 20
552.2176281714075
 30
0.0
 10
375.8736978226983
 20
553.7252019557527
 30
0.0
 10
375.7789576968539
 20
555.199875078214
 30
0.0
 10
375.9203788665234
 20
556.6518105704724
 30
0.0
 10
375.9770506872558
 20
557.2338594527055
 30
0.0
 10
376.5530706523895
 20
557.7654376860795
 30
0.0
 10
377.1576849100509
 20
558.2019312840606
 30
0.0
 10
377.1576849100509
 20
556.2409829338565
 30
0.0
 10
377.1576849100509
 20
554.2800345836522
 30
0.0
 10
377.1576849100509
 20
552.2176281714075
 30
0.0
  0
SPLINE
  5
49
330
1F
100
AcDbEntity
  8
Layer 1
 62
     7
370
    53
100
AcDbSpline
210
0.0
220
0.0
230
1.0
 70
    11
 71
     3
 72
    14
 73
    10
 74
     0
 42
0.0000000001
 43
0.0000000001
 40
0.0
 40
0.0
 40
0.0
 40
0.0
 40
1.0
 40
1.0
 40
1.0
 40
2.0
 40
2.0
 40
2.0
 40
3.0
 40
3.0
 40
3.0
 40
3.0
 10
381.4971271832716
 20
558.3678126316754
 30
0.0
 10
383.7621052100491
 20
556.545873884301
 30
0.0
 10
382.3286009786366
 20
554.2696992971964
 30
0.0
 10
382.8882567402155
 20
552.2395045277387
 30
0.0
 10
382.3179211826323
 20
552.2143553306964
 30
0.0
 10
381.9505017491305
 20
552.1981633819157
 30
0.0
 10
381.4971271832716
 20
552.178009573327
 30
0.0
 10
381.4971271832716
 20
554.1997638588459
 30
0.0
 10
381.4971271832716
 20
556.1471040818834
 30
0.0
 10
381.4971271832716
 20
558.3678126316754
 30
0.0
  0
SPLINE
  5
4A
330
1F
100
AcDbEntity
  8
Layer 1
 62
     7
370
    53
100
AcDbSpline
210
0.0
220
0.0
230
1.0
 70
    11
 71
     3
 72
    14
 73
    10
 74
     0
 42
0.0000000001
 43
0.0000000001
 40
0.0
 40
0.0
 40
0.0
 40
0.0
 40
1.0
 40
1.0
 40
1.0
 40
2.0
 40
2.0
 40
2.0
 40
3.0
 40
3.0
 40
3.0
 40
3.0
 10
374.4884249280793
 20
555.9007797546881
 30
0.0
 10
374.4884249280793
 20
554.6247163869515
 30
0.0
 10
374.4884249280793
 20
553.462168915454
 30
0.0
 10
374.4884249280793
 20
552.236403941802
 30
0.0
 10
374.053137113518
 20
552.236403941802
 30
0.0
 10
373.6767604317544
 20
552.236403941802
 30
0.0
 10
373.2218355729272
 20
552.236403941802
 30
0.0
 10
372.9801621246369
 20
553.6368352565561
 30
0.0
 10
372.8032564714694
 20
554.9864514129027
 30
0.0
 10
374.4884249280793
 20
555.9007797546881
 30
0.0
  0
SPLINE
  5
4B
330
1F
100
AcDbEntity
  8
Layer 1
 62
     7
370
    53
100
AcDbSpline
210
0.0
220
0.0
230
1.0
 70
    11
 71
     3
 72
    14
 73
    10
 74
     0
 42
0.0000000001
 43
0.0000000001
 40
0.0
 40
0.0
 40
0.0
 40
0.0
 40
1.0
 40
1.0
 40
1.0
 40
2.0
 40
2.0
 40
2.0
 40
3.0
 40
3.0
 40
3.0
 40
3.0
 10
385.4069660494816
 20
552.2400212920616
 30
0.0
 10
385.0099187948065
 20
552.2400212920616
 30
0.0
 10
384.602019489353
 20
552.2400212920616
 30
0.0
 10
384.1426160063949
 20
552.2400212920616
 30
0.0
 10
384.1426160063949
 20
553.4526949028694
 30
0.0
 10
384.1426160063949
 20
554.6166204125611
 30
0.0
 10
384.1426160063949
 20
555.7740002408308
 30
0.0
 10
385.5795653332926
 20
555.1075465192092
 30
0.0
 10
385.7788641071143
 20
554.5714896617044
 30
0.0
 10
385.4069660494816
 20
552.2400212920616
 30
0.0
  0
SPLINE
  5
4C
330
1F
100
AcDbEntity
  8
Layer 1
 62
     7
370
     9
100
AcDbSpline
210
0.0
220
0.0
230
1.0
 70
    11
 71
     3
 72
    71
 73
    67
 74
     0
 42
0.0000000001
 43
0.0000000001
 40
0.0
 40
0.0
 40
0.0
 40
0.0
 40
1.0
 40
1.0
 40
1.0
 40
2.0
 40
2.0
 40
2.0
 40
3.0
 40
3.0
 40
3.0
 40
4.0
 40
4.0
 40
4.0
 40
5.0
 40
5.0
 40
5.0
 40
6.0
 40
6.0
 40
6.0
 40
7.0
 40
7.0
 40
7.0
 40
8.0
 40
8.0
 40
8.0
 40
9.0
 40
9.0
 40
9.0
 40
10.0
 40
10.0
 40
10.0
 40
11.0
 40
11.0
 40
11.0
 40
12.0
 40
12.0
 40
12.0
 40
13.0
 40
13.0
 40
13.0
 40
14.0
 40
14.0
 40
14.0
 40
15.0
 40
15.0
 40
15.0
 40
16.0
 40
16.0
 40
16.0
 40
17.0
 40
17.0
 40
17.0
 40
18.0
 40
18.0
 40
18.0
 40
19.0
 40
19.0
 40
19.0
 40
20.0
 40
20.0
 40
20.0
 40
21.0
 40
21.0
 40
21.0
 40
22.0
 40
22.0
 40
22.0
 40
22.0
 10
349.9545219394211
 20
541.3752236602292
 30
0.0
 10
349.9324733283155
 20
541.7884628636848
 30
0.0
 10
349.9061183478534
 20
542.2852456326578
 30
0.0
 10
349.9105969719841
 20
542.6542153591281
 30
0.0
 10
349.9105969719841
 20
542.6542153591281
 30
0.0
 10
349.897333354366
 20
542.6542153591281
 30
0.0
 10
349.897333354366
 20
542.6542153591281
 30
0.0
 10
349.7962198018739
 20
542.3071219889893
 30
0.0
 10
349.6730576382762
 20
541.9378077529705
 30
0.0
 10
349.5237127489906
 20
541.5290471736455
 30
0.0
 10
349.5237127489906
 20
541.5290471736455
 30
0.0
 10
349.0005749995555
 20
540.0917533371993
 30
0.0
 10
349.0005749995555
 20
540.0917533371993
 30
0.0
 10
349.0005749995555
 20
540.0917533371993
 30
0.0
 10
348.7104979596974
 20
540.0917533371993
 30
0.0
 10
348.7104979596974
 20
540.0917533371993
 30
0.0
 10
348.7104979596974
 20
540.0917533371993
 30
0.0
 10
348.2314574324734
 20
541.5028644479577
 30
0.0
 10
348.2314574324734
 20
541.5028644479577
 30
0.0
 10
348.0908975366752
 20
541.9202377659957
 30
0.0
 10
347.9722139972084
 20
542.3026433648583
 30
0.0
 10
347.888670431691
 20
542.6542153591281
 30
0.0
 10
347.888670431691
 20
542.6542153591281
 30
0.0
 10
347.8798854382036
 20
542.6542153591281
 30
0.0
 10
347.8798854382036
 20
542.6542153591281
 30
0.0
 10
347.8711004447163
 20
542.2852456326578
 30
0.0
 10
347.8490518336106
 20
541.7884628636848
 30
0.0
 10
347.8226968531485
 20
541.3445623104104
 30
0.0
 10
347.8226968531485
 20
541.3445623104104
 30
0.0
 10
347.7434596569877
 20
540.0741833502245
 30
0.0
 10
347.7434596569877
 20
540.0741833502245
 30
0.0
 10
347.7434596569877
 20
540.0741833502245
 30
0.0
 10
347.3787962998741
 20
540.0741833502245
 30
0.0
 10
347.3787962998741
 20
540.0741833502245
 30
0.0
 10
347.3787962998741
 20
540.0741833502245
 30
0.0
 10
347.5853297742148
 20
543.0367932127651
 30
0.0
 10
347.5853297742148
 20
543.0367932127651
 30
0.0
 10
347.5853297742148
 20
543.0367932127651
 30
0.0
 10
348.0733275497004
 20
543.0367932127651
 30
0.0
 10
348.0733275497004
 20
543.0367932127651
 30
0.0
 10
348.0733275497004
 20
543.0367932127651
 30
0.0
 10
348.5787230573866
 20
541.6038057456755
 30
0.0
 10
348.5787230573866
 20
541.6038057456755
 30
0.0
 10
348.7018852209843
 20
541.2389701337875
 30
0.0
 10
348.8028265187021
 20
540.9137531199799
 30
0.0
 10
348.877585090732
 20
540.6061060931471
 30
0.0
 10
348.877585090732
 20
540.6061060931471
 30
0.0
 10
348.890676453576
 20
540.6061060931471
 30
0.0
 10
348.890676453576
 20
540.6061060931471
 30
0.0
 10
348.9656072803801
 20
540.9047958717183
 30
0.0
 10
349.0710272022288
 20
541.2301851403001
 30
0.0
 10
349.2028021045396
 20
541.6038057456755
 30
0.0
 10
349.2028021045396
 20
541.6038057456755
 30
0.0
 10
349.7304184781056
 20
543.0367932127651
 30
0.0
 10
349.7304184781056
 20
543.0367932127651
 30
0.0
 10
349.7304184781056
 20
543.0367932127651
 30
0.0
 10
350.218243998817
 20
543.0367932127651
 30
0.0
 10
350.218243998817
 20
543.0367932127651
 30
0.0
 10
350.218243998817
 20
543.0367932127651
 30
0.0
 10
350.4029011168264
 20
540.0741833502245
 30
0.0
 10
350.4029011168264
 20
540.0741833502245
 30
0.0
 10
350.4029011168264
 20
540.0741833502245
 30
0.0
 10
350.029280511451
 20
540.0741833502245
 30
0.0
 10
350.029280511451
 20
540.0741833502245
 30
0.0
 10
350.029280511451
 20
540.0741833502245
 30
0.0
 10
349.9545219394211
 20
541.3752236602292
 30
0.0
 10
349.9545219394211
 20
541.3752236602292
 30
0.0
  0
SPLINE
  5
4D
330
1F
100
AcDbEntity
  8
Layer 1
 62
     7
370
     9
100
AcDbSpline
210
0.0
220
0.0
230
1.0
 70
    11
 71
     3
 72
    47
 73
    43
 74
     0
 42
0.0000000001
 43
0.0000000001
 40
0.0
 40
0.0
 40
0.0
 40
0.0
 40
1.0
 40
1.0
 40
1.0
 40
2.0
 40
2.0
 40
2.0
 40
3.0
 40
3.0
 40
3.0
 40
4.0
 40
4.0
 40
4.0
 40
5.0
 40
5.0
 40
5.0
 40
6.0
 40
6.0
 40
6.0
 40
7.0
 40
7.0
 40
7.0
 40
8.0
 40
8.0
 40
8.0
 40
9.0
 40
9.0
 40
9.0
 40
10.0
 40
10.0
 40
10.0
 40
11.0
 40
11.0
 40
11.0
 40
12.0
 40
12.0
 40
12.0
 40
13.0
 40
13.0
 40
13.0
 40
14.0
 40
14.0
 40
14.0
 40
14.0
 10
352.1848767565718
 20
540.0741833502245
 30
0.0
 10
352.1848767565718
 20
540.0741833502245
 30
0.0
 10
352.1542154067531
 20
540.342211778977
 30
0.0
 10
352.1542154067531
 20
540.342211778977
 30
0.0
 10
352.1542154067531
 20
540.342211778977
 30
0.0
 10
352.1407795343607
 20
540.342211778977
 30
0.0
 10
352.1407795343607
 20
540.342211778977
 30
0.0
 10
352.0222682496681
 20
540.1752969027166
 30
0.0
 10
351.7936861642218
 20
540.025952013431
 30
0.0
 10
351.4903455067455
 20
540.025952013431
 30
0.0
 10
351.0597085710892
 20
540.025952013431
 30
0.0
 10
350.8399114791303
 20
540.329120416133
 30
0.0
 10
350.8399114791303
 20
540.6367674429658
 30
0.0
 10
350.8399114791303
 20
541.1511201989136
 30
0.0
 10
351.2969033952487
 20
541.4324122452842
 30
0.0
 10
352.1189031780293
 20
541.4279336211534
 30
0.0
 10
352.1189031780293
 20
541.4279336211534
 30
0.0
 10
352.1189031780293
 20
541.4720308433647
 30
0.0
 10
352.1189031780293
 20
541.4720308433647
 30
0.0
 10
352.1189031780293
 20
541.6477307131124
 30
0.0
 10
352.0704995864616
 20
541.9643349882068
 30
0.0
 10
351.6355562814488
 20
541.9643349882068
 30
0.0
 10
351.4376355458211
 20
541.9643349882068
 30
0.0
 10
351.2311020714804
 20
541.9026677790209
 30
0.0
 10
351.0817571821948
 20
541.8060328506597
 30
0.0
 10
351.0817571821948
 20
541.8060328506597
 30
0.0
 10
350.9935627377724
 20
542.0609699165681
 30
0.0
 10
350.9935627377724
 20
542.0609699165681
 30
0.0
 10
351.1696071170687
 20
542.1753470866784
 30
0.0
 10
351.424371928203
 20
542.249933403934
 30
0.0
 10
351.6925726117296
 20
542.249933403934
 30
0.0
 10
352.3430066393448
 20
542.249933403934
 30
0.0
 10
352.5013087768921
 20
541.8060328506597
 30
0.0
 10
352.5013087768921
 20
541.37970228436
 30
0.0
 10
352.5013087768921
 20
541.37970228436
 30
0.0
 10
352.5013087768921
 20
540.5840574820415
 30
0.0
 10
352.5013087768921
 20
540.5840574820415
 30
0.0
 10
352.5013087768921
 20
540.3995726188064
 30
0.0
 10
352.5100937703795
 20
540.2192218701535
 30
0.0
 10
352.5366210056159
 20
540.0741833502245
 30
0.0
 10
352.5366210056159
 20
540.0741833502245
 30
0.0
 10
352.1848767565718
 20
540.0741833502245
 30
0.0
 10
352.1848767565718
 20
540.0741833502245
 30
0.0
  0
SPLINE
  5
4E
330
1F
100
AcDbEntity
  8
Layer 1
 62
     7
370
     9
100
AcDbSpline
210
0.0
220
0.0
230
1.0
 70
    11
 71
     3
 72
    20
 73
    16
 74
     0
 42
0.0000000001
 43
0.0000000001
 40
0.0
 40
0.0
 40
0.0
 40
0.0
 40
1.0
 40
1.0
 40
1.0
 40
2.0
 40
2.0
 40
2.0
 40
3.0
 40
3.0
 40
3.0
 40
4.0
 40
4.0
 40
4.0
 40
5.0
 40
5.0
 40
5.0
 40
5.0
 10
352.1276881715167
 20
541.159905192401
 30
0.0
 10
351.7056639745736
 20
541.1686901858884
 30
0.0
 10
351.2266234473496
 20
541.0939316138584
 30
0.0
 10
351.2266234473496
 20
540.6808646651771
 30
0.0
 10
351.2266234473496
 20
540.4304062233994
 30
0.0
 10
351.3937105783842
 20
540.3115504291583
 30
0.0
 10
351.5914590592376
 20
540.3115504291583
 30
0.0
 10
351.8682724814774
 20
540.3115504291583
 30
0.0
 10
352.0443168607737
 20
540.4874225536803
 30
0.0
 10
352.1058118151853
 20
540.6676010475588
 30
0.0
 10
352.1189031780293
 20
540.7070473908649
 30
0.0
 10
352.1276881715167
 20
540.7511446130761
 30
0.0
 10
352.1276881715167
 20
540.7907632111564
 30
0.0
 10
352.1276881715167
 20
540.7907632111564
 30
0.0
 10
352.1276881715167
 20
541.159905192401
 30
0.0
 10
352.1276881715167
 20
541.159905192401
 30
0.0
  0
SPLINE
  5
4F
330
1F
100
AcDbEntity
  8
Layer 1
 62
     7
370
     9
100
AcDbSpline
210
0.0
220
0.0
230
1.0
 70
    11
 71
     3
 72
    53
 73
    49
 74
     0
 42
0.0000000001
 43
0.0000000001
 40
0.0
 40
0.0
 40
0.0
 40
0.0
 40
1.0
 40
1.0
 40
1.0
 40
2.0
 40
2.0
 40
2.0
 40
3.0
 40
3.0
 40
3.0
 40
4.0
 40
4.0
 40
4.0
 40
5.0
 40
5.0
 40
5.0
 40
6.0
 40
6.0
 40
6.0
 40
7.0
 40
7.0
 40
7.0
 40
8.0
 40
8.0
 40
8.0
 40
9.0
 40
9.0
 40
9.0
 40
10.0
 40
10.0
 40
10.0
 40
11.0
 40
11.0
 40
11.0
 40
12.0
 40
12.0
 40
12.0
 40
13.0
 40
13.0
 40
13.0
 40
14.0
 40
14.0
 40
14.0
 40
15.0
 40
15.0
 40
15.0
 40
16.0
 40
16.0
 40
16.0
 40
16.0
 10
353.2321857840878
 20
542.2015298123663
 30
0.0
 10
353.2321857840878
 20
542.2015298123663
 30
0.0
 10
353.6981349484678
 20
540.9444144697986
 30
0.0
 10
353.6981349484678
 20
540.9444144697986
 30
0.0
 10
353.7465385400356
 20
540.8038545740004
 30
0.0
 10
353.7992485009599
 20
540.6367674429658
 30
0.0
 10
353.8343884749095
 20
540.5092989100116
 30
0.0
 10
353.8343884749095
 20
540.5092989100116
 30
0.0
 10
353.8430012136226
 20
540.5092989100116
 30
0.0
 10
353.8430012136226
 20
540.5092989100116
 30
0.0
 10
353.882619811703
 20
540.6367674429658
 30
0.0
 10
353.9267170339141
 20
540.7993759498696
 30
0.0
 10
353.9794269948385
 20
540.9531994632861
 30
0.0
 10
353.9794269948385
 20
540.9531994632861
 30
0.0
 10
354.4014511917816
 20
542.2015298123663
 30
0.0
 10
354.4014511917816
 20
542.2015298123663
 30
0.0
 10
354.4014511917816
 20
542.2015298123663
 30
0.0
 10
354.8100395163322
 20
542.2015298123663
 30
0.0
 10
354.8100395163322
 20
542.2015298123663
 30
0.0
 10
354.8100395163322
 20
542.2015298123663
 30
0.0
 10
354.2298854366161
 20
540.6851710345336
 30
0.0
 10
354.2298854366161
 20
540.6851710345336
 30
0.0
 10
353.9528997596021
 20
539.9554998107577
 30
0.0
 10
353.7639362722361
 20
539.5818792053823
 30
0.0
 10
353.5002142128403
 20
539.3534693747102
 30
0.0
 10
353.3112507254743
 20
539.1862099889014
 30
0.0
 10
353.1222872381084
 20
539.1204086651331
 30
0.0
 10
353.0256523097471
 20
539.1028386781584
 30
0.0
 10
353.0256523097471
 20
539.1028386781584
 30
0.0
 10
352.9288451266116
 20
539.4280556919659
 30
0.0
 10
352.9288451266116
 20
539.4280556919659
 30
0.0
 10
353.0256523097471
 20
539.4587170417847
 30
0.0
 10
353.1529485879271
 20
539.5203842509707
 30
0.0
 10
353.2673257580374
 20
539.6171914341062
 30
0.0
 10
353.372745679886
 20
539.7005627448492
 30
0.0
 10
353.5046928369711
 20
539.8499076341348
 30
0.0
 10
353.5925427718449
 20
540.0478283697623
 30
0.0
 10
353.6101127588197
 20
540.0874469678428
 30
0.0
 10
353.6233763764379
 20
540.1182805724358
 30
0.0
 10
353.6233763764379
 20
540.1399846739928
 30
0.0
 10
353.6233763764379
 20
540.1620332850985
 30
0.0
 10
353.6145913829506
 20
540.1928668896913
 30
0.0
 10
353.5970213959758
 20
540.2410982264848
 30
0.0
 10
353.5970213959758
 20
540.2410982264848
 30
0.0
 10
352.8101615871447
 20
542.2015298123663
 30
0.0
 10
352.8101615871447
 20
542.2015298123663
 30
0.0
 10
352.8101615871447
 20
542.2015298123663
 30
0.0
 10
353.2321857840878
 20
542.2015298123663
 30
0.0
 10
353.2321857840878
 20
542.2015298123663
 30
0.0
  0
SPLINE
  5
50
330
1F
100
AcDbEntity
  8
Layer 1
 62
     7
370
     9
100
AcDbSpline
210
0.0
220
0.0
230
1.0
 70
    11
 71
     3
 72
    56
 73
    52
 74
     0
 42
0.0000000001
 43
0.0000000001
 40
0.0
 40
0.0
 40
0.0
 40
0.0
 40
1.0
 40
1.0
 40
1.0
 40
2.0
 40
2.0
 40
2.0
 40
3.0
 40
3.0
 40
3.0
 40
4.0
 40
4.0
 40
4.0
 40
5.0
 40
5.0
 40
5.0
 40
6.0
 40
6.0
 40
6.0
 40
7.0
 40
7.0
 40
7.0
 40
8.0
 40
8.0
 40
8.0
 40
9.0
 40
9.0
 40
9.0
 40
10.0
 40
10.0
 40
10.0
 40
11.0
 40
11.0
 40
11.0
 40
12.0
 40
12.0
 40
12.0
 40
13.0
 40
13.0
 40
13.0
 40
14.0
 40
14.0
 40
14.0
 40
15.0
 40
15.0
 40
15.0
 40
16.0
 40
16.0
 40
16.0
 40
17.0
 40
17.0
 40
17.0
 40
17.0
 10
356.5611815514847
 20
542.8125174966754
 30
0.0
 10
356.5611815514847
 20
542.8125174966754
 30
0.0
 10
356.5611815514847
 20
542.2015298123663
 30
0.0
 10
356.5611815514847
 20
542.2015298123663
 30
0.0
 10
356.5611815514847
 20
542.2015298123663
 30
0.0
 10
357.1149806507386
 20
542.2015298123663
 30
0.0
 10
357.1149806507386
 20
542.2015298123663
 30
0.0
 10
357.1149806507386
 20
542.2015298123663
 30
0.0
 10
357.1149806507386
 20
541.9071464031517
 30
0.0
 10
357.1149806507386
 20
541.9071464031517
 30
0.0
 10
357.1149806507386
 20
541.9071464031517
 30
0.0
 10
356.5611815514847
 20
541.9071464031517
 30
0.0
 10
356.5611815514847
 20
541.9071464031517
 30
0.0
 10
356.5611815514847
 20
541.9071464031517
 30
0.0
 10
356.5611815514847
 20
540.7599296065636
 30
0.0
 10
356.5611815514847
 20
540.7599296065636
 30
0.0
 10
356.5611815514847
 20
540.4962075471676
 30
0.0
 10
356.6357678687404
 20
540.3466904031078
 30
0.0
 10
356.8512585913427
 20
540.3466904031078
 30
0.0
 10
356.9523721438349
 20
540.3466904031078
 30
0.0
 10
357.0269584610905
 20
540.359954020726
 30
0.0
 10
357.075189797884
 20
540.37304538357
 30
0.0
 10
357.075189797884
 20
540.37304538357
 30
0.0
 10
357.0931042944073
 20
540.082968343712
 30
0.0
 10
357.0931042944073
 20
540.082968343712
 30
0.0
 10
357.0181734676031
 20
540.052134739119
 30
0.0
 10
356.8994899281362
 20
540.0300861280133
 30
0.0
 10
356.7501450388507
 20
540.0300861280133
 30
0.0
 10
356.5699665449721
 20
540.0300861280133
 30
0.0
 10
356.4247557702688
 20
540.0874469678428
 30
0.0
 10
356.3324272112641
 20
540.1928668896913
 30
0.0
 10
356.2225286652846
 20
540.3072440598016
 30
0.0
 10
356.1830823219785
 20
540.4962075471676
 30
0.0
 10
356.1830823219785
 20
540.7466659889453
 30
0.0
 10
356.1830823219785
 20
540.7466659889453
 30
0.0
 10
356.1830823219785
 20
541.9071464031517
 30
0.0
 10
356.1830823219785
 20
541.9071464031517
 30
0.0
 10
356.1830823219785
 20
541.9071464031517
 30
0.0
 10
355.8533866840401
 20
541.9071464031517
 30
0.0
 10
355.8533866840401
 20
541.9071464031517
 30
0.0
 10
355.8533866840401
 20
541.9071464031517
 30
0.0
 10
355.8533866840401
 20
542.2015298123663
 30
0.0
 10
355.8533866840401
 20
542.2015298123663
 30
0.0
 10
355.8533866840401
 20
542.2015298123663
 30
0.0
 10
356.1830823219785
 20
542.2015298123663
 30
0.0
 10
356.1830823219785
 20
542.2015298123663
 30
0.0
 10
356.1830823219785
 20
542.2015298123663
 30
0.0
 10
356.1830823219785
 20
542.7115761989576
 30
0.0
 10
356.1830823219785
 20
542.7115761989576
 30
0.0
 10
356.1830823219785
 20
542.7115761989576
 30
0.0
 10
356.5611815514847
 20
542.8125174966754
 30
0.0
 10
356.5611815514847
 20
542.8125174966754
 30
0.0
  0
SPLINE
  5
51
330
1F
100
AcDbEntity
  8
Layer 1
 62
     7
370
     9
100
AcDbSpline
210
0.0
220
0.0
230
1.0
 70
    11
 71
     3
 72
    50
 73
    46
 74
     0
 42
0.0000000001
 43
0.0000000001
 40
0.0
 40
0.0
 40
0.0
 40
0.0
 40
1.0
 40
1.0
 40
1.0
 40
2.0
 40
2.0
 40
2.0
 40
3.0
 40
3.0
 40
3.0
 40
4.0
 40
4.0
 40
4.0
 40
5.0
 40
5.0
 40
5.0
 40
6.0
 40
6.0
 40
6.0
 40
7.0
 40
7.0
 40
7.0
 40
8.0
 40
8.0
 40
8.0
 40
9.0
 40
9.0
 40
9.0
 40
10.0
 40
10.0
 40
10.0
 40
11.0
 40
11.0
 40
11.0
 40
12.0
 40
12.0
 40
12.0
 40
13.0
 40
13.0
 40
13.0
 40
14.0
 40
14.0
 40
14.0
 40
15.0
 40
15.0
 40
15.0
 40
15.0
 10
357.550957484397
 20
543.1949230955381
 30
0.0
 10
357.550957484397
 20
543.1949230955381
 30
0.0
 10
357.9378417073905
 20
543.1949230955381
 30
0.0
 10
357.9378417073905
 20
543.1949230955381
 30
0.0
 10
357.9378417073905
 20
543.1949230955381
 30
0.0
 10
357.9378417073905
 20
541.8677000598456
 30
0.0
 10
357.9378417073905
 20
541.8677000598456
 30
0.0
 10
357.9378417073905
 20
541.8677000598456
 30
0.0
 10
357.946626700878
 20
541.8677000598456
 30
0.0
 10
357.946626700878
 20
541.8677000598456
 30
0.0
 10
358.0081216552896
 20
541.977598605825
 30
0.0
 10
358.1047565836509
 20
542.074061279412
 30
0.0
 10
358.2234401231178
 20
542.1400348579546
 30
0.0
 10
358.3378172932281
 20
542.2060084364971
 30
0.0
 10
358.4738985648954
 20
542.249933403934
 30
0.0
 10
358.6191093395987
 20
542.249933403934
 30
0.0
 10
358.9047077553259
 20
542.249933403934
 30
0.0
 10
359.3620441809928
 20
542.074061279412
 30
0.0
 10
359.3620441809928
 20
541.3400836862796
 30
0.0
 10
359.3620441809928
 20
541.3400836862796
 30
0.0
 10
359.3620441809928
 20
540.0741833502245
 30
0.0
 10
359.3620441809928
 20
540.0741833502245
 30
0.0
 10
359.3620441809928
 20
540.0741833502245
 30
0.0
 10
358.974987703225
 20
540.0741833502245
 30
0.0
 10
358.974987703225
 20
540.0741833502245
 30
0.0
 10
358.974987703225
 20
540.0741833502245
 30
0.0
 10
358.974987703225
 20
541.2961587188427
 30
0.0
 10
358.974987703225
 20
541.2961587188427
 30
0.0
 10
358.974987703225
 20
541.638945719625
 30
0.0
 10
358.847691425045
 20
541.929022759483
 30
0.0
 10
358.4828558131571
 20
541.929022759483
 30
0.0
 10
358.2322251166052
 20
541.929022759483
 30
0.0
 10
358.0344766357518
 20
541.7533228897353
 30
0.0
 10
357.9641966878527
 20
541.5423107912637
 30
0.0
 10
357.9421480767471
 20
541.4894285755652
 30
0.0
 10
357.9378417073905
 20
541.4324122452842
 30
0.0
 10
357.9378417073905
 20
541.3576536732544
 30
0.0
 10
357.9378417073905
 20
541.3576536732544
 30
0.0
 10
357.9378417073905
 20
540.0741833502245
 30
0.0
 10
357.9378417073905
 20
540.0741833502245
 30
0.0
 10
357.9378417073905
 20
540.0741833502245
 30
0.0
 10
357.550957484397
 20
540.0741833502245
 30
0.0
 10
357.550957484397
 20
540.0741833502245
 30
0.0
 10
357.550957484397
 20
540.0741833502245
 30
0.0
 10
357.550957484397
 20
543.1949230955381
 30
0.0
 10
357.550957484397
 20
543.1949230955381
 30
0.0
  0
SPLINE
  5
52
330
1F
100
AcDbEntity
  8
Layer 1
 62
     7
370
     9
100
AcDbSpline
210
0.0
220
0.0
230
1.0
 70
    11
 71
     3
 72
    32
 73
    28
 74
     0
 42
0.0000000001
 43
0.0000000001
 40
0.0
 40
0.0
 40
0.0
 40
0.0
 40
1.0
 40
1.0
 40
1.0
 40
2.0
 40
2.0
 40
2.0
 40
3.0
 40
3.0
 40
3.0
 40
4.0
 40
4.0
 40
4.0
 40
5.0
 40
5.0
 40
5.0
 40
6.0
 40
6.0
 40
6.0
 40
7.0
 40
7.0
 40
7.0
 40
8.0
 40
8.0
 40
8.0
 40
9.0
 40
9.0
 40
9.0
 40
9.0
 10
360.2071261035246
 20
541.0675766333964
 30
0.0
 10
360.215911097012
 20
540.5444388839611
 30
0.0
 10
360.549913104307
 20
540.329120416133
 30
0.0
 10
360.9367973273006
 20
540.329120416133
 30
0.0
 10
361.2136107495404
 20
540.329120416133
 30
0.0
 10
361.380697880575
 20
540.3775240077008
 30
0.0
 10
361.5255641457297
 20
540.4390189621125
 30
0.0
 10
361.5255641457297
 20
540.4390189621125
 30
0.0
 10
361.5917099790465
 20
540.1620332850985
 30
0.0
 10
361.5917099790465
 20
540.1620332850985
 30
0.0
 10
361.4552841978306
 20
540.1005383306867
 30
0.0
 10
361.2223957430277
 20
540.0300861280133
 30
0.0
 10
360.8839151116019
 20
540.0300861280133
 30
0.0
 10
360.229002459856
 20
540.0300861280133
 30
0.0
 10
359.8378118675058
 20
540.4610675732181
 30
0.0
 10
359.8378118675058
 20
541.1028888621202
 30
0.0
 10
359.8378118675058
 20
541.744537896248
 30
0.0
 10
360.215911097012
 20
542.249933403934
 30
0.0
 10
360.8355115200342
 20
542.249933403934
 30
0.0
 10
361.5300427698606
 20
542.249933403934
 30
0.0
 10
361.7146998878699
 20
541.638945719625
 30
0.0
 10
361.7146998878699
 20
541.2477551272749
 30
0.0
 10
361.7146998878699
 20
541.1686901858884
 30
0.0
 10
361.7059148943825
 20
541.1070229767024
 30
0.0
 10
361.701608525026
 20
541.0675766333964
 30
0.0
 10
361.701608525026
 20
541.0675766333964
 30
0.0
 10
360.2071261035246
 20
541.0675766333964
 30
0.0
 10
360.2071261035246
 20
541.0675766333964
 30
0.0
  0
SPLINE
  5
53
330
1F
100
AcDbEntity
  8
Layer 1
 62
     7
370
     9
100
AcDbSpline
210
0.0
220
0.0
230
1.0
 70
    11
 71
     3
 72
    14
 73
    10
 74
     0
 42
0.0000000001
 43
0.0000000001
 40
0.0
 40
0.0
 40
0.0
 40
0.0
 40
1.0
 40
1.0
 40
1.0
 40
2.0
 40
2.0
 40
2.0
 40
3.0
 40
3.0
 40
3.0
 40
3.0
 10
361.3412515372689
 20
541.3445623104104
 30
0.0
 10
361.3453856518512
 20
541.5907143828315
 30
0.0
 10
361.2399657300026
 20
541.9731199816943
 30
0.0
 10
360.8048501702154
 20
541.9731199816943
 30
0.0
 10
360.4136595778654
 20
541.9731199816943
 30
0.0
 10
360.2422660774742
 20
541.6125907391629
 30
0.0
 10
360.2114324728812
 20
541.3445623104104
 30
0.0
 10
360.2114324728812
 20
541.3445623104104
 30
0.0
 10
361.3412515372689
 20
541.3445623104104
 30
0.0
 10
361.3412515372689
 20
541.3445623104104
 30
0.0
  0
SPLINE
  5
54
330
1F
100
AcDbEntity
  8
Layer 1
 62
     7
370
     9
100
AcDbSpline
210
0.0
220
0.0
230
1.0
 70
    11
 71
     3
 72
    41
 73
    37
 74
     0
 42
0.0000000001
 43
0.0000000001
 40
0.0
 40
0.0
 40
0.0
 40
0.0
 40
1.0
 40
1.0
 40
1.0
 40
2.0
 40
2.0
 40
2.0
 40
3.0
 40
3.0
 40
3.0
 40
4.0
 40
4.0
 40
4.0
 40
5.0
 40
5.0
 40
5.0
 40
6.0
 40
6.0
 40
6.0
 40
7.0
 40
7.0
 40
7.0
 40
8.0
 40
8.0
 40
8.0
 40
9.0
 40
9.0
 40
9.0
 40
10.0
 40
10.0
 40
10.0
 40
11.0
 40
11.0
 40
11.0
 40
12.0
 40
12.0
 40
12.0
 40
12.0
 10
363.1097913046219
 20
540.0741833502245
 30
0.0
 10
363.1185762981092
 20
540.2192218701535
 30
0.0
 10
363.1271890368224
 20
540.4345403379816
 30
0.0
 10
363.1271890368224
 20
540.6236760801219
 30
0.0
 10
363.1271890368224
 20
540.6236760801219
 30
0.0
 10
363.1271890368224
 20
543.1949230955381
 30
0.0
 10
363.1271890368224
 20
543.1949230955381
 30
0.0
 10
363.1271890368224
 20
543.1949230955381
 30
0.0
 10
363.5095946356851
 20
543.1949230955381
 30
0.0
 10
363.5095946356851
 20
543.1949230955381
 30
0.0
 10
363.5095946356851
 20
543.1949230955381
 30
0.0
 10
363.5095946356851
 20
541.858742811584
 30
0.0
 10
363.5095946356851
 20
541.858742811584
 30
0.0
 10
363.5095946356851
 20
541.858742811584
 30
0.0
 10
363.5185518839468
 20
541.858742811584
 30
0.0
 10
363.5185518839468
 20
541.858742811584
 30
0.0
 10
363.6548054103884
 20
542.0961098905177
 30
0.0
 10
363.9009574828095
 20
542.249933403934
 30
0.0
 10
364.2437444835919
 20
542.249933403934
 30
0.0
 10
364.7711886023836
 20
542.249933403934
 30
0.0
 10
365.144809207759
 20
541.8103392200162
 30
0.0
 10
365.1405028384024
 20
541.1643838165319
 30
0.0
 10
365.1405028384024
 20
540.4038789881629
 30
0.0
 10
364.6612900564041
 20
540.025952013431
 30
0.0
 10
364.1865558985367
 20
540.025952013431
 30
0.0
 10
363.8789088717039
 20
540.025952013431
 30
0.0
 10
363.6327567992828
 20
540.1444632981236
 30
0.0
 10
363.4746269165098
 20
540.4259275992686
 30
0.0
 10
363.4746269165098
 20
540.4259275992686
 30
0.0
 10
363.4613632988916
 20
540.4259275992686
 30
0.0
 10
363.4613632988916
 20
540.4259275992686
 30
0.0
 10
363.4613632988916
 20
540.4259275992686
 30
0.0
 10
363.4437933119169
 20
540.0741833502245
 30
0.0
 10
363.4437933119169
 20
540.0741833502245
 30
0.0
 10
363.4437933119169
 20
540.0741833502245
 30
0.0
 10
363.1097913046219
 20
540.0741833502245
 30
0.0
 10
363.1097913046219
 20
540.0741833502245
 30
0.0
  0
SPLINE
  5
55
330
1F
100
AcDbEntity
  8
Layer 1
 62
     7
370
     9
100
AcDbSpline
210
0.0
220
0.0
230
1.0
 70
    11
 71
     3
 72
    26
 73
    22
 74
     0
 42
0.0000000001
 43
0.0000000001
 40
0.0
 40
0.0
 40
0.0
 40
0.0
 40
1.0
 40
1.0
 40
1.0
 40
2.0
 40
2.0
 40
2.0
 40
3.0
 40
3.0
 40
3.0
 40
4.0
 40
4.0
 40
4.0
 40
5.0
 40
5.0
 40
5.0
 40
6.0
 40
6.0
 40
6.0
 40
7.0
 40
7.0
 40
7.0
 40
7.0
 10
363.5095946356851
 20
540.9268444828239
 30
0.0
 10
363.5095946356851
 20
540.8786131460304
 30
0.0
 10
363.5185518839468
 20
540.8302095544626
 30
0.0
 10
363.5271646226599
 20
540.7862845870256
 30
0.0
 10
363.6019231946898
 20
540.5182561582733
 30
0.0
 10
363.8260266560053
 20
540.3335990402638
 30
0.0
 10
364.1073187023759
 20
540.3335990402638
 30
0.0
 10
364.5117729123443
 20
540.3335990402638
 30
0.0
 10
364.7536186154088
 20
540.663122423428
 30
0.0
 10
364.7536186154088
 20
541.1511201989136
 30
0.0
 10
364.7536186154088
 20
541.577278510439
 30
0.0
 10
364.5338215234499
 20
541.9422863771013
 30
0.0
 10
364.1205823199942
 20
541.9422863771013
 30
0.0
 10
363.8568602605983
 20
541.9422863771013
 30
0.0
 10
363.6108804429514
 20
541.7621078832227
 30
0.0
 10
363.5316432467907
 20
541.4675522192339
 30
0.0
 10
363.5230305080776
 20
541.4236272517969
 30
0.0
 10
363.5095946356851
 20
541.3709172908726
 30
0.0
 10
363.5095946356851
 20
541.3092500816866
 30
0.0
 10
363.5095946356851
 20
541.3092500816866
 30
0.0
 10
363.5095946356851
 20
540.9268444828239
 30
0.0
 10
363.5095946356851
 20
540.9268444828239
 30
0.0
  0
SPLINE
  5
56
330
1F
100
AcDbEntity
  8
Layer 1
 62
     7
370
     9
100
AcDbSpline
210
0.0
220
0.0
230
1.0
 70
    11
 71
     3
 72
    17
 73
    13
 74
     0
 42
0.0000000001
 43
0.0000000001
 40
0.0
 40
0.0
 40
0.0
 40
0.0
 40
1.0
 40
1.0
 40
1.0
 40
2.0
 40
2.0
 40
2.0
 40
3.0
 40
3.0
 40
3.0
 40
4.0
 40
4.0
 40
4.0
 40
4.0
 10
366.0605155877383
 20
542.7994261338314
 30
0.0
 10
366.0649942118692
 20
542.6676512315206
 30
0.0
 10
365.9681870287337
 20
542.5618868001235
 30
0.0
 10
365.8143635153173
 20
542.5618868001235
 30
0.0
 10
365.6779377341014
 20
542.5618868001235
 30
0.0
 10
365.5814750605144
 20
542.6676512315206
 30
0.0
 10
365.5814750605144
 20
542.7994261338314
 30
0.0
 10
365.5814750605144
 20
542.9356796602731
 30
0.0
 10
365.6824163582322
 20
543.0412718368959
 30
0.0
 10
365.8231485088046
 20
543.0412718368959
 30
0.0
 10
365.9681870287337
 20
543.0412718368959
 30
0.0
 10
366.0605155877383
 20
542.9356796602731
 30
0.0
 10
366.0605155877383
 20
542.7994261338314
 30
0.0
  0
POLYLINE
  5
57
330
1F
100
AcDbEntity
  8
Layer 1
 62
     7
370
     9
100
AcDb2dPolyline
 66
     1
 10
0.0
 20
0.0
 30
0.0
  0
VERTEX
  5
58
330
57
100
AcDbEntity
  8
Layer 1
 62
     7
370
     9
100
AcDbVertex
100
AcDb2dVertex
 10
365.6297063973079
 20
540.0741833502245
 30
0.0
  0
VERTEX
  5
59
330
57
100
AcDbEntity
  8
Layer 1
 62
     7
370
     9
100
AcDbVertex
100
AcDb2dVertex
 10
365.6297063973079
 20
542.2015298123663
 30
0.0
  0
VERTEX
  5
5A
330
57
100
AcDbEntity
  8
Layer 1
 62
     7
370
     9
100
AcDbVertex
100
AcDb2dVertex
 10
366.0165906203014
 20
542.2015298123663
 30
0.0
  0
VERTEX
  5
5B
330
57
100
AcDbEntity
  8
Layer 1
 62
     7
370
     9
100
AcDbVertex
100
AcDb2dVertex
 10
366.0165906203014
 20
540.0741833502245
 30
0.0
  0
VERTEX
  5
5C
330
57
100
AcDbEntity
  8
Layer 1
 62
     7
370
     9
100
AcDbVertex
100
AcDb2dVertex
 10
365.6297063973079
 20
540.0741833502245
 30
0.0
  0
SEQEND
  5
5D
330
57
100
AcDbEntity
  8
Layer 1
370
     9
  0
SPLINE
  5
5E
330
1F
100
AcDbEntity
  8
Layer 1
 62
     7
370
     9
100
AcDbSpline
210
0.0
220
0.0
230
1.0
 70
    11
 71
     3
 72
    56
 73
    52
 74
     0
 42
0.0000000001
 43
0.0000000001
 40
0.0
 40
0.0
 40
0.0
 40
0.0
 40
1.0
 40
1.0
 40
1.0
 40
2.0
 40
2.0
 40
2.0
 40
3.0
 40
3.0
 40
3.0
 40
4.0
 40
4.0
 40
4.0
 40
5.0
 40
5.0
 40
5.0
 40
6.0
 40
6.0
 40
6.0
 40
7.0
 40
7.0
 40
7.0
 40
8.0
 40
8.0
 40
8.0
 40
9.0
 40
9.0
 40
9.0
 40
10.0
 40
10.0
 40
10.0
 40
11.0
 40
11.0
 40
11.0
 40
12.0
 40
12.0
 40
12.0
 40
13.0
 40
13.0
 40
13.0
 40
14.0
 40
14.0
 40
14.0
 40
15.0
 40
15.0
 40
15.0
 40
16.0
 40
16.0
 40
16.0
 40
17.0
 40
17.0
 40
17.0
 40
17.0
 10
367.124705583132
 20
542.8125174966754
 30
0.0
 10
367.124705583132
 20
542.8125174966754
 30
0.0
 10
367.124705583132
 20
542.2015298123663
 30
0.0
 10
367.124705583132
 20
542.2015298123663
 30
0.0
 10
367.124705583132
 20
542.2015298123663
 30
0.0
 10
367.6785046823859
 20
542.2015298123663
 30
0.0
 10
367.6785046823859
 20
542.2015298123663
 30
0.0
 10
367.6785046823859
 20
542.2015298123663
 30
0.0
 10
367.6785046823859
 20
541.9071464031517
 30
0.0
 10
367.6785046823859
 20
541.9071464031517
 30
0.0
 10
367.6785046823859
 20
541.9071464031517
 30
0.0
 10
367.124705583132
 20
541.9071464031517
 30
0.0
 10
367.124705583132
 20
541.9071464031517
 30
0.0
 10
367.124705583132
 20
541.9071464031517
 30
0.0
 10
367.124705583132
 20
540.7599296065636
 30
0.0
 10
367.124705583132
 20
540.7599296065636
 30
0.0
 10
367.124705583132
 20
540.4962075471676
 30
0.0
 10
367.1992919003877
 20
540.3466904031078
 30
0.0
 10
367.4147826229901
 20
540.3466904031078
 30
0.0
 10
367.5158961754822
 20
540.3466904031078
 30
0.0
 10
367.5904824927378
 20
540.359954020726
 30
0.0
 10
367.6388860843056
 20
540.37304538357
 30
0.0
 10
367.6388860843056
 20
540.37304538357
 30
0.0
 10
367.6564560712803
 20
540.082968343712
 30
0.0
 10
367.6564560712803
 20
540.082968343712
 30
0.0
 10
367.5816974992504
 20
540.052134739119
 30
0.0
 10
367.4631862145578
 20
540.0300861280133
 30
0.0
 10
367.313669070498
 20
540.0300861280133
 30
0.0
 10
367.1334905766194
 20
540.0300861280133
 30
0.0
 10
366.9882798019161
 20
540.0874469678428
 30
0.0
 10
366.8959512429115
 20
540.1928668896913
 30
0.0
 10
366.786052696932
 20
540.3072440598016
 30
0.0
 10
366.7466063536259
 20
540.4962075471676
 30
0.0
 10
366.7466063536259
 20
540.7466659889453
 30
0.0
 10
366.7466063536259
 20
540.7466659889453
 30
0.0
 10
366.7466063536259
 20
541.9071464031517
 30
0.0
 10
366.7466063536259
 20
541.9071464031517
 30
0.0
 10
366.7466063536259
 20
541.9071464031517
 30
0.0
 10
366.4169107156874
 20
541.9071464031517
 30
0.0
 10
366.4169107156874
 20
541.9071464031517
 30
0.0
 10
366.4169107156874
 20
541.9071464031517
 30
0.0
 10
366.4169107156874
 20
542.2015298123663
 30
0.0
 10
366.4169107156874
 20
542.2015298123663
 30
0.0
 10
366.4169107156874
 20
542.2015298123663
 30
0.0
 10
366.7466063536259
 20
542.2015298123663
 30
0.0
 10
366.7466063536259
 20
542.2015298123663
 30
0.0
 10
366.7466063536259
 20
542.2015298123663
 30
0.0
 10
366.7466063536259
 20
542.7115761989576
 30
0.0
 10
366.7466063536259
 20
542.7115761989576
 30
0.0
 10
366.7466063536259
 20
542.7115761989576
 30
0.0
 10
367.124705583132
 20
542.8125174966754
 30
0.0
 10
367.124705583132
 20
542.8125174966754
 30
0.0
  0
SPLINE
  5
5F
330
1F
100
AcDbEntity
  8
Layer 1
 62
     7
370
     9
100
AcDbSpline
210
0.0
220
0.0
230
1.0
 70
    11
 71
     3
 72
    47
 73
    43
 74
     0
 42
0.0000000001
 43
0.0000000001
 40
0.0
 40
0.0
 40
0.0
 40
0.0
 40
1.0
 40
1.0
 40
1.0
 40
2.0
 40
2.0
 40
2.0
 40
3.0
 40
3.0
 40
3.0
 40
4.0
 40
4.0
 40
4.0
 40
5.0
 40
5.0
 40
5.0
 40
6.0
 40
6.0
 40
6.0
 40
7.0
 40
7.0
 40
7.0
 40
8.0
 40
8.0
 40
8.0
 40
9.0
 40
9.0
 40
9.0
 40
10.0
 40
10.0
 40
10.0
 40
11.0
 40
11.0
 40
11.0
 40
12.0
 40
12.0
 40
12.0
 40
13.0
 40
13.0
 40
13.0
 40
14.0
 40
14.0
 40
14.0
 40
14.0
 10
368.0615993003457
 20
540.4698525667055
 30
0.0
 10
368.175976470456
 20
540.3950939946756
 30
0.0
 10
368.3782035754402
 20
540.3160290532891
 30
0.0
 10
368.571645686937
 20
540.3160290532891
 30
0.0
 10
368.8529377333076
 20
540.3160290532891
 30
0.0
 10
368.9847126356185
 20
540.4565889490873
 30
0.0
 10
368.9847126356185
 20
540.632288818835
 30
0.0
 10
368.9847126356185
 20
540.8169459368444
 30
0.0
 10
368.874814089639
 20
540.9182317441107
 30
0.0
 10
368.5892156739117
 20
541.0236516659594
 30
0.0
 10
368.206810075049
 20
541.159905192401
 30
0.0
 10
368.0266315811704
 20
541.3709172908726
 30
0.0
 10
368.0266315811704
 20
541.625854356781
 30
0.0
 10
368.0266315811704
 20
541.9686413575635
 30
0.0
 10
368.3034450034103
 20
542.249933403934
 30
0.0
 10
368.7606091743029
 20
542.249933403934
 30
0.0
 10
368.975927642131
 20
542.249933403934
 30
0.0
 10
369.164891129497
 20
542.1884384495223
 30
0.0
 10
369.2837469237381
 20
542.1181585016233
 30
0.0
 10
369.2837469237381
 20
542.1181585016233
 30
0.0
 10
369.1869397406026
 20
541.8368664552526
 30
0.0
 10
369.1869397406026
 20
541.8368664552526
 30
0.0
 10
369.1035684298595
 20
541.8894041614027
 30
0.0
 10
368.9497449164431
 20
541.959856364076
 30
0.0
 10
368.7519964355898
 20
541.959856364076
 30
0.0
 10
368.5232420953692
 20
541.959856364076
 30
0.0
 10
368.3957735624149
 20
541.827909206991
 30
0.0
 10
368.3957735624149
 20
541.669779324218
 30
0.0
 10
368.3957735624149
 20
541.493907199696
 30
0.0
 10
368.5232420953692
 20
541.4148422583095
 30
0.0
 10
368.8002277723833
 20
541.3092500816866
 30
0.0
 10
369.1693697536278
 20
541.1686901858884
 30
0.0
 10
369.3583332409938
 20
540.9840330678791
 30
0.0
 10
369.3583332409938
 20
540.6676010475588
 30
0.0
 10
369.3583332409938
 20
540.2939804421835
 30
0.0
 10
369.0682562011357
 20
540.0300861280133
 30
0.0
 10
368.5626884386753
 20
540.0300861280133
 30
0.0
 10
368.3299722386467
 20
540.0300861280133
 30
0.0
 10
368.1144815160443
 20
540.0874469678428
 30
0.0
 10
367.9651366267587
 20
540.1752969027166
 30
0.0
 10
367.9651366267587
 20
540.1752969027166
 30
0.0
 10
368.0615993003457
 20
540.4698525667055
 30
0.0
 10
368.0615993003457
 20
540.4698525667055
 30
0.0
  0
SPLINE
  5
60
330
1F
100
AcDbEntity
  8
Layer 1
 62
     7
370
     9
100
AcDbSpline
210
0.0
220
0.0
230
1.0
 70
    11
 71
     3
 72
    47
 73
    43
 74
     0
 42
0.0000000001
 43
0.0000000001
 40
0.0
 40
0.0
 40
0.0
 40
0.0
 40
1.0
 40
1.0
 40
1.0
 40
2.0
 40
2.0
 40
2.0
 40
3.0
 40
3.0
 40
3.0
 40
4.0
 40
4.0
 40
4.0
 40
5.0
 40
5.0
 40
5.0
 40
6.0
 40
6.0
 40
6.0
 40
7.0
 40
7.0
 40
7.0
 40
8.0
 40
8.0
 40
8.0
 40
9.0
 40
9.0
 40
9.0
 40
10.0
 40
10.0
 40
10.0
 40
11.0
 40
11.0
 40
11.0
 40
12.0
 40
12.0
 40
12.0
 40
13.0
 40
13.0
 40
13.0
 40
14.0
 40
14.0
 40
14.0
 40
14.0
 10
371.9664427781021
 20
540.0741833502245
 30
0.0
 10
371.9664427781021
 20
540.0741833502245
 30
0.0
 10
371.9356091735092
 20
540.342211778977
 30
0.0
 10
371.9356091735092
 20
540.342211778977
 30
0.0
 10
371.9356091735092
 20
540.342211778977
 30
0.0
 10
371.922345555891
 20
540.342211778977
 30
0.0
 10
371.922345555891
 20
540.342211778977
 30
0.0
 10
371.8036620164241
 20
540.1752969027166
 30
0.0
 10
371.575252185752
 20
540.025952013431
 30
0.0
 10
371.2719115282758
 20
540.025952013431
 30
0.0
 10
370.8411023378453
 20
540.025952013431
 30
0.0
 10
370.6213052458863
 20
540.329120416133
 30
0.0
 10
370.6213052458863
 20
540.6367674429658
 30
0.0
 10
370.6213052458863
 20
541.1511201989136
 30
0.0
 10
371.078469416779
 20
541.4324122452842
 30
0.0
 10
371.9004691995596
 20
541.4279336211534
 30
0.0
 10
371.9004691995596
 20
541.4279336211534
 30
0.0
 10
371.9004691995596
 20
541.4720308433647
 30
0.0
 10
371.9004691995596
 20
541.4720308433647
 30
0.0
 10
371.9004691995596
 20
541.6477307131124
 30
0.0
 10
371.8520656079918
 20
541.9643349882068
 30
0.0
 10
371.4167777934305
 20
541.9643349882068
 30
0.0
 10
371.2190293125772
 20
541.9643349882068
 30
0.0
 10
371.0126680930107
 20
541.9026677790209
 30
0.0
 10
370.8631509489509
 20
541.8060328506597
 30
0.0
 10
370.8631509489509
 20
541.8060328506597
 30
0.0
 10
370.7751287593028
 20
542.0609699165681
 30
0.0
 10
370.7751287593028
 20
542.0609699165681
 30
0.0
 10
370.9510008838247
 20
542.1753470866784
 30
0.0
 10
371.2059379497333
 20
542.249933403934
 30
0.0
 10
371.4741386332599
 20
542.249933403934
 30
0.0
 10
372.1245726608751
 20
542.249933403934
 30
0.0
 10
372.2828747984224
 20
541.8060328506597
 30
0.0
 10
372.2828747984224
 20
541.37970228436
 30
0.0
 10
372.2828747984224
 20
541.37970228436
 30
0.0
 10
372.2828747984224
 20
540.5840574820415
 30
0.0
 10
372.2828747984224
 20
540.5840574820415
 30
0.0
 10
372.2828747984224
 20
540.3995726188064
 30
0.0
 10
372.2914875371355
 20
540.2192218701535
 30
0.0
 10
372.3180147723719
 20
540.0741833502245
 30
0.0
 10
372.3180147723719
 20
540.0741833502245
 30
0.0
 10
371.9664427781021
 20
540.0741833502245
 30
0.0
 10
371.9664427781021
 20
540.0741833502245
 30
0.0
  0
SPLINE
  5
61
330
1F
100
AcDbEntity
  8
Layer 1
 62
     7
370
     9
100
AcDbSpline
210
0.0
220
0.0
230
1.0
 70
    11
 71
     3
 72
    20
 73
    16
 74
     0
 42
0.0000000001
 43
0.0000000001
 40
0.0
 40
0.0
 40
0.0
 40
0.0
 40
1.0
 40
1.0
 40
1.0
 40
2.0
 40
2.0
 40
2.0
 40
3.0
 40
3.0
 40
3.0
 40
4.0
 40
4.0
 40
4.0
 40
5.0
 40
5.0
 40
5.0
 40
5.0
 10
371.9094264478213
 20
541.159905192401
 30
0.0
 10
371.4874022508782
 20
541.1686901858884
 30
0.0
 10
371.0081894688799
 20
541.0939316138584
 30
0.0
 10
371.0081894688799
 20
540.6808646651771
 30
0.0
 10
371.0081894688799
 20
540.4304062233994
 30
0.0
 10
371.1752765999145
 20
540.3115504291583
 30
0.0
 10
371.3730250807679
 20
540.3115504291583
 30
0.0
 10
371.6498385030077
 20
540.3115504291583
 30
0.0
 10
371.8257106275297
 20
540.4874225536803
 30
0.0
 10
371.8873778367157
 20
540.6676010475588
 30
0.0
 10
371.9004691995596
 20
540.7070473908649
 30
0.0
 10
371.9094264478213
 20
540.7511446130761
 30
0.0
 10
371.9094264478213
 20
540.7907632111564
 30
0.0
 10
371.9094264478213
 20
540.7907632111564
 30
0.0
 10
371.9094264478213
 20
541.159905192401
 30
0.0
 10
371.9094264478213
 20
541.159905192401
 30
0.0
  0
SPLINE
  5
62
330
1F
100
AcDbEntity
  8
Layer 1
 62
     7
370
     9
100
AcDbSpline
210
0.0
220
0.0
230
1.0
 70
    11
 71
     3
 72
    50
 73
    46
 74
     0
 42
0.0000000001
 43
0.0000000001
 40
0.0
 40
0.0
 40
0.0
 40
0.0
 40
1.0
 40
1.0
 40
1.0
 40
2.0
 40
2.0
 40
2.0
 40
3.0
 40
3.0
 40
3.0
 40
4.0
 40
4.0
 40
4.0
 40
5.0
 40
5.0
 40
5.0
 40
6.0
 40
6.0
 40
6.0
 40
7.0
 40
7.0
 40
7.0
 40
8.0
 40
8.0
 40
8.0
 40
9.0
 40
9.0
 40
9.0
 40
10.0
 40
10.0
 40
10.0
 40
11.0
 40
11.0
 40
11.0
 40
12.0
 40
12.0
 40
12.0
 40
13.0
 40
13.0
 40
13.0
 40
14.0
 40
14.0
 40
14.0
 40
15.0
 40
15.0
 40
15.0
 40
15.0
 10
372.9079873742209
 20
541.625854356781
 30
0.0
 10
372.9079873742209
 20
541.84565144874
 30
0.0
 10
372.9036810048644
 20
542.0258299426185
 30
0.0
 10
372.8905896420204
 20
542.2015298123663
 30
0.0
 10
372.8905896420204
 20
542.2015298123663
 30
0.0
 10
373.2333766428028
 20
542.2015298123663
 30
0.0
 10
373.2333766428028
 20
542.2015298123663
 30
0.0
 10
373.2333766428028
 20
542.2015298123663
 30
0.0
 10
373.2554252539084
 20
541.8499578180965
 30
0.0
 10
373.2554252539084
 20
541.8499578180965
 30
0.0
 10
373.2554252539084
 20
541.8499578180965
 30
0.0
 10
373.2642102473958
 20
541.8499578180965
 30
0.0
 10
373.2642102473958
 20
541.8499578180965
 30
0.0
 10
373.3696301692444
 20
542.0521849230807
 30
0.0
 10
373.6157822416655
 20
542.249933403934
 30
0.0
 10
373.9675264907095
 20
542.249933403934
 30
0.0
 10
374.2617376451499
 20
542.249933403934
 30
0.0
 10
374.7190740708168
 20
542.074061279412
 30
0.0
 10
374.7190740708168
 20
541.3445623104104
 30
0.0
 10
374.7190740708168
 20
541.3445623104104
 30
0.0
 10
374.7190740708168
 20
540.0741833502245
 30
0.0
 10
374.7190740708168
 20
540.0741833502245
 30
0.0
 10
374.7190740708168
 20
540.0741833502245
 30
0.0
 10
374.3321898478232
 20
540.0741833502245
 30
0.0
 10
374.3321898478232
 20
540.0741833502245
 30
0.0
 10
374.3321898478232
 20
540.0741833502245
 30
0.0
 10
374.3321898478232
 20
541.3006373429735
 30
0.0
 10
374.3321898478232
 20
541.3006373429735
 30
0.0
 10
374.3321898478232
 20
541.6434243437558
 30
0.0
 10
374.2047213148689
 20
541.929022759483
 30
0.0
 10
373.839885702981
 20
541.929022759483
 30
0.0
 10
373.5851208918468
 20
541.929022759483
 30
0.0
 10
373.3870279014449
 20
541.7488442656045
 30
0.0
 10
373.3212265776767
 20
541.5335257977764
 30
0.0
 10
373.3036565907019
 20
541.4852944609829
 30
0.0
 10
373.2950438519887
 20
541.4191486276661
 30
0.0
 10
373.2950438519887
 20
541.3533473038977
 30
0.0
 10
373.2950438519887
 20
541.3533473038977
 30
0.0
 10
373.2950438519887
 20
540.0741833502245
 30
0.0
 10
373.2950438519887
 20
540.0741833502245
 30
0.0
 10
373.2950438519887
 20
540.0741833502245
 30
0.0
 10
372.9079873742209
 20
540.0741833502245
 30
0.0
 10
372.9079873742209
 20
540.0741833502245
 30
0.0
 10
372.9079873742209
 20
540.0741833502245
 30
0.0
 10
372.9079873742209
 20
541.625854356781
 30
0.0
 10
372.9079873742209
 20
541.625854356781
 30
0.0
  0
SPLINE
  5
63
330
1F
100
AcDbEntity
  8
Layer 1
 62
     7
370
     9
100
AcDbSpline
210
0.0
220
0.0
230
1.0
 70
    11
 71
     3
 72
    41
 73
    37
 74
     0
 42
0.0000000001
 43
0.0000000001
 40
0.0
 40
0.0
 40
0.0
 40
0.0
 40
1.0
 40
1.0
 40
1.0
 40
2.0
 40
2.0
 40
2.0
 40
3.0
 40
3.0
 40
3.0
 40
4.0
 40
4.0
 40
4.0
 40
5.0
 40
5.0
 40
5.0
 40
6.0
 40
6.0
 40
6.0
 40
7.0
 40
7.0
 40
7.0
 40
8.0
 40
8.0
 40
8.0
 40
9.0
 40
9.0
 40
9.0
 40
10.0
 40
10.0
 40
10.0
 40
11.0
 40
11.0
 40
11.0
 40
12.0
 40
12.0
 40
12.0
 40
12.0
 10
377.1862792025785
 20
543.1949230955381
 30
0.0
 10
377.1862792025785
 20
543.1949230955381
 30
0.0
 10
377.1862792025785
 20
540.6236760801219
 30
0.0
 10
377.1862792025785
 20
540.6236760801219
 30
0.0
 10
377.1862792025785
 20
540.4345403379816
 30
0.0
 10
377.1907578267093
 20
540.2192218701535
 30
0.0
 10
377.2038491895532
 20
540.0741833502245
 30
0.0
 10
377.2038491895532
 20
540.0741833502245
 30
0.0
 10
376.8565835646401
 20
540.0741833502245
 30
0.0
 10
376.8565835646401
 20
540.0741833502245
 30
0.0
 10
376.8565835646401
 20
540.0741833502245
 30
0.0
 10
376.8390135776652
 20
540.443325331469
 30
0.0
 10
376.8390135776652
 20
540.443325331469
 30
0.0
 10
376.8390135776652
 20
540.443325331469
 30
0.0
 10
376.8304008389521
 20
540.443325331469
 30
0.0
 10
376.8304008389521
 20
540.443325331469
 30
0.0
 10
376.711545044711
 20
540.2061305073096
 30
0.0
 10
376.4521293546717
 20
540.025952013431
 30
0.0
 10
376.1050359845328
 20
540.025952013431
 30
0.0
 10
375.590683228585
 20
540.025952013431
 30
0.0
 10
375.195014012104
 20
540.4610675732181
 30
0.0
 10
375.195014012104
 20
541.1070229767024
 30
0.0
 10
375.1907076427475
 20
541.814817844147
 30
0.0
 10
375.6303018266653
 20
542.249933403934
 30
0.0
 10
376.1489609519697
 20
542.249933403934
 30
0.0
 10
376.4741779657773
 20
542.249933403934
 30
0.0
 10
376.6939750577362
 20
542.0961098905177
 30
0.0
 10
376.7907822408717
 20
541.9247163901265
 30
0.0
 10
376.7907822408717
 20
541.9247163901265
 30
0.0
 10
376.7995672343591
 20
541.9247163901265
 30
0.0
 10
376.7995672343591
 20
541.9247163901265
 30
0.0
 10
376.7995672343591
 20
541.9247163901265
 30
0.0
 10
376.7995672343591
 20
543.1949230955381
 30
0.0
 10
376.7995672343591
 20
543.1949230955381
 30
0.0
 10
376.7995672343591
 20
543.1949230955381
 30
0.0
 10
377.1862792025785
 20
543.1949230955381
 30
0.0
 10
377.1862792025785
 20
543.1949230955381
 30
0.0
  0
SPLINE
  5
64
330
1F
100
AcDbEntity
  8
Layer 1
 62
     7
370
     9
100
AcDbSpline
210
0.0
220
0.0
230
1.0
 70
    11
 71
     3
 72
    26
 73
    22
 74
     0
 42
0.0000000001
 43
0.0000000001
 40
0.0
 40
0.0
 40
0.0
 40
0.0
 40
1.0
 40
1.0
 40
1.0
 40
2.0
 40
2.0
 40
2.0
 40
3.0
 40
3.0
 40
3.0
 40
4.0
 40
4.0
 40
4.0
 40
5.0
 40
5.0
 40
5.0
 40
6.0
 40
6.0
 40
6.0
 40
7.0
 40
7.0
 40
7.0
 40
7.0
 10
376.7995672343591
 20
541.3356050621487
 30
0.0
 10
376.7995672343591
 20
541.3841809084907
 30
0.0
 10
376.7950886102283
 20
541.449982232259
 30
0.0
 10
376.7818249926101
 20
541.4983858238268
 30
0.0
 10
376.724636407555
 20
541.744537896248
 30
0.0
 10
376.5137965638577
 20
541.946765001232
 30
0.0
 10
376.2237195239996
 20
541.946765001232
 30
0.0
 10
375.8237439381621
 20
541.946765001232
 30
0.0
 10
375.5862046044542
 20
541.5951930069623
 30
0.0
 10
375.5862046044542
 20
541.1245929636772
 30
0.0
 10
375.5862046044542
 20
540.693956028021
 30
0.0
 10
375.7972167029257
 20
540.3379054096204
 30
0.0
 10
376.2149345305123
 20
540.3379054096204
 30
0.0
 10
376.4741779657773
 20
540.3379054096204
 30
0.0
 10
376.711545044711
 20
540.5092989100116
 30
0.0
 10
376.7818249926101
 20
540.7993759498696
 30
0.0
 10
376.7950886102283
 20
540.8522581655682
 30
0.0
 10
376.7995672343591
 20
540.9047958717183
 30
0.0
 10
376.7995672343591
 20
540.9664630809042
 30
0.0
 10
376.7995672343591
 20
540.9664630809042
 30
0.0
 10
376.7995672343591
 20
541.3356050621487
 30
0.0
 10
376.7995672343591
 20
541.3356050621487
 30
0.0
  0
SPLINE
  5
65
330
1F
100
AcDbEntity
  8
Layer 1
 62
     7
370
     9
100
AcDbSpline
210
0.0
220
0.0
230
1.0
 70
    11
 71
     3
 72
    47
 73
    43
 74
     0
 42
0.0000000001
 43
0.0000000001
 40
0.0
 40
0.0
 40
0.0
 40
0.0
 40
1.0
 40
1.0
 40
1.0
 40
2.0
 40
2.0
 40
2.0
 40
3.0
 40
3.0
 40
3.0
 40
4.0
 40
4.0
 40
4.0
 40
5.0
 40
5.0
 40
5.0
 40
6.0
 40
6.0
 40
6.0
 40
7.0
 40
7.0
 40
7.0
 40
8.0
 40
8.0
 40
8.0
 40
9.0
 40
9.0
 40
9.0
 40
10.0
 40
10.0
 40
10.0
 40
11.0
 40
11.0
 40
11.0
 40
12.0
 40
12.0
 40
12.0
 40
13.0
 40
13.0
 40
13.0
 40
14.0
 40
14.0
 40
14.0
 40
14.0
 10
379.9395995143901
 20
540.0741833502245
 30
0.0
 10
379.9395995143901
 20
540.0741833502245
 30
0.0
 10
379.9087659097971
 20
540.342211778977
 30
0.0
 10
379.9087659097971
 20
540.342211778977
 30
0.0
 10
379.9087659097971
 20
540.342211778977
 30
0.0
 10
379.8955022921789
 20
540.342211778977
 30
0.0
 10
379.8955022921789
 20
540.342211778977
 30
0.0
 10
379.7769910074863
 20
540.1752969027166
 30
0.0
 10
379.54840892204
 20
540.025952013431
 30
0.0
 10
379.2450682645638
 20
540.025952013431
 30
0.0
 10
378.8144313289075
 20
540.025952013431
 30
0.0
 10
378.5946342369486
 20
540.329120416133
 30
0.0
 10
378.5946342369486
 20
540.6367674429658
 30
0.0
 10
378.5946342369486
 20
541.1511201989136
 30
0.0
 10
379.051626153067
 20
541.4324122452842
 30
0.0
 10
379.8736259358476
 20
541.4279336211534
 30
0.0
 10
379.8736259358476
 20
541.4279336211534
 30
0.0
 10
379.8736259358476
 20
541.4720308433647
 30
0.0
 10
379.8736259358476
 20
541.4720308433647
 30
0.0
 10
379.8736259358476
 20
541.6477307131124
 30
0.0
 10
379.8252223442798
 20
541.9643349882068
 30
0.0
 10
379.3902790392671
 20
541.9643349882068
 30
0.0
 10
379.1923583036394
 20
541.9643349882068
 30
0.0
 10
378.9858248292987
 20
541.9026677790209
 30
0.0
 10
378.8363076852389
 20
541.8060328506597
 30
0.0
 10
378.8363076852389
 20
541.8060328506597
 30
0.0
 10
378.7482854955907
 20
542.0609699165681
 30
0.0
 10
378.7482854955907
 20
542.0609699165681
 30
0.0
 10
378.924329874887
 20
542.1753470866784
 30
0.0
 10
379.1790946860212
 20
542.249933403934
 30
0.0
 10
379.4472953695479
 20
542.249933403934
 30
0.0
 10
380.0977293971631
 20
542.249933403934
 30
0.0
 10
380.2560315347103
 20
541.8060328506597
 30
0.0
 10
380.2560315347103
 20
541.37970228436
 30
0.0
 10
380.2560315347103
 20
541.37970228436
 30
0.0
 10
380.2560315347103
 20
540.5840574820415
 30
0.0
 10
380.2560315347103
 20
540.5840574820415
 30
0.0
 10
380.2560315347103
 20
540.3995726188064
 30
0.0
 10
380.2648165281977
 20
540.2192218701535
 30
0.0
 10
380.2913437634341
 20
540.0741833502245
 30
0.0
 10
380.2913437634341
 20
540.0741833502245
 30
0.0
 10
379.9395995143901
 20
540.0741833502245
 30
0.0
 10
379.9395995143901
 20
540.0741833502245
 30
0.0
  0
SPLINE
  5
66
330
1F
100
AcDbEntity
  8
Layer 1
 62
     7
370
     9
100
AcDbSpline
210
0.0
220
0.0
230
1.0
 70
    11
 71
     3
 72
    20
 73
    16
 74
     0
 42
0.0000000001
 43
0.0000000001
 40
0.0
 40
0.0
 40
0.0
 40
0.0
 40
1.0
 40
1.0
 40
1.0
 40
2.0
 40
2.0
 40
2.0
 40
3.0
 40
3.0
 40
3.0
 40
4.0
 40
4.0
 40
4.0
 40
5.0
 40
5.0
 40
5.0
 40
5.0
 10
379.882410929335
 20
541.159905192401
 30
0.0
 10
379.4603867323918
 20
541.1686901858884
 30
0.0
 10
378.9813462051679
 20
541.0939316138584
 30
0.0
 10
378.9813462051679
 20
540.6808646651771
 30
0.0
 10
378.9813462051679
 20
540.4304062233994
 30
0.0
 10
379.1484333362025
 20
540.3115504291583
 30
0.0
 10
379.3461818170558
 20
540.3115504291583
 30
0.0
 10
379.6229952392957
 20
540.3115504291583
 30
0.0
 10
379.7990396185919
 20
540.4874225536803
 30
0.0
 10
379.8605345730036
 20
540.6676010475588
 30
0.0
 10
379.8736259358476
 20
540.7070473908649
 30
0.0
 10
379.882410929335
 20
540.7511446130761
 30
0.0
 10
379.882410929335
 20
540.7907632111564
 30
0.0
 10
379.882410929335
 20
540.7907632111564
 30
0.0
 10
379.882410929335
 20
541.159905192401
 30
0.0
 10
379.882410929335
 20
541.159905192401
 30
0.0
  0
SPLINE
  5
67
330
1F
100
AcDbEntity
  8
Layer 1
 62
     7
370
     9
100
AcDbSpline
210
0.0
220
0.0
230
1.0
 70
    11
 71
     3
 72
    56
 73
    52
 74
     0
 42
0.0000000001
 43
0.0000000001
 40
0.0
 40
0.0
 40
0.0
 40
0.0
 40
1.0
 40
1.0
 40
1.0
 40
2.0
 40
2.0
 40
2.0
 40
3.0
 40
3.0
 40
3.0
 40
4.0
 40
4.0
 40
4.0
 40
5.0
 40
5.0
 40
5.0
 40
6.0
 40
6.0
 40
6.0
 40
7.0
 40
7.0
 40
7.0
 40
8.0
 40
8.0
 40
8.0
 40
9.0
 40
9.0
 40
9.0
 40
10.0
 40
10.0
 40
10.0
 40
11.0
 40
11.0
 40
11.0
 40
12.0
 40
12.0
 40
12.0
 40
13.0
 40
13.0
 40
13.0
 40
14.0
 40
14.0
 40
14.0
 40
15.0
 40
15.0
 40
15.0
 40
16.0
 40
16.0
 40
16.0
 40
17.0
 40
17.0
 40
17.0
 40
17.0
 10
381.3298677974627
 20
542.8125174966754
 30
0.0
 10
381.3298677974627
 20
542.8125174966754
 30
0.0
 10
381.3298677974627
 20
542.2015298123663
 30
0.0
 10
381.3298677974627
 20
542.2015298123663
 30
0.0
 10
381.3298677974627
 20
542.2015298123663
 30
0.0
 10
381.8836668967166
 20
542.2015298123663
 30
0.0
 10
381.8836668967166
 20
542.2015298123663
 30
0.0
 10
381.8836668967166
 20
542.2015298123663
 30
0.0
 10
381.8836668967166
 20
541.9071464031517
 30
0.0
 10
381.8836668967166
 20
541.9071464031517
 30
0.0
 10
381.8836668967166
 20
541.9071464031517
 30
0.0
 10
381.3298677974627
 20
541.9071464031517
 30
0.0
 10
381.3298677974627
 20
541.9071464031517
 30
0.0
 10
381.3298677974627
 20
541.9071464031517
 30
0.0
 10
381.3298677974627
 20
540.7599296065636
 30
0.0
 10
381.3298677974627
 20
540.7599296065636
 30
0.0
 10
381.3298677974627
 20
540.4962075471676
 30
0.0
 10
381.4044541147184
 20
540.3466904031078
 30
0.0
 10
381.6199448373207
 20
540.3466904031078
 30
0.0
 10
381.7210583898128
 20
540.3466904031078
 30
0.0
 10
381.7956447070684
 20
540.359954020726
 30
0.0
 10
381.8440482986362
 20
540.37304538357
 30
0.0
 10
381.8440482986362
 20
540.37304538357
 30
0.0
 10
381.861618285611
 20
540.082968343712
 30
0.0
 10
381.861618285611
 20
540.082968343712
 30
0.0
 10
381.7868597135811
 20
540.052134739119
 30
0.0
 10
381.6683484288885
 20
540.0300861280133
 30
0.0
 10
381.5188312848287
 20
540.0300861280133
 30
0.0
 10
381.3386527909501
 20
540.0300861280133
 30
0.0
 10
381.193614271021
 20
540.0874469678428
 30
0.0
 10
381.1011134572421
 20
540.1928668896913
 30
0.0
 10
380.9913871660369
 20
540.3072440598016
 30
0.0
 10
380.9517685679565
 20
540.4962075471676
 30
0.0
 10
380.9517685679565
 20
540.7466659889453
 30
0.0
 10
380.9517685679565
 20
540.7466659889453
 30
0.0
 10
380.9517685679565
 20
541.9071464031517
 30
0.0
 10
380.9517685679565
 20
541.9071464031517
 30
0.0
 10
380.9517685679565
 20
541.9071464031517
 30
0.0
 10
380.6220729300181
 20
541.9071464031517
 30
0.0
 10
380.6220729300181
 20
541.9071464031517
 30
0.0
 10
380.6220729300181
 20
541.9071464031517
 30
0.0
 10
380.6220729300181
 20
542.2015298123663
 30
0.0
 10
380.6220729300181
 20
542.2015298123663
 30
0.0
 10
380.6220729300181
 20
542.2015298123663
 30
0.0
 10
380.9517685679565
 20
542.2015298123663
 30
0.0
 10
380.9517685679565
 20
542.2015298123663
 30
0.0
 10
380.9517685679565
 20
542.2015298123663
 30
0.0
 10
380.9517685679565
 20
542.7115761989576
 30
0.0
 10
380.9517685679565
 20
542.7115761989576
 30
0.0
 10
380.9517685679565
 20
542.7115761989576
 30
0.0
 10
381.3298677974627
 20
542.8125174966754
 30
0.0
 10
381.3298677974627
 20
542.8125174966754
 30
0.0
  0
SPLINE
  5
68
330
1F
100
AcDbEntity
  8
Layer 1
 62
     7
370
     9
100
AcDbSpline
210
0.0
220
0.0
230
1.0
 70
    11
 71
     3
 72
    17
 73
    13
 74
     0
 42
0.0000000001
 43
0.0000000001
 40
0.0
 40
0.0
 40
0.0
 40
0.0
 40
1.0
 40
1.0
 40
1.0
 40
2.0
 40
2.0
 40
2.0
 40
3.0
 40
3.0
 40
3.0
 40
4.0
 40
4.0
 40
4.0
 40
4.0
 10
384.2184081070704
 20
541.1554265682702
 30
0.0
 10
384.2184081070704
 20
540.3687390142134
 30
0.0
 10
383.6733940013039
 20
540.025952013431
 30
0.0
 10
383.1590412453561
 20
540.025952013431
 30
0.0
 10
382.5831935349966
 20
540.025952013431
 30
0.0
 10
382.1392929817221
 20
540.4478039555999
 30
0.0
 10
382.1392929817221
 20
541.1202865943206
 30
0.0
 10
382.1392929817221
 20
541.8323878311218
 30
0.0
 10
382.6052421461022
 20
542.249933403934
 30
0.0
 10
383.1941812193056
 20
542.249933403934
 30
0.0
 10
383.805341158389
 20
542.249933403934
 30
0.0
 10
384.2184081070704
 20
541.8060328506597
 30
0.0
 10
384.2184081070704
 20
541.1554265682702
 30
0.0
  0
SPLINE
  5
69
330
1F
100
AcDbEntity
  8
Layer 1
 62
     7
370
     9
100
AcDbSpline
210
0.0
220
0.0
230
1.0
 70
    11
 71
     3
 72
    17
 73
    13
 74
     0
 42
0.0000000001
 43
0.0000000001
 40
0.0
 40
0.0
 40
0.0
 40
0.0
 40
1.0
 40
1.0
 40
1.0
 40
2.0
 40
2.0
 40
2.0
 40
3.0
 40
3.0
 40
3.0
 40
4.0
 40
4.0
 40
4.0
 40
4.0
 10
382.5304835740723
 20
541.1335502119389
 30
0.0
 10
382.5304835740723
 20
540.6676010475588
 30
0.0
 10
382.7986842575989
 20
540.3160290532891
 30
0.0
 10
383.1766112323309
 20
540.3160290532891
 30
0.0
 10
383.5459254683497
 20
540.3160290532891
 30
0.0
 10
383.8229111453637
 20
540.663122423428
 30
0.0
 10
383.8229111453637
 20
541.1423352054262
 30
0.0
 10
383.8229111453637
 20
541.5028644479577
 30
0.0
 10
383.6427326514852
 20
541.959856364076
 30
0.0
 10
383.1853962258182
 20
541.959856364076
 30
0.0
 10
382.7284043096998
 20
541.959856364076
 30
0.0
 10
382.5304835740723
 20
541.5378321671329
 30
0.0
 10
382.5304835740723
 20
541.1335502119389
 30
0.0
  0
SPLINE
  5
6A
330
1F
100
AcDbEntity
  8
Layer 1
 62
     7
370
     9
100
AcDbSpline
210
0.0
220
0.0
230
1.0
 70
    11
 71
     3
 72
    80
 73
    76
 74
     0
 42
0.0000000001
 43
0.0000000001
 40
0.0
 40
0.0
 40
0.0
 40
0.0
 40
1.0
 40
1.0
 40
1.0
 40
2.0
 40
2.0
 40
2.0
 40
3.0
 40
3.0
 40
3.0
 40
4.0
 40
4.0
 40
4.0
 40
5.0
 40
5.0
 40
5.0
 40
6.0
 40
6.0
 40
6.0
 40
7.0
 40
7.0
 40
7.0
 40
8.0
 40
8.0
 40
8.0
 40
9.0
 40
9.0
 40
9.0
 40
10.0
 40
10.0
 40
10.0
 40
11.0
 40
11.0
 40
11.0
 40
12.0
 40
12.0
 40
12.0
 40
13.0
 40
13.0
 40
13.0
 40
14.0
 40
14.0
 40
14.0
 40
15.0
 40
15.0
 40
15.0
 40
16.0
 40
16.0
 40
16.0
 40
17.0
 40
17.0
 40
17.0
 40
18.0
 40
18.0
 40
18.0
 40
19.0
 40
19.0
 40
19.0
 40
20.0
 40
20.0
 40
20.0
 40
21.0
 40
21.0
 40
21.0
 40
22.0
 40
22.0
 40
22.0
 40
23.0
 40
23.0
 40
23.0
 40
24.0
 40
24.0
 40
24.0
 40
25.0
 40
25.0
 40
25.0
 40
25.0
 10
384.7076116659759
 20
541.625854356781
 30
0.0
 10
384.7076116659759
 20
541.84565144874
 30
0.0
 10
384.7033052966193
 20
542.0258299426185
 30
0.0
 10
384.6900416790011
 20
542.2015298123663
 30
0.0
 10
384.6900416790011
 20
542.2015298123663
 30
0.0
 10
385.0283500556527
 20
542.2015298123663
 30
0.0
 10
385.0283500556527
 20
542.2015298123663
 30
0.0
 10
385.0283500556527
 20
542.2015298123663
 30
0.0
 10
385.0459200426274
 20
541.858742811584
 30
0.0
 10
385.0459200426274
 20
541.858742811584
 30
0.0
 10
385.0459200426274
 20
541.858742811584
 30
0.0
 10
385.0591836602457
 20
541.858742811584
 30
0.0
 10
385.0591836602457
 20
541.858742811584
 30
0.0
 10
385.1778671997125
 20
542.0609699165681
 30
0.0
 10
385.3757879353401
 20
542.249933403934
 30
0.0
 10
385.7273599296099
 20
542.249933403934
 30
0.0
 10
386.0174369694679
 20
542.249933403934
 30
0.0
 10
386.2372340614268
 20
542.074061279412
 30
0.0
 10
386.3295626204315
 20
541.8236028376344
 30
0.0
 10
386.3295626204315
 20
541.8236028376344
 30
0.0
 10
386.3383476139189
 20
541.8236028376344
 30
0.0
 10
386.3383476139189
 20
541.8236028376344
 30
0.0
 10
386.4043211924615
 20
541.9422863771013
 30
0.0
 10
386.4878647579787
 20
542.034614936106
 30
0.0
 10
386.5757146928526
 20
542.1004162598742
 30
0.0
 10
386.7030109710326
 20
542.1972234430098
 30
0.0
 10
386.843743121605
 20
542.249933403934
 30
0.0
 10
387.0459702265892
 20
542.249933403934
 30
0.0
 10
387.3272622729598
 20
542.249933403934
 30
0.0
 10
387.7449801005464
 20
542.065448540699
 30
0.0
 10
387.7449801005464
 20
541.3268200686614
 30
0.0
 10
387.7449801005464
 20
541.3268200686614
 30
0.0
 10
387.7449801005464
 20
540.0741833502245
 30
0.0
 10
387.7449801005464
 20
540.0741833502245
 30
0.0
 10
387.7449801005464
 20
540.0741833502245
 30
0.0
 10
387.3668808710402
 20
540.0741833502245
 30
0.0
 10
387.3668808710402
 20
540.0741833502245
 30
0.0
 10
387.3668808710402
 20
540.0741833502245
 30
0.0
 10
387.3668808710402
 20
541.2785887318679
 30
0.0
 10
387.3668808710402
 20
541.2785887318679
 30
0.0
 10
387.3668808710402
 20
541.6871770564185
 30
0.0
 10
387.2173637269804
 20
541.9335013836138
 30
0.0
 10
386.9052380760168
 20
541.9335013836138
 30
0.0
 10
386.6854409840578
 20
541.9335013836138
 30
0.0
 10
386.5140474836667
 20
541.77089287671
 30
0.0
 10
386.4482461598984
 20
541.5817571345699
 30
0.0
 10
386.4306761729236
 20
541.5290471736455
 30
0.0
 10
386.4174125553054
 20
541.4587672257464
 30
0.0
 10
386.4174125553054
 20
541.3884872778474
 30
0.0
 10
386.4174125553054
 20
541.3884872778474
 30
0.0
 10
386.4174125553054
 20
540.0741833502245
 30
0.0
 10
386.4174125553054
 20
540.0741833502245
 30
0.0
 10
386.4174125553054
 20
540.0741833502245
 30
0.0
 10
386.0393133257992
 20
540.0741833502245
 30
0.0
 10
386.0393133257992
 20
540.0741833502245
 30
0.0
 10
386.0393133257992
 20
540.0741833502245
 30
0.0
 10
386.0393133257992
 20
541.348868679767
 30
0.0
 10
386.0393133257992
 20
541.348868679767
 30
0.0
 10
386.0393133257992
 20
541.6871770564185
 30
0.0
 10
385.8899684365136
 20
541.9335013836138
 30
0.0
 10
385.595585027299
 20
541.9335013836138
 30
0.0
 10
385.3537393242345
 20
541.9335013836138
 30
0.0
 10
385.1778671997125
 20
541.740059272117
 30
0.0
 10
385.1163722453008
 20
541.5466171606204
 30
0.0
 10
385.0944958889694
 20
541.4894285755652
 30
0.0
 10
385.0855386407078
 20
541.4236272517969
 30
0.0
 10
385.0855386407078
 20
541.3576536732544
 30
0.0
 10
385.0855386407078
 20
541.3576536732544
 30
0.0
 10
385.0855386407078
 20
540.0741833502245
 30
0.0
 10
385.0855386407078
 20
540.0741833502245
 30
0.0
 10
385.0855386407078
 20
540.0741833502245
 30
0.0
 10
384.7076116659759
 20
540.0741833502245
 30
0.0
 10
384.7076116659759
 20
540.0741833502245
 30
0.0
 10
384.7076116659759
 20
540.0741833502245
 30
0.0
 10
384.7076116659759
 20
541.625854356781
 30
0.0
 10
384.7076116659759
 20
541.625854356781
 30
0.0
  0
SPLINE
  5
6B
330
1F
100
AcDbEntity
  8
Layer 1
 62
     7
370
     9
100
AcDbSpline
210
0.0
220
0.0
230
1.0
 70
    11
 71
     3
 72
    47
 73
    43
 74
     0
 42
0.0000000001
 43
0.0000000001
 40
0.0
 40
0.0
 40
0.0
 40
0.0
 40
1.0
 40
1.0
 40
1.0
 40
2.0
 40
2.0
 40
2.0
 40
3.0
 40
3.0
 40
3.0
 40
4.0
 40
4.0
 40
4.0
 40
5.0
 40
5.0
 40
5.0
 40
6.0
 40
6.0
 40
6.0
 40
7.0
 40
7.0
 40
7.0
 40
8.0
 40
8.0
 40
8.0
 40
9.0
 40
9.0
 40
9.0
 40
10.0
 40
10.0
 40
10.0
 40
11.0
 40
11.0
 40
11.0
 40
12.0
 40
12.0
 40
12.0
 40
13.0
 40
13.0
 40
13.0
 40
14.0
 40
14.0
 40
14.0
 40
14.0
 10
388.3225503586485
 20
540.4698525667055
 30
0.0
 10
388.4369275287588
 20
540.3950939946756
 30
0.0
 10
388.639154633743
 20
540.3160290532891
 30
0.0
 10
388.8325967452398
 20
540.3160290532891
 30
0.0
 10
389.1138887916104
 20
540.3160290532891
 30
0.0
 10
389.2456636939212
 20
540.4565889490873
 30
0.0
 10
389.2456636939212
 20
540.632288818835
 30
0.0
 10
389.2456636939212
 20
540.8169459368444
 30
0.0
 10
389.1357651479418
 20
540.9182317441107
 30
0.0
 10
388.8501667322146
 20
541.0236516659594
 30
0.0
 10
388.4677611333518
 20
541.159905192401
 30
0.0
 10
388.2875826394733
 20
541.3709172908726
 30
0.0
 10
388.2875826394733
 20
541.625854356781
 30
0.0
 10
388.2875826394733
 20
541.9686413575635
 30
0.0
 10
388.5643960617131
 20
542.249933403934
 30
0.0
 10
389.0215602326057
 20
542.249933403934
 30
0.0
 10
389.2368787004339
 20
542.249933403934
 30
0.0
 10
389.4258421877998
 20
542.1884384495223
 30
0.0
 10
389.5446979820409
 20
542.1181585016233
 30
0.0
 10
389.5446979820409
 20
542.1181585016233
 30
0.0
 10
389.4478907989054
 20
541.8368664552526
 30
0.0
 10
389.4478907989054
 20
541.8368664552526
 30
0.0
 10
389.3643472333881
 20
541.8894041614027
 30
0.0
 10
389.2105237199717
 20
541.959856364076
 30
0.0
 10
389.0127752391184
 20
541.959856364076
 30
0.0
 10
388.784193153672
 20
541.959856364076
 30
0.0
 10
388.6567246207178
 20
541.827909206991
 30
0.0
 10
388.6567246207178
 20
541.669779324218
 30
0.0
 10
388.6567246207178
 20
541.493907199696
 30
0.0
 10
388.784193153672
 20
541.4148422583095
 30
0.0
 10
389.0611788306861
 20
541.3092500816866
 30
0.0
 10
389.4303208119306
 20
541.1686901858884
 30
0.0
 10
389.6192842992966
 20
540.9840330678791
 30
0.0
 10
389.6192842992966
 20
540.6676010475588
 30
0.0
 10
389.6192842992966
 20
540.2939804421835
 30
0.0
 10
389.3292072594385
 20
540.0300861280133
 30
0.0
 10
388.8236394969782
 20
540.0300861280133
 30
0.0
 10
388.5909232969495
 20
540.0300861280133
 30
0.0
 10
388.3754325743471
 20
540.0874469678428
 30
0.0
 10
388.2259154302873
 20
540.1752969027166
 30
0.0
 10
388.2259154302873
 20
540.1752969027166
 30
0.0
 10
388.3225503586485
 20
540.4698525667055
 30
0.0
 10
388.3225503586485
 20
540.4698525667055
 30
0.0
  0
SPLINE
  5
6C
330
1F
100
AcDbEntity
  8
Layer 1
 62
     7
370
     9
100
AcDbSpline
210
0.0
220
0.0
230
1.0
 70
    11
 71
     3
 72
    41
 73
    37
 74
     0
 42
0.0000000001
 43
0.0000000001
 40
0.0
 40
0.0
 40
0.0
 40
0.0
 40
1.0
 40
1.0
 40
1.0
 40
2.0
 40
2.0
 40
2.0
 40
3.0
 40
3.0
 40
3.0
 40
4.0
 40
4.0
 40
4.0
 40
5.0
 40
5.0
 40
5.0
 40
6.0
 40
6.0
 40
6.0
 40
7.0
 40
7.0
 40
7.0
 40
8.0
 40
8.0
 40
8.0
 40
9.0
 40
9.0
 40
9.0
 40
10.0
 40
10.0
 40
10.0
 40
11.0
 40
11.0
 40
11.0
 40
12.0
 40
12.0
 40
12.0
 40
12.0
 10
391.031773448249
 20
540.0741833502245
 30
0.0
 10
391.0405584417364
 20
540.2192218701535
 30
0.0
 10
391.0493434352238
 20
540.4345403379816
 30
0.0
 10
391.0493434352238
 20
540.6236760801219
 30
0.0
 10
391.0493434352238
 20
540.6236760801219
 30
0.0
 10
391.0493434352238
 20
543.1949230955381
 30
0.0
 10
391.0493434352238
 20
543.1949230955381
 30
0.0
 10
391.0493434352238
 20
543.1949230955381
 30
0.0
 10
391.4317490340865
 20
543.1949230955381
 30
0.0
 10
391.4317490340865
 20
543.1949230955381
 30
0.0
 10
391.4317490340865
 20
543.1949230955381
 30
0.0
 10
391.4317490340865
 20
541.858742811584
 30
0.0
 10
391.4317490340865
 20
541.858742811584
 30
0.0
 10
391.4317490340865
 20
541.858742811584
 30
0.0
 10
391.4405340275739
 20
541.858742811584
 30
0.0
 10
391.4405340275739
 20
541.858742811584
 30
0.0
 10
391.5767875540155
 20
542.0961098905177
 30
0.0
 10
391.8229396264367
 20
542.249933403934
 30
0.0
 10
392.165726627219
 20
542.249933403934
 30
0.0
 10
392.6931707460108
 20
542.249933403934
 30
0.0
 10
393.0667913513861
 20
541.8103392200162
 30
0.0
 10
393.0624849820296
 20
541.1643838165319
 30
0.0
 10
393.0624849820296
 20
540.4038789881629
 30
0.0
 10
392.5832722000313
 20
540.025952013431
 30
0.0
 10
392.1087102969381
 20
540.025952013431
 30
0.0
 10
391.800891015331
 20
540.025952013431
 30
0.0
 10
391.5547389429099
 20
540.1444632981236
 30
0.0
 10
391.3964368053627
 20
540.4259275992686
 30
0.0
 10
391.3964368053627
 20
540.4259275992686
 30
0.0
 10
391.3833454425188
 20
540.4259275992686
 30
0.0
 10
391.3833454425188
 20
540.4259275992686
 30
0.0
 10
391.3833454425188
 20
540.4259275992686
 30
0.0
 10
391.3659477103183
 20
540.0741833502245
 30
0.0
 10
391.3659477103183
 20
540.0741833502245
 30
0.0
 10
391.3659477103183
 20
540.0741833502245
 30
0.0
 10
391.031773448249
 20
540.0741833502245
 30
0.0
 10
391.031773448249
 20
540.0741833502245
 30
0.0
  0
SPLINE
  5
6D
330
1F
100
AcDbEntity
  8
Layer 1
 62
     7
370
     9
100
AcDbSpline
210
0.0
220
0.0
230
1.0
 70
    11
 71
     3
 72
    26
 73
    22
 74
     0
 42
0.0000000001
 43
0.0000000001
 40
0.0
 40
0.0
 40
0.0
 40
0.0
 40
1.0
 40
1.0
 40
1.0
 40
2.0
 40
2.0
 40
2.0
 40
3.0
 40
3.0
 40
3.0
 40
4.0
 40
4.0
 40
4.0
 40
5.0
 40
5.0
 40
5.0
 40
6.0
 40
6.0
 40
6.0
 40
7.0
 40
7.0
 40
7.0
 40
7.0
 10
391.4317490340865
 20
540.9268444828239
 30
0.0
 10
391.4317490340865
 20
540.8786131460304
 30
0.0
 10
391.4405340275739
 20
540.8302095544626
 30
0.0
 10
391.4493190210613
 20
540.7862845870256
 30
0.0
 10
391.5240775930912
 20
540.5182561582733
 30
0.0
 10
391.748353309181
 20
540.3335990402638
 30
0.0
 10
392.0294731007774
 20
540.3335990402638
 30
0.0
 10
392.4339273107457
 20
540.3335990402638
 30
0.0
 10
392.675600759036
 20
540.663122423428
 30
0.0
 10
392.675600759036
 20
541.1511201989136
 30
0.0
 10
392.675600759036
 20
541.577278510439
 30
0.0
 10
392.455803667077
 20
541.9422863771013
 30
0.0
 10
392.0425644636213
 20
541.9422863771013
 30
0.0
 10
391.7788424042254
 20
541.9422863771013
 30
0.0
 10
391.5328625865786
 20
541.7621078832227
 30
0.0
 10
391.4537976451921
 20
541.4675522192339
 30
0.0
 10
391.4448403969305
 20
541.4236272517969
 30
0.0
 10
391.4317490340865
 20
541.3709172908726
 30
0.0
 10
391.4317490340865
 20
541.3092500816866
 30
0.0
 10
391.4317490340865
 20
541.3092500816866
 30
0.0
 10
391.4317490340865
 20
540.9268444828239
 30
0.0
 10
391.4317490340865
 20
540.9268444828239
 30
0.0
  0
SPLINE
  5
6E
330
1F
100
AcDbEntity
  8
Layer 1
 62
     7
370
     9
100
AcDbSpline
210
0.0
220
0.0
230
1.0
 70
    11
 71
     3
 72
    32
 73
    28
 74
     0
 42
0.0000000001
 43
0.0000000001
 40
0.0
 40
0.0
 40
0.0
 40
0.0
 40
1.0
 40
1.0
 40
1.0
 40
2.0
 40
2.0
 40
2.0
 40
3.0
 40
3.0
 40
3.0
 40
4.0
 40
4.0
 40
4.0
 40
5.0
 40
5.0
 40
5.0
 40
6.0
 40
6.0
 40
6.0
 40
7.0
 40
7.0
 40
7.0
 40
8.0
 40
8.0
 40
8.0
 40
9.0
 40
9.0
 40
9.0
 40
9.0
 10
393.7670070087631
 20
541.0675766333964
 30
0.0
 10
393.7757920022505
 20
540.5444388839611
 30
0.0
 10
394.1096217547712
 20
540.329120416133
 30
0.0
 10
394.4965059777648
 20
540.329120416133
 30
0.0
 10
394.7734916547789
 20
540.329120416133
 30
0.0
 10
394.9405787858135
 20
540.3775240077008
 30
0.0
 10
395.0856173057425
 20
540.4390189621125
 30
0.0
 10
395.0856173057425
 20
540.4390189621125
 30
0.0
 10
395.151590884285
 20
540.1620332850985
 30
0.0
 10
395.151590884285
 20
540.1620332850985
 30
0.0
 10
395.0151651030691
 20
540.1005383306867
 30
0.0
 10
394.7824489030405
 20
540.0300861280133
 30
0.0
 10
394.4437960168405
 20
540.0300861280133
 30
0.0
 10
393.7888833650945
 20
540.0300861280133
 30
0.0
 10
393.3976927727443
 20
540.4610675732181
 30
0.0
 10
393.3976927727443
 20
541.1028888621202
 30
0.0
 10
393.3976927727443
 20
541.744537896248
 30
0.0
 10
393.7757920022505
 20
542.249933403934
 30
0.0
 10
394.395564680047
 20
542.249933403934
 30
0.0
 10
395.0900959298733
 20
542.249933403934
 30
0.0
 10
395.2747530478827
 20
541.638945719625
 30
0.0
 10
395.2747530478827
 20
541.2477551272749
 30
0.0
 10
395.2747530478827
 20
541.1686901858884
 30
0.0
 10
395.2657957996211
 20
541.1070229767024
 30
0.0
 10
395.2614894302645
 20
541.0675766333964
 30
0.0
 10
395.2614894302645
 20
541.0675766333964
 30
0.0
 10
393.7670070087631
 20
541.0675766333964
 30
0.0
 10
393.7670070087631
 20
541.0675766333964
 30
0.0
  0
SPLINE
  5
6F
330
1F
100
AcDbEntity
  8
Layer 1
 62
     7
370
     9
100
AcDbSpline
210
0.0
220
0.0
230
1.0
 70
    11
 71
     3
 72
    14
 73
    10
 74
     0
 42
0.0000000001
 43
0.0000000001
 40
0.0
 40
0.0
 40
0.0
 40
0.0
 40
1.0
 40
1.0
 40
1.0
 40
2.0
 40
2.0
 40
2.0
 40
3.0
 40
3.0
 40
3.0
 40
3.0
 10
394.9009601877331
 20
541.3445623104104
 30
0.0
 10
394.9054388118639
 20
541.5907143828315
 30
0.0
 10
394.8000188900153
 20
541.9731199816943
 30
0.0
 10
394.364731075454
 20
541.9731199816943
 30
0.0
 10
393.9735404831039
 20
541.9731199816943
 30
0.0
 10
393.8021469827127
 20
541.6125907391629
 30
0.0
 10
393.7713133781197
 20
541.3445623104104
 30
0.0
 10
393.7713133781197
 20
541.3445623104104
 30
0.0
 10
394.9009601877331
 20
541.3445623104104
 30
0.0
 10
394.9009601877331
 20
541.3445623104104
 30
0.0
  0
SPLINE
  5
70
330
1F
100
AcDbEntity
  8
Layer 1
 62
     7
370
     9
100
AcDbSpline
210
0.0
220
0.0
230
1.0
 70
    11
 71
     3
 72
    71
 73
    67
 74
     0
 42
0.0000000001
 43
0.0000000001
 40
0.0
 40
0.0
 40
0.0
 40
0.0
 40
1.0
 40
1.0
 40
1.0
 40
2.0
 40
2.0
 40
2.0
 40
3.0
 40
3.0
 40
3.0
 40
4.0
 40
4.0
 40
4.0
 40
5.0
 40
5.0
 40
5.0
 40
6.0
 40
6.0
 40
6.0
 40
7.0
 40
7.0
 40
7.0
 40
8.0
 40
8.0
 40
8.0
 40
9.0
 40
9.0
 40
9.0
 40
10.0
 40
10.0
 40
10.0
 40
11.0
 40
11.0
 40
11.0
 40
12.0
 40
12.0
 40
12.0
 40
13.0
 40
13.0
 40
13.0
 40
14.0
 40
14.0
 40
14.0
 40
15.0
 40
15.0
 40
15.0
 40
16.0
 40
16.0
 40
16.0
 40
17.0
 40
17.0
 40
17.0
 40
18.0
 40
18.0
 40
18.0
 40
19.0
 40
19.0
 40
19.0
 40
20.0
 40
20.0
 40
20.0
 40
21.0
 40
21.0
 40
21.0
 40
22.0
 40
22.0
 40
22.0
 40
22.0
 10
396.8412379650258
 20
542.2015298123663
 30
0.0
 10
396.8412379650258
 20
542.2015298123663
 30
0.0
 10
397.1225300113965
 20
541.1202865943206
 30
0.0
 10
397.1225300113965
 20
541.1202865943206
 30
0.0
 10
397.1840249658082
 20
540.8830917701612
 30
0.0
 10
397.2412135508633
 20
540.663122423428
 30
0.0
 10
397.2808321489437
 20
540.443325331469
 30
0.0
 10
397.2808321489437
 20
540.443325331469
 30
0.0
 10
397.2939235117876
 20
540.443325331469
 30
0.0
 10
397.2939235117876
 20
540.443325331469
 30
0.0
 10
397.3423271033554
 20
540.6588160540714
 30
0.0
 10
397.4126070512545
 20
540.8873981395178
 30
0.0
 10
397.4830592539279
 20
541.1158079701898
 30
0.0
 10
397.4830592539279
 20
541.1158079701898
 30
0.0
 10
397.8301526240668
 20
542.2015298123663
 30
0.0
 10
397.8301526240668
 20
542.2015298123663
 30
0.0
 10
397.8301526240668
 20
542.2015298123663
 30
0.0
 10
398.1555418926486
 20
542.2015298123663
 30
0.0
 10
398.1555418926486
 20
542.2015298123663
 30
0.0
 10
398.1555418926486
 20
542.2015298123663
 30
0.0
 10
398.4850652758128
 20
541.1378565812954
 30
0.0
 10
398.4850652758128
 20
541.1378565812954
 30
0.0
 10
398.5641302171992
 20
540.8830917701612
 30
0.0
 10
398.6257974263852
 20
540.6588160540714
 30
0.0
 10
398.6740287631787
 20
540.443325331469
 30
0.0
 10
398.6740287631787
 20
540.443325331469
 30
0.0
 10
398.6872923807969
 20
540.443325331469
 30
0.0
 10
398.6872923807969
 20
540.443325331469
 30
0.0
 10
398.7224323547465
 20
540.6588160540714
 30
0.0
 10
398.7796209398016
 20
540.8830917701612
 30
0.0
 10
398.850073142475
 20
541.1335502119389
 30
0.0
 10
398.850073142475
 20
541.1335502119389
 30
0.0
 10
399.153241545177
 20
542.2015298123663
 30
0.0
 10
399.153241545177
 20
542.2015298123663
 30
0.0
 10
399.153241545177
 20
542.2015298123663
 30
0.0
 10
399.5356471440397
 20
542.2015298123663
 30
0.0
 10
399.5356471440397
 20
542.2015298123663
 30
0.0
 10
399.5356471440397
 20
542.2015298123663
 30
0.0
 10
398.850073142475
 20
540.0741833502245
 30
0.0
 10
398.850073142475
 20
540.0741833502245
 30
0.0
 10
398.850073142475
 20
540.0741833502245
 30
0.0
 10
398.498328893431
 20
540.0741833502245
 30
0.0
 10
398.498328893431
 20
540.0741833502245
 30
0.0
 10
398.498328893431
 20
540.0741833502245
 30
0.0
 10
398.1729396248492
 20
541.0896252445019
 30
0.0
 10
398.1729396248492
 20
541.0896252445019
 30
0.0
 10
398.0983533075935
 20
541.3268200686614
 30
0.0
 10
398.0368583531818
 20
541.5378321671329
 30
0.0
 10
397.9839761374832
 20
541.7884628636848
 30
0.0
 10
397.9839761374832
 20
541.7884628636848
 30
0.0
 10
397.9751911439958
 20
541.7884628636848
 30
0.0
 10
397.9751911439958
 20
541.7884628636848
 30
0.0
 10
397.9224811830715
 20
541.5335257977764
 30
0.0
 10
397.8565076045289
 20
541.3137287058174
 30
0.0
 10
397.781749032499
 20
541.0851466203711
 30
0.0
 10
397.781749032499
 20
541.0851466203711
 30
0.0
 10
397.4389620317166
 20
540.0741833502245
 30
0.0
 10
397.4389620317166
 20
540.0741833502245
 30
0.0
 10
397.4389620317166
 20
540.0741833502245
 30
0.0
 10
397.0872177826727
 20
540.0741833502245
 30
0.0
 10
397.0872177826727
 20
540.0741833502245
 30
0.0
 10
397.0872177826727
 20
540.0741833502245
 30
0.0
 10
396.4455687485449
 20
542.2015298123663
 30
0.0
 10
396.4455687485449
 20
542.2015298123663
 30
0.0
 10
396.4455687485449
 20
542.2015298123663
 30
0.0
 10
396.8412379650258
 20
542.2015298123663
 30
0.0
 10
396.8412379650258
 20
542.2015298123663
 30
0.0
  0
SPLINE
  5
71
330
1F
100
AcDbEntity
  8
Layer 1
 62
     7
370
     9
100
AcDbSpline
210
0.0
220
0.0
230
1.0
 70
    11
 71
     3
 72
    17
 73
    13
 74
     0
 42
0.0000000001
 43
0.0000000001
 40
0.0
 40
0.0
 40
0.0
 40
0.0
 40
1.0
 40
1.0
 40
1.0
 40
2.0
 40
2.0
 40
2.0
 40
3.0
 40
3.0
 40
3.0
 40
4.0
 40
4.0
 40
4.0
 40
4.0
 10
400.3547185956579
 20
542.7994261338314
 30
0.0
 10
400.3591972197887
 20
542.6676512315206
 30
0.0
 10
400.2623900366532
 20
542.5618868001235
 30
0.0
 10
400.108738778011
 20
542.5618868001235
 30
0.0
 10
399.9723129967952
 20
542.5618868001235
 30
0.0
 10
399.8756780684339
 20
542.6676512315206
 30
0.0
 10
399.8756780684339
 20
542.7994261338314
 30
0.0
 10
399.8756780684339
 20
542.9356796602731
 30
0.0
 10
399.976791620926
 20
543.0412718368959
 30
0.0
 10
400.1175237714984
 20
543.0412718368959
 30
0.0
 10
400.2623900366532
 20
543.0412718368959
 30
0.0
 10
400.3547185956579
 20
542.9356796602731
 30
0.0
 10
400.3547185956579
 20
542.7994261338314
 30
0.0
  0
POLYLINE
  5
72
330
1F
100
AcDbEntity
  8
Layer 1
 62
     7
370
     9
100
AcDb2dPolyline
 66
     1
 10
0.0
 20
0.0
 30
0.0
  0
VERTEX
  5
73
330
72
100
AcDbEntity
  8
Layer 1
 62
     7
370
     9
100
AcDbVertex
100
AcDb2dVertex
 10
399.9240816600017
 20
540.0741833502245
 30
0.0
  0
VERTEX
  5
74
330
72
100
AcDbEntity
  8
Layer 1
 62
     7
370
     9
100
AcDbVertex
100
AcDb2dVertex
 10
399.9240816600017
 20
542.2015298123663
 30
0.0
  0
VERTEX
  5
75
330
72
100
AcDbEntity
  8
Layer 1
 62
     7
370
     9
100
AcDbVertex
100
AcDb2dVertex
 10
400.3109658829952
 20
542.2015298123663
 30
0.0
  0
VERTEX
  5
76
330
72
100
AcDbEntity
  8
Layer 1
 62
     7
370
     9
100
AcDbVertex
100
AcDb2dVertex
 10
400.3109658829952
 20
540.0741833502245
 30
0.0
  0
VERTEX
  5
77
330
72
100
AcDbEntity
  8
Layer 1
 62
     7
370
     9
100
AcDbVertex
100
AcDb2dVertex
 10
399.9240816600017
 20
540.0741833502245
 30
0.0
  0
SEQEND
  5
78
330
72
100
AcDbEntity
  8
Layer 1
370
     9
  0
SPLINE
  5
79
330
1F
100
AcDbEntity
  8
Layer 1
 62
     7
370
     9
100
AcDbSpline
210
0.0
220
0.0
230
1.0
 70
    11
 71
     3
 72
    56
 73
    52
 74
     0
 42
0.0000000001
 43
0.0000000001
 40
0.0
 40
0.0
 40
0.0
 40
0.0
 40
1.0
 40
1.0
 40
1.0
 40
2.0
 40
2.0
 40
2.0
 40
3.0
 40
3.0
 40
3.0
 40
4.0
 40
4.0
 40
4.0
 40
5.0
 40
5.0
 40
5.0
 40
6.0
 40
6.0
 40
6.0
 40
7.0
 40
7.0
 40
7.0
 40
8.0
 40
8.0
 40
8.0
 40
9.0
 40
9.0
 40
9.0
 40
10.0
 40
10.0
 40
10.0
 40
11.0
 40
11.0
 40
11.0
 40
12.0
 40
12.0
 40
12.0
 40
13.0
 40
13.0
 40
13.0
 40
14.0
 40
14.0
 40
14.0
 40
15.0
 40
15.0
 40
15.0
 40
16.0
 40
16.0
 40
16.0
 40
17.0
 40
17.0
 40
17.0
 40
17.0
 10
401.4190808458258
 20
542.8125174966754
 30
0.0
 10
401.4190808458258
 20
542.8125174966754
 30
0.0
 10
401.4190808458258
 20
542.2015298123663
 30
0.0
 10
401.4190808458258
 20
542.2015298123663
 30
0.0
 10
401.4190808458258
 20
542.2015298123663
 30
0.0
 10
401.973052199854
 20
542.2015298123663
 30
0.0
 10
401.973052199854
 20
542.2015298123663
 30
0.0
 10
401.973052199854
 20
542.2015298123663
 30
0.0
 10
401.973052199854
 20
541.9071464031517
 30
0.0
 10
401.973052199854
 20
541.9071464031517
 30
0.0
 10
401.973052199854
 20
541.9071464031517
 30
0.0
 10
401.4190808458258
 20
541.9071464031517
 30
0.0
 10
401.4190808458258
 20
541.9071464031517
 30
0.0
 10
401.4190808458258
 20
541.9071464031517
 30
0.0
 10
401.4190808458258
 20
540.7599296065636
 30
0.0
 10
401.4190808458258
 20
540.7599296065636
 30
0.0
 10
401.4190808458258
 20
540.4962075471676
 30
0.0
 10
401.4938394178557
 20
540.3466904031078
 30
0.0
 10
401.7091578856839
 20
540.3466904031078
 30
0.0
 10
401.8104436929502
 20
540.3466904031078
 30
0.0
 10
401.8850300102059
 20
540.359954020726
 30
0.0
 10
401.9334336017736
 20
540.37304538357
 30
0.0
 10
401.9334336017736
 20
540.37304538357
 30
0.0
 10
401.9510035887484
 20
540.082968343712
 30
0.0
 10
401.9510035887484
 20
540.082968343712
 30
0.0
 10
401.8762450167185
 20
540.052134739119
 30
0.0
 10
401.7575614772516
 20
540.0300861280133
 30
0.0
 10
401.608216587966
 20
540.0300861280133
 30
0.0
 10
401.4280380940875
 20
540.0300861280133
 30
0.0
 10
401.2828273193842
 20
540.0874469678428
 30
0.0
 10
401.1904987603795
 20
540.1928668896913
 30
0.0
 10
401.0806002144
 20
540.3072440598016
 30
0.0
 10
401.0411538710939
 20
540.4962075471676
 30
0.0
 10
401.0411538710939
 20
540.7466659889453
 30
0.0
 10
401.0411538710939
 20
540.7466659889453
 30
0.0
 10
401.0411538710939
 20
541.9071464031517
 30
0.0
 10
401.0411538710939
 20
541.9071464031517
 30
0.0
 10
401.0411538710939
 20
541.9071464031517
 30
0.0
 10
400.7114582331555
 20
541.9071464031517
 30
0.0
 10
400.7114582331555
 20
541.9071464031517
 30
0.0
 10
400.7114582331555
 20
541.9071464031517
 30
0.0
 10
400.7114582331555
 20
542.2015298123663
 30
0.0
 10
400.7114582331555
 20
542.2015298123663
 30
0.0
 10
400.7114582331555
 20
542.2015298123663
 30
0.0
 10
401.0411538710939
 20
542.2015298123663
 30
0.0
 10
401.0411538710939
 20
542.2015298123663
 30
0.0
 10
401.0411538710939
 20
542.2015298123663
 30
0.0
 10
401.0411538710939
 20
542.7115761989576
 30
0.0
 10
401.0411538710939
 20
542.7115761989576
 30
0.0
 10
401.0411538710939
 20
542.7115761989576
 30
0.0
 10
401.4190808458258
 20
542.8125174966754
 30
0.0
 10
401.4190808458258
 20
542.8125174966754
 30
0.0
  0
SPLINE
  5
7A
330
1F
100
AcDbEntity
  8
Layer 1
 62
     7
370
     9
100
AcDbSpline
210
0.0
220
0.0
230
1.0
 70
    11
 71
     3
 72
    50
 73
    46
 74
     0
 42
0.0000000001
 43
0.0000000001
 40
0.0
 40
0.0
 40
0.0
 40
0.0
 40
1.0
 40
1.0
 40
1.0
 40
2.0
 40
2.0
 40
2.0
 40
3.0
 40
3.0
 40
3.0
 40
4.0
 40
4.0
 40
4.0
 40
5.0
 40
5.0
 40
5.0
 40
6.0
 40
6.0
 40
6.0
 40
7.0
 40
7.0
 40
7.0
 40
8.0
 40
8.0
 40
8.0
 40
9.0
 40
9.0
 40
9.0
 40
10.0
 40
10.0
 40
10.0
 40
11.0
 40
11.0
 40
11.0
 40
12.0
 40
12.0
 40
12.0
 40
13.0
 40
13.0
 40
13.0
 40
14.0
 40
14.0
 40
14.0
 40
15.0
 40
15.0
 40
15.0
 40
15.0
 10
402.4088567787381
 20
543.1949230955381
 30
0.0
 10
402.4088567787381
 20
543.1949230955381
 30
0.0
 10
402.7959132565059
 20
543.1949230955381
 30
0.0
 10
402.7959132565059
 20
543.1949230955381
 30
0.0
 10
402.7959132565059
 20
543.1949230955381
 30
0.0
 10
402.7959132565059
 20
541.8677000598456
 30
0.0
 10
402.7959132565059
 20
541.8677000598456
 30
0.0
 10
402.7959132565059
 20
541.8677000598456
 30
0.0
 10
402.8046982499933
 20
541.8677000598456
 30
0.0
 10
402.8046982499933
 20
541.8677000598456
 30
0.0
 10
402.866193204405
 20
541.977598605825
 30
0.0
 10
402.9628281327663
 20
542.074061279412
 30
0.0
 10
403.0815116722331
 20
542.1400348579546
 30
0.0
 10
403.1957165875692
 20
542.2060084364971
 30
0.0
 10
403.3319701140108
 20
542.249933403934
 30
0.0
 10
403.477180888714
 20
542.249933403934
 30
0.0
 10
403.7627793044413
 20
542.249933403934
 30
0.0
 10
404.2199434753339
 20
542.074061279412
 30
0.0
 10
404.2199434753339
 20
541.3400836862796
 30
0.0
 10
404.2199434753339
 20
541.3400836862796
 30
0.0
 10
404.2199434753339
 20
540.0741833502245
 30
0.0
 10
404.2199434753339
 20
540.0741833502245
 30
0.0
 10
404.2199434753339
 20
540.0741833502245
 30
0.0
 10
403.8330592523404
 20
540.0741833502245
 30
0.0
 10
403.8330592523404
 20
540.0741833502245
 30
0.0
 10
403.8330592523404
 20
540.0741833502245
 30
0.0
 10
403.8330592523404
 20
541.2961587188427
 30
0.0
 10
403.8330592523404
 20
541.2961587188427
 30
0.0
 10
403.8330592523404
 20
541.638945719625
 30
0.0
 10
403.7055907193861
 20
541.929022759483
 30
0.0
 10
403.3407551074982
 20
541.929022759483
 30
0.0
 10
403.0902966657205
 20
541.929022759483
 30
0.0
 10
402.8925481848672
 20
541.7533228897353
 30
0.0
 10
402.8220959821938
 20
541.5423107912637
 30
0.0
 10
402.8002196258624
 20
541.4894285755652
 30
0.0
 10
402.7959132565059
 20
541.4324122452842
 30
0.0
 10
402.7959132565059
 20
541.3576536732544
 30
0.0
 10
402.7959132565059
 20
541.3576536732544
 30
0.0
 10
402.7959132565059
 20
540.0741833502245
 30
0.0
 10
402.7959132565059
 20
540.0741833502245
 30
0.0
 10
402.7959132565059
 20
540.0741833502245
 30
0.0
 10
402.4088567787381
 20
540.0741833502245
 30
0.0
 10
402.4088567787381
 20
540.0741833502245
 30
0.0
 10
402.4088567787381
 20
540.0741833502245
 30
0.0
 10
402.4088567787381
 20
543.1949230955381
 30
0.0
 10
402.4088567787381
 20
543.1949230955381
 30
0.0
  0
SPLINE
  5
7B
330
1F
100
AcDbEntity
  8
Layer 1
 62
     7
370
     9
100
AcDbSpline
210
0.0
220
0.0
230
1.0
 70
    11
 71
     3
 72
    53
 73
    49
 74
     0
 42
0.0000000001
 43
0.0000000001
 40
0.0
 40
0.0
 40
0.0
 40
0.0
 40
1.0
 40
1.0
 40
1.0
 40
2.0
 40
2.0
 40
2.0
 40
3.0
 40
3.0
 40
3.0
 40
4.0
 40
4.0
 40
4.0
 40
5.0
 40
5.0
 40
5.0
 40
6.0
 40
6.0
 40
6.0
 40
7.0
 40
7.0
 40
7.0
 40
8.0
 40
8.0
 40
8.0
 40
9.0
 40
9.0
 40
9.0
 40
10.0
 40
10.0
 40
10.0
 40
11.0
 40
11.0
 40
11.0
 40
12.0
 40
12.0
 40
12.0
 40
13.0
 40
13.0
 40
13.0
 40
14.0
 40
14.0
 40
14.0
 40
15.0
 40
15.0
 40
15.0
 40
16.0
 40
16.0
 40
16.0
 40
16.0
 10
405.9226819189187
 20
542.2015298123663
 30
0.0
 10
405.9226819189187
 20
542.2015298123663
 30
0.0
 10
406.3886310832987
 20
540.9444144697986
 30
0.0
 10
406.3886310832987
 20
540.9444144697986
 30
0.0
 10
406.4370346748665
 20
540.8038545740004
 30
0.0
 10
406.4897446357908
 20
540.6367674429658
 30
0.0
 10
406.5248846097403
 20
540.5092989100116
 30
0.0
 10
406.5248846097403
 20
540.5092989100116
 30
0.0
 10
406.5336696032277
 20
540.5092989100116
 30
0.0
 10
406.5336696032277
 20
540.5092989100116
 30
0.0
 10
406.5731159465338
 20
540.6367674429658
 30
0.0
 10
406.617213168745
 20
540.7993759498696
 30
0.0
 10
406.6699231296694
 20
540.9531994632861
 30
0.0
 10
406.6699231296694
 20
540.9531994632861
 30
0.0
 10
407.0919473266125
 20
542.2015298123663
 30
0.0
 10
407.0919473266125
 20
542.2015298123663
 30
0.0
 10
407.0919473266125
 20
542.2015298123663
 30
0.0
 10
407.5007079059374
 20
542.2015298123663
 30
0.0
 10
407.5007079059374
 20
542.2015298123663
 30
0.0
 10
407.5007079059374
 20
542.2015298123663
 30
0.0
 10
406.9205538262213
 20
540.6851710345336
 30
0.0
 10
406.9205538262213
 20
540.6851710345336
 30
0.0
 10
406.6435681492072
 20
539.9554998107577
 30
0.0
 10
406.454432407067
 20
539.5818792053823
 30
0.0
 10
406.1907103476711
 20
539.3534693747102
 30
0.0
 10
406.0017468603052
 20
539.1862099889014
 30
0.0
 10
405.8127833729392
 20
539.1204086651331
 30
0.0
 10
405.7161484445779
 20
539.1028386781584
 30
0.0
 10
405.7161484445779
 20
539.1028386781584
 30
0.0
 10
405.6193412614424
 20
539.4280556919659
 30
0.0
 10
405.6193412614424
 20
539.4280556919659
 30
0.0
 10
405.7161484445779
 20
539.4587170417847
 30
0.0
 10
405.8436169775322
 20
539.5203842509707
 30
0.0
 10
405.9579941476425
 20
539.6171914341062
 30
0.0
 10
406.0634140694911
 20
539.7005627448492
 30
0.0
 10
406.1951889718019
 20
539.8499076341348
 30
0.0
 10
406.2830389066758
 20
540.0478283697623
 30
0.0
 10
406.3006088936506
 20
540.0874469678428
 30
0.0
 10
406.3138725112688
 20
540.1182805724358
 30
0.0
 10
406.3138725112688
 20
540.1399846739928
 30
0.0
 10
406.3138725112688
 20
540.1620332850985
 30
0.0
 10
406.3050875177814
 20
540.1928668896913
 30
0.0
 10
406.2875175308066
 20
540.2410982264848
 30
0.0
 10
406.2875175308066
 20
540.2410982264848
 30
0.0
 10
405.5006577219755
 20
542.2015298123663
 30
0.0
 10
405.5006577219755
 20
542.2015298123663
 30
0.0
 10
405.5006577219755
 20
542.2015298123663
 30
0.0
 10
405.9226819189187
 20
542.2015298123663
 30
0.0
 10
405.9226819189187
 20
542.2015298123663
 30
0.0
  0
SPLINE
  5
7C
330
1F
100
AcDbEntity
  8
Layer 1
 62
     7
370
     9
100
AcDbSpline
210
0.0
220
0.0
230
1.0
 70
    11
 71
     3
 72
    17
 73
    13
 74
     0
 42
0.0000000001
 43
0.0000000001
 40
0.0
 40
0.0
 40
0.0
 40
0.0
 40
1.0
 40
1.0
 40
1.0
 40
2.0
 40
2.0
 40
2.0
 40
3.0
 40
3.0
 40
3.0
 40
4.0
 40
4.0
 40
4.0
 40
4.0
 10
409.7345078185733
 20
541.1554265682702
 30
0.0
 10
409.7345078185733
 20
540.3687390142134
 30
0.0
 10
409.189665967581
 20
540.025952013431
 30
0.0
 10
408.6753132116333
 20
540.025952013431
 30
0.0
 10
408.0994655012738
 20
540.025952013431
 30
0.0
 10
407.6553926932251
 20
540.4478039555999
 30
0.0
 10
407.6553926932251
 20
541.1202865943206
 30
0.0
 10
407.6553926932251
 20
541.8323878311218
 30
0.0
 10
408.1215141123794
 20
542.249933403934
 30
0.0
 10
408.7102809308086
 20
542.249933403934
 30
0.0
 10
409.3214408698919
 20
542.249933403934
 30
0.0
 10
409.7345078185733
 20
541.8060328506597
 30
0.0
 10
409.7345078185733
 20
541.1554265682702
 30
0.0
  0
SPLINE
  5
7D
330
1F
100
AcDbEntity
  8
Layer 1
 62
     7
370
     9
100
AcDbSpline
210
0.0
220
0.0
230
1.0
 70
    11
 71
     3
 72
    17
 73
    13
 74
     0
 42
0.0000000001
 43
0.0000000001
 40
0.0
 40
0.0
 40
0.0
 40
0.0
 40
1.0
 40
1.0
 40
1.0
 40
2.0
 40
2.0
 40
2.0
 40
3.0
 40
3.0
 40
3.0
 40
4.0
 40
4.0
 40
4.0
 40
4.0
 10
408.0467555403495
 20
541.1335502119389
 30
0.0
 10
408.0467555403495
 20
540.6676010475588
 30
0.0
 10
408.3149562238762
 20
540.3160290532891
 30
0.0
 10
408.6928831986081
 20
540.3160290532891
 30
0.0
 10
409.0620251798526
 20
540.3160290532891
 30
0.0
 10
409.3390108568667
 20
540.663122423428
 30
0.0
 10
409.3390108568667
 20
541.1423352054262
 30
0.0
 10
409.3390108568667
 20
541.5028644479577
 30
0.0
 10
409.1588323629881
 20
541.959856364076
 30
0.0
 10
408.7016681920954
 20
541.959856364076
 30
0.0
 10
408.2445040212028
 20
541.959856364076
 30
0.0
 10
408.0467555403495
 20
541.5378321671329
 30
0.0
 10
408.0467555403495
 20
541.1335502119389
 30
0.0
  0
SPLINE
  5
7E
330
1F
100
AcDbEntity
  8
Layer 1
 62
     7
370
     9
100
AcDbSpline
210
0.0
220
0.0
230
1.0
 70
    11
 71
     3
 72
    50
 73
    46
 74
     0
 42
0.0000000001
 43
0.0000000001
 40
0.0
 40
0.0
 40
0.0
 40
0.0
 40
1.0
 40
1.0
 40
1.0
 40
2.0
 40
2.0
 40
2.0
 40
3.0
 40
3.0
 40
3.0
 40
4.0
 40
4.0
 40
4.0
 40
5.0
 40
5.0
 40
5.0
 40
6.0
 40
6.0
 40
6.0
 40
7.0
 40
7.0
 40
7.0
 40
8.0
 40
8.0
 40
8.0
 40
9.0
 40
9.0
 40
9.0
 40
10.0
 40
10.0
 40
10.0
 40
11.0
 40
11.0
 40
11.0
 40
12.0
 40
12.0
 40
12.0
 40
13.0
 40
13.0
 40
13.0
 40
14.0
 40
14.0
 40
14.0
 40
15.0
 40
15.0
 40
15.0
 40
15.0
 10
412.0041367242559
 20
540.6543374299406
 30
0.0
 10
412.0041367242559
 20
540.4345403379816
 30
0.0
 10
412.0084430936125
 20
540.2410982264848
 30
0.0
 10
412.0217067112307
 20
540.0741833502245
 30
0.0
 10
412.0217067112307
 20
540.0741833502245
 30
0.0
 10
411.6789197104483
 20
540.0741833502245
 30
0.0
 10
411.6789197104483
 20
540.0741833502245
 30
0.0
 10
411.6789197104483
 20
540.0741833502245
 30
0.0
 10
411.6568710993428
 20
540.4214489751378
 30
0.0
 10
411.6568710993428
 20
540.4214489751378
 30
0.0
 10
411.6568710993428
 20
540.4214489751378
 30
0.0
 10
411.6480861058554
 20
540.4214489751378
 30
0.0
 10
411.6480861058554
 20
540.4214489751378
 30
0.0
 10
411.5469725533633
 20
540.2498832199723
 30
0.0
 10
411.3228690920478
 20
540.025952013431
 30
0.0
 10
410.9447698625416
 20
540.025952013431
 30
0.0
 10
410.6109401100209
 20
540.025952013431
 30
0.0
 10
410.2106200146349
 20
540.2104368766662
 30
0.0
 10
410.2106200146349
 20
540.9576780874169
 30
0.0
 10
410.2106200146349
 20
540.9576780874169
 30
0.0
 10
410.2106200146349
 20
542.2015298123663
 30
0.0
 10
410.2106200146349
 20
542.2015298123663
 30
0.0
 10
410.2106200146349
 20
542.2015298123663
 30
0.0
 10
410.5975042376284
 20
542.2015298123663
 30
0.0
 10
410.5975042376284
 20
542.2015298123663
 30
0.0
 10
410.5975042376284
 20
542.2015298123663
 30
0.0
 10
410.5975042376284
 20
541.0236516659594
 30
0.0
 10
410.5975042376284
 20
541.0236516659594
 30
0.0
 10
410.5975042376284
 20
540.6191974559911
 30
0.0
 10
410.7206664012261
 20
540.3466904031078
 30
0.0
 10
411.0724106502701
 20
540.3466904031078
 30
0.0
 10
411.3316540855351
 20
540.3466904031078
 30
0.0
 10
411.5118325794137
 20
540.5268688969863
 30
0.0
 10
411.5821125273128
 20
540.6984346521518
 30
0.0
 10
411.6041611384184
 20
540.7554509824326
 30
0.0
 10
411.6172525012624
 20
540.8257309303318
 30
0.0
 10
411.6172525012624
 20
540.8961831330051
 30
0.0
 10
411.6172525012624
 20
540.8961831330051
 30
0.0
 10
411.6172525012624
 20
542.2015298123663
 30
0.0
 10
411.6172525012624
 20
542.2015298123663
 30
0.0
 10
411.6172525012624
 20
542.2015298123663
 30
0.0
 10
412.0041367242559
 20
542.2015298123663
 30
0.0
 10
412.0041367242559
 20
542.2015298123663
 30
0.0
 10
412.0041367242559
 20
542.2015298123663
 30
0.0
 10
412.0041367242559
 20
540.6543374299406
 30
0.0
 10
412.0041367242559
 20
540.6543374299406
 30
0.0
  0
ENDSEC
  0
SECTION
  2
OBJECTS
  0
DICTIONARY
  5
C
330
0
100
AcDbDictionary
281
     1
  3
ACAD_GROUP
350
D
  3
ACAD_LAYOUT
350
1A
  3
ACAD_MLINESTYLE
350
17
  3
ACAD_PLOTSETTINGS
350
19
  3
ACAD_PLOTSTYLENAME
350
E
  3
ACAD_TABLESTYLE
350
7F
  3
ACAD_VISUALSTYLE
350
2A
  0
DICTIONARY
  5
D
102
{ACAD_REACTORS
330
C
102
}
330
C
100
AcDbDictionary
281
     1
  0
DICTIONARY
  5
1A
102
{ACAD_REACTORS
330
C
102
}
330
C
100
AcDbDictionary
281
     1
  3
Layout1
350
1E
  3
Layout2
350
26
  3
Model
350
22
  0
DICTIONARY
  5
17
102
{ACAD_REACTORS
330
C
102
}
330
C
100
AcDbDictionary
281
     1
  3
Standard
350
18
  0
DICTIONARY
  5
19
102
{ACAD_REACTORS
330
C
102
}
330
C
100
AcDbDictionary
281
     1
  0
ACDBDICTIONARYWDFLT
  5
E
102
{ACAD_REACTORS
330
C
102
}
330
C
100
AcDbDictionary
281
     1
  3
Normal
350
F
100
AcDbDictionaryWithDefault
340
F
  0
DICTIONARY
  5
7F
102
{ACAD_REACTORS
330
C
102
}
330
C
100
AcDbDictionary
281
     1
  0
DICTIONARY
  5
2A
102
{ACAD_REACTORS
330
C
102
}
330
C
100
AcDbDictionary
281
     1
  3
2dWireframe
350
2F
  3
3D Hidden
350
31
  3
3dWireframe
350
30
  3
Basic
350
32
  3
Brighten
350
36
  3
ColorChange
350
3A
  3
Conceptual
350
34
  3
Dim
350
35
  3
Facepattern
350
39
  3
Flat
350
2B
  3
FlatWithEdges
350
2C
  3
Gouraud
350
2D
  3
GouraudWithEdges
350
2E
  3
Linepattern
350
38
  3
Realistic
350
33
  3
Thicken
350
37
  0
LAYOUT
  5
1E
102
{ACAD_REACTORS
330
1A
102
}
330
1A
100
AcDbPlotSettings
  1

  2
none_device
  4

  6

 40
0.0
 41
0.0
 42
0.0
 43
0.0
 44
0.0
 45
0.0
 46
0.0
 47
0.0
 48
0.0
 49
0.0
140
0.0
141
0.0
142
1.0
143
1.0
 70
   688
 72
     0
 73
     0
 74
     5
  7

 75
    16
147
1.0
148
0.0
149
0.0
100
AcDbLayout
  1
Layout1
 70
     1
 71
     1
 10
0.0
 20
0.0
 11
12.0
 21
9.0
 12
0.0
 22
0.0
 32
0.0
 14
1.000000000000000E+20
 24
1.000000000000000E+20
 34
1.000000000000000E+20
 15
-1.000000000000000E+20
 25
-1.000000000000000E+20
 35
-1.000000000000000E+20
146
0.0
 13
0.0
 23
0.0
 33
0.0
 16
1.0
 26
0.0
 36
0.0
 17
0.0
 27
1.0
 37
0.0
 76
     0
330
1B
  0
LAYOUT
  5
26
102
{ACAD_REACTORS
330
1A
102
}
330
1A
100
AcDbPlotSettings
  1

  2
none_device
  4

  6

 40
0.0
 41
0.0
 42
0.0
 43
0.0
 44
0.0
 45
0.0
 46
0.0
 47
0.0
 48
0.0
 49
0.0
140
0.0
141
0.0
142
1.0
143
1.0
 70
   688
 72
     0
 73
     0
 74
     5
  7

 75
    16
147
1.0
148
0.0
149
0.0
100
AcDbLayout
  1
Layout2
 70
     1
 71
     2
 10
0.0
 20
0.0
 11
0.0
 21
0.0
 12
0.0
 22
0.0
 32
0.0
 14
0.0
 24
0.0
 34
0.0
 15
0.0
 25
0.0
 35
0.0
146
0.0
 13
0.0
 23
0.0
 33
0.0
 16
1.0
 26
0.0
 36
0.0
 17
0.0
 27
1.0
 37
0.0
 76
     0
330
23
  0
LAYOUT
  5
22
102
{ACAD_REACTORS
330
1A
102
}
330
1A
100
AcDbPlotSettings
  1

  2
none_device
  4

  6

 40
0.0
 41
0.0
 42
0.0
 43
0.0
 44
0.0
 45
0.0
 46
0.0
 47
0.0
 48
0.0
 49
0.0
140
0.0
141
0.0
142
1.0
143
1.0
 70
  1712
 72
     0
 73
     0
 74
     0
  7

 75
     0
147
1.0
148
0.0
149
0.0
100
AcDbLayout
  1
Model
 70
     1
 71
     0
 10
0.0
 20
0.0
 11
12.0
 21
9.0
 12
0.0
 22
0.0
 32
0.0
 14
1.000000000000000E+20
 24
1.000000000000000E+20
 34
1.000000000000000E+20
 15
-1.000000000000000E+20
 25
-1.000000000000000E+20
 35
-1.000000000000000E+20
146
0.0
 13
0.0
 23
0.0
 33
0.0
 16
1.0
 26
0.0
 36
0.0
 17
0.0
 27
1.0
 37
0.0
 76
     0
330
1F
331
29
  0
MLINESTYLE
  5
18
102
{ACAD_REACTORS
330
17
102
}
330
17
100
AcDbMlineStyle
  2
Standard
 70
     0
  3

 62
   256
 51
90.0
 52
90.0
 71
     2
 49
0.5
 62
   256
  6
BYLAYER
 49
-0.5
 62
   256
  6
BYLAYER
  0
ACDBPLACEHOLDER
  5
F
102
{ACAD_REACTORS
330
E
102
}
330
E
  0
VISUALSTYLE
  5
2F
102
{ACAD_REACTORS
330
2A
102
}
330
2A
100
AcDbVisualStyle
  2
2dWireframe
 70
     4
 71
     0
 72
     2
 73
     0
 90
        0
 40
-0.6
 41
-30.0
 62
     5
 63
     7
 74
     1
 91
        4
 64
     7
 65
   257
 75
     1
175
     1
 42
1.0
 92
        0
 66
   257
 43
1.0
 76
     1
 77
     6
 78
     2
 67
     7
 79
     5
170
     0
171
     0
290
     0
174
     0
 93
        1
 44
0.0
173
     0
291
     0
 45
0.0
1001
ACAD
1000
AcDbSavedByObjectVersion
1070
     0
  0
VISUALSTYLE
  5
31
102
{ACAD_REACTORS
330
2A
102
}
330
2A
100
AcDbVisualStyle
  2
3D Hidden
 70
     6
 71
     1
 72
     2
 73
     2
 90
        0
 40
-0.6
 41
-30.0
 62
     5
 63
     7
 74
     2
 91
        2
 64
     7
 65
   257
 75
     2
175
     1
 42
40.0
 92
        0
 66
   257
 43
1.0
 76
     1
 77
     6
 78
     2
 67
     7
 79
     3
170
     0
171
     0
290
     0
174
     0
 93
        1
 44
0.0
173
     0
291
     0
 45
0.0
1001
ACAD
1000
AcDbSavedByObjectVersion
1070
     0
  0
VISUALSTYLE
  5
30
102
{ACAD_REACTORS
330
2A
102
}
330
2A
100
AcDbVisualStyle
  2
3dWireframe
 70
     5
 71
     0
 72
     2
 73
     0
 90
        0
 40
-0.6
 41
-30.0
 62
     5
 63
     7
 74
     1
 91
        4
 64
     7
 65
   257
 75
     1
175
     1
 42
1.0
 92
        0
 66
   257
 43
1.0
 76
     1
 77
     6
 78
     2
 67
     7
 79
     5
170
     0
171
     0
290
     0
174
     0
 93
        1
 44
0.0
173
     0
291
     0
 45
0.0
1001
ACAD
1000
AcDbSavedByObjectVersion
1070
     0
  0
VISUALSTYLE
  5
32
102
{ACAD_REACTORS
330
2A
102
}
330
2A
100
AcDbVisualStyle
  2
Basic
 70
     7
 71
     1
 72
     0
 73
     1
 90
        0
 40
-0.6
 41
-30.0
 62
     5
 63
     7
 74
     0
 91
        4
 64
     7
 65
   257
 75
     1
175
     1
 42
1.0
 92
        8
 66
     7
 43
1.0
 76
     1
 77
     6
 78
     2
 67
     7
 79
     5
170
     0
171
     0
290
     0
174
     0
 93
        1
 44
0.0
173
     0
291
     1
 45
0.0
1001
ACAD
1000
AcDbSavedByObjectVersion
1070
     0
  0
VISUALSTYLE
  5
36
102
{ACAD_REACTORS
330
2A
102
}
330
2A
100
AcDbVisualStyle
  2
Brighten
 70
    12
 71
     2
 72
     2
 73
     0
 90
        0
 40
-0.6
 41
-30.0
 62
     5
 63
     7
 74
     1
 91
        4
 64
     7
 65
   257
 75
     1
175
     1
 42
1.0
 92
        8
 66
     7
 43
1.0
 76
     1
 77
     6
 78
     2
 67
     7
 79
     5
170
     0
171
     0
290
     0
174
     0
 93
        1
 44
50.0
173
     0
291
     1
 45
0.0
1001
ACAD
1000
AcDbSavedByObjectVersion
1070
     0
  0
VISUALSTYLE
  5
3A
102
{ACAD_REACTORS
330
2A
102
}
330
2A
100
AcDbVisualStyle
  2
ColorChange
 70
    16
 71
     2
 72
     2
 73
     3
 90
        0
 40
-0.6
 41
-30.0
 62
     5
 63
     8
 74
     1
 91
        4
 64
     7
 65
   257
 75
     1
175
     1
 42
1.0
 92
        8
 66
     8
 43
1.0
 76
     1
 77
     6
 78
     2
 67
     7
 79
     5
170
     0
171
     0
290
     0
174
     0
 93
        1
 44
0.0
173
     0
291
     1
 45
0.0
1001
ACAD
1000
AcDbSavedByObjectVersion
1070
     0
  0
VISUALSTYLE
  5
34
102
{ACAD_REACTORS
330
2A
102
}
330
2A
100
AcDbVisualStyle
  2
Conceptual
 70
     9
 71
     3
 72
     2
 73
     0
 90
        0
 40
-0.6
 41
-30.0
 62
     5
 63
     7
 74
     2
 91
        2
 64
     7
 65
   257
 75
     1
175
     1
 42
40.0
 92
        8
 66
     7
 43
1.0
 76
     1
 77
     6
 78
     2
 67
     7
 79
     3
170
     0
171
     0
290
     0
174
     0
 93
        1
 44
0.0
173
     0
291
     0
 45
0.0
1001
ACAD
1000
AcDbSavedByObjectVersion
1070
     0
  0
VISUALSTYLE
  5
35
102
{ACAD_REACTORS
330
2A
102
}
330
2A
100
AcDbVisualStyle
  2
Dim
 70
    11
 71
     2
 72
     2
 73
     0
 90
        0
 40
-0.6
 41
-30.0
 62
     5
 63
     7
 74
     1
 91
        4
 64
     7
 65
   257
 75
     1
175
     1
 42
1.0
 92
        8
 66
     7
 43
1.0
 76
     1
 77
     6
 78
     2
 67
     7
 79
     5
170
     0
171
     0
290
     0
174
     0
 93
        1
 44
-50.0
173
     0
291
     1
 45
0.0
1001
ACAD
1000
AcDbSavedByObjectVersion
1070
     0
  0
VISUALSTYLE
  5
39
102
{ACAD_REACTORS
330
2A
102
}
330
2A
100
AcDbVisualStyle
  2
Facepattern
 70
    15
 71
     2
 72
     2
 73
     0
 90
        0
 40
-0.6
 41
-30.0
 62
     5
 63
     7
 74
     1
 91
        4
 64
     7
 65
   257
 75
     1
175
     1
 42
1.0
 92
        8
 66
     7
 43
1.0
 76
     1
 77
     6
 78
     2
 67
     7
 79
     5
170
     0
171
     0
290
     0
174
     0
 93
        1
 44
0.0
173
     0
291
     1
 45
0.0
1001
ACAD
1000
AcDbSavedByObjectVersion
1070
     0
  0
VISUALSTYLE
  5
2B
102
{ACAD_REACTORS
330
2A
102
}
330
2A
100
AcDbVisualStyle
  2
Flat
 70
     0
 71
     2
 72
     1
 73
     1
 90
        2
 40
-0.6
 41
30.0
 62
     5
 63
     7
 74
     0
 91
        4
 64
     7
 65
   257
 75
     1
175
     1
 42
1.0
 92
        8
 66
     7
 43
1.0
 76
     1
 77
     6
 78
     2
 67
     7
 79
     5
170
     0
171
     0
290
     0
174
     0
 93
       13
 44
0.0
173
     0
291
     1
 45
0.0
1001
ACAD
1000
AcDbSavedByObjectVersion
1070
     0
  0
VISUALSTYLE
  5
2C
102
{ACAD_REACTORS
330
2A
102
}
330
2A
100
AcDbVisualStyle
  2
FlatWithEdges
 70
     1
 71
     2
 72
     1
 73
     1
 90
        2
 40
-0.6
 41
30.0
 62
     5
 63
     7
 74
     1
 91
        4
 64
     7
 65
   257
 75
     1
175
     1
 42
1.0
 92
        0
 66
   257
 43
1.0
 76
     1
 77
     6
 78
     2
 67
     7
 79
     5
170
     0
171
     0
290
     0
174
     0
 93
       13
 44
0.0
173
     0
291
     1
 45
0.0
1001
ACAD
1000
AcDbSavedByObjectVersion
1070
     0
  0
VISUALSTYLE
  5
2D
102
{ACAD_REACTORS
330
2A
102
}
330
2A
100
AcDbVisualStyle
  2
Gouraud
 70
     2
 71
     2
 72
     2
 73
     1
 90
        2
 40
-0.6
 41
30.0
 62
     5
 63
     7
 74
     0
 91
        4
 64
     7
 65
   257
 75
     1
175
     1
 42
1.0
 92
        0
 66
     7
 43
1.0
 76
     1
 77
     6
 78
     2
 67
     7
 79
     5
170
     0
171
     0
290
     0
174
     0
 93
       13
 44
0.0
173
     0
291
     1
 45
0.0
1001
ACAD
1000
AcDbSavedByObjectVersion
1070
     0
  0
VISUALSTYLE
  5
2E
102
{ACAD_REACTORS
330
2A
102
}
330
2A
100
AcDbVisualStyle
  2
GouraudWithEdges
 70
     3
 71
     2
 72
     2
 73
     1
 90
        2
 40
-0.6
 41
30.0
 62
     5
 63
     7
 74
     1
 91
        4
 64
     7
 65
   257
 75
     1
175
     1
 42
1.0
 92
        0
 66
   257
 43
1.0
 76
     1
 77
     6
 78
     2
 67
     7
 79
     5
170
     0
171
     0
290
     0
174
     0
 93
       13
 44
0.0
173
     0
291
     1
 45
0.0
1001
ACAD
1000
AcDbSavedByObjectVersion
1070
     0
  0
VISUALSTYLE
  5
38
102
{ACAD_REACTORS
330
2A
102
}
330
2A
100
AcDbVisualStyle
  2
Linepattern
 70
    14
 71
     2
 72
     2
 73
     0
 90
        0
 40
-0.6
 41
-30.0
 62
     5
 63
     7
 74
     1
 91
        4
 64
     7
 65
   257
 75
     7
175
     7
 42
1.0
 92
        8
 66
     7
 43
1.0
 76
     1
 77
     6
 78
     2
 67
     7
 79
     5
170
     0
171
     0
290
     0
174
     0
 93
        1
 44
0.0
173
     0
291
     1
 45
0.0
1001
ACAD
1000
AcDbSavedByObjectVersion
1070
     0
  0
VISUALSTYLE
  5
33
102
{ACAD_REACTORS
330
2A
102
}
330
2A
100
AcDbVisualStyle
  2
Realistic
 70
     8
 71
     2
 72
     2
 73
     0
 90
        0
 40
-0.6
 41
-30.0
 62
     5
 63
     7
 74
     1
 91
        0
 64
     7
 65
   257
 75
     1
175
     1
 42
1.0
 92
        8
 66
     8
 43
1.0
 76
     1
 77
     6
 78
     2
 67
     7
 79
     5
170
     0
171
     0
290
     0
174
     0
 93
       13
 44
0.0
173
     0
291
     0
 45
0.0
1001
ACAD
1000
AcDbSavedByObjectVersion
1070
     0
  0
VISUALSTYLE
  5
37
102
{ACAD_REACTORS
330
2A
102
}
330
2A
100
AcDbVisualStyle
  2
Thicken
 70
    13
 71
     2
 72
     2
 73
     0
 90
        0
 40
-0.6
 41
-30.0
 62
     5
 63
     7
 74
     1
 91
        4
 64
     7
 65
   257
 75
     1
175
     1
 42
1.0
 92
       12
 66
     7
 43
1.0
 76
     1
 77
     6
 78
     2
 67
     7
 79
     5
170
     0
171
     0
290
     0
174
     0
 93
        1
 44
0.0
173
     0
291
     1
 45
0.0
1001
ACAD
1000
AcDbSavedByObjectVersion
1070
     0
  0
ENDSEC
  0
EOF
