0
SECTION
2
HEADER
9
$INSUNITS
70
4
9
$ACADVER
1
AC1014
9
$HANDSEED
5
FFFF
0
ENDSEC
0
SECTION
2
TABLES
0
TABLE
2
VPORT
5
8
100
AcDbSymbolTable
0
ENDTAB
0
TABLE
2
LTYPE
5
5
100
AcDbSymbolTable
0
LTYPE
5
14
100
AcDbSymbolTableRecord
100
AcDbLinetypeTableRecord
2
BYBLOCK
70
0
0
LTYPE
5
15
100
AcDbSymbolTableRecord
100
AcDbLinetypeTableRecord
2
BYLAYER
70
0
0
ENDTAB
0
TABLE
2
LAYER
5
2
100
AcDbSymbolTable
70
2
0
LAYER
5
50
100
AcDbSymbolTableRecord
100
AcDbLayerTableRecord
2
0
70
0
6
CONTINUOUS
0
ENDTAB
0
TABLE
2
STYLE
5
3
100
AcDbSymbolTable
70
1
0
STYLE
5
11
100
AcDbSymbolTableRecord
100
AcDbTextStyleTableRecord
2
STANDARD
70
0
0
ENDTAB
0
TABLE
2
VIEW
5
6
100
AcDbSymbolTable
70
0
0
ENDTAB
0
TABLE
2
UCS
5
7
100
AcDbSymbolTable
70
0
0
ENDTAB
0
TABLE
2
APPID
5
9
100
AcDbSymbolTable
70
2
0
APPID
5
12
100
AcDbSymbolTableRecord
100
AcDbRegAppTableRecord
2
ACAD
70
0
0
ENDTAB
0
TABLE
2
DIMSTYLE
5
A
100
AcDbSymbolTable
70
1
0
ENDTAB
0
TABLE
2
BLOCK_RECORD
5
1
100
AcDbSymbolTable
70
1
0
BLOCK_RECORD
5
1F
100
AcDbSymbolTableRecord
100
AcDbBlockTableRecord
2
*MODEL_SPACE
0
BLOCK_RECORD
5
1B
100
AcDbSymbolTableRecord
100
AcDbBlockTableRecord
2
*PAPER_SPACE
0
ENDTAB
0
ENDSEC
0
SECTION
2
BLOCKS
0
BLOCK
5
20
100
AcDbEntity
100
AcDbBlockBegin
2
*MODEL_SPACE
0
ENDBLK
5
21
100
AcDbEntity
100
AcDbBlockEnd
0
BLOCK
5
1C
100
AcDbEntity
100
AcDbBlockBegin
2
*PAPER_SPACE
0
ENDBLK
5
1D
100
AcDbEntity
100
AcDbBlockEnd
0
ENDSEC
0
SECTION
2
ENTITIES
0
LWPOLYLINE
5
100
100
AcDbEntity
8
0
100
AcDbPolyline
90
28
70
1
43
0.0
10
-113.25075347746977
20
-118.58696102497748
10
-123.32309147746962
20
-118.58696102497753
10
-120.34364683835679
20
212.43454165275534
10
-109.4436468383568
20
212.33643338394614
10
-109.44364683835676
20
224.33740554773837
10
-91.443646838356756
20
224.17539189283858
10
-91.443646831159981
20
212.17441972904638
10
-72.843646831159987
20
212.00700561897685
10
-72.843646837673091
20
224.00797778276905
10
-54.764893826732362
20
223.84525529118241
10
-54.764893819976095
20
211.84428312739018
10
-35.922004970998486
20
211.67468283342697
10
-35.922004954384754
20
223.6756549972192
10
-17.92200495438475
20
223.51364134224241
10
-18.030014057652963
20
211.51364134224241
10
-6.852915376191671
20
211.41303897502237
10
-9.8231657160862405
20
-118.58696102497763
10
-20.749531716086238
20
-118.58696102497773
10
-20.749531716086231
20
-130.58696102497751
10
-38.749531716086267
20
-130.58696102497748
10
-38.749531716086267
20
-118.58696102497771
10
-58.650748603973156
20
-118.58696102497774
10
-58.650748603973184
20
-130.58696102497746
10
-76.650748603973227
20
-130.58696102497748
10
-76.650753477469877
20
-118.58696102497747
10
-95.250753477469857
20
-118.58696102497747
10
-95.250753477469715
20
-130.58696102497751
10
-113.25075347746976
20
-130.58696102497751
0
CIRCLE
5
101
100
AcDbEntity
8
0
100
AcDbCircle
10
-70
20
-95
30
0
40
3.9999999999999987
0
CIRCLE
5
102
100
AcDbEntity
8
0
100
AcDbCircle
10
-70
20
-65
30
0
40
3.9999999999999987
0
CIRCLE
5
103
100
AcDbEntity
8
0
100
AcDbCircle
10
-70
20
-35
30
0
40
3.9999999999999987
0
CIRCLE
5
104
100
AcDbEntity
8
0
100
AcDbCircle
10
-70
20
-5
30
0
40
3.9999999999999987
0
CIRCLE
5
105
100
AcDbEntity
8
0
100
AcDbCircle
10
-70
20
25
30
0
40
3.9999999999999987
0
CIRCLE
5
106
100
AcDbEntity
8
0
100
AcDbCircle
10
-70
20
55
30
0
40
3.9999999999999987
0
CIRCLE
5
107
100
AcDbEntity
8
0
100
AcDbCircle
10
-70
20
-35
30
0
40
3.9999999999999987
0
CIRCLE
5
108
100
AcDbEntity
8
0
100
AcDbCircle
10
-70
20
-5
30
0
40
3.9999999999999987
0
CIRCLE
5
109
100
AcDbEntity
8
0
100
AcDbCircle
10
-70
20
-95
30
0
40
3.9999999999999987
0
CIRCLE
5
110
100
AcDbEntity
8
0
100
AcDbCircle
10
-70
20
55
30
0
40
3.9999999999999987
0
CIRCLE
5
111
100
AcDbEntity
8
0
100
AcDbCircle
10
-70
20
-65
30
0
40
3.9999999999999987
0
CIRCLE
5
112
100
AcDbEntity
8
0
100
AcDbCircle
10
-70
20
25
30
0
40
3.9999999999999987
0
CIRCLE
5
113
100
AcDbEntity
8
0
100
AcDbCircle
10
-70
20
115
30
0
40
3.9999999999999987
0
CIRCLE
5
114
100
AcDbEntity
8
0
100
AcDbCircle
10
-70
20
145
30
0
40
3.9999999999999987
0
CIRCLE
5
115
100
AcDbEntity
8
0
100
AcDbCircle
10
-70
20
175
30
0
40
3.9999999999999987
0
CIRCLE
5
116
100
AcDbEntity
8
0
100
AcDbCircle
10
-70
20
175
30
0
40
3.9999999999999987
0
CIRCLE
5
117
100
AcDbEntity
8
0
100
AcDbCircle
10
-70
20
115
30
0
40
3.9999999999999987
0
CIRCLE
5
118
100
AcDbEntity
8
0
100
AcDbCircle
10
-70
20
145
30
0
40
3.9999999999999987
0
CIRCLE
5
119
100
AcDbEntity
8
0
100
AcDbCircle
10
-70
20
85
30
0
40
3.9999999999999987
0
CIRCLE
5
120
100
AcDbEntity
8
0
100
AcDbCircle
10
-70
20
85
30
0
40
3.9999999999999987
0
ENDSEC
0
SECTION
2
OBJECTS
0
DICTIONARY
5
C
100
AcDbDictionary
3
ACAD_GROUP
350
D
3
ACAD_MLINESTYLE
350
17
0
DICTIONARY
5
D
100
AcDbDictionary
0
DICTIONARY
5
1A
330
C
100
AcDbDictionary
0
DICTIONARY
5
17
100
AcDbDictionary
0
ENDSEC
0
EOF
