  0
SECTION
  2
HEADER
  9
$ACADVER
  1
AC1024
  9
$ACADMAINTVER
 70
     6
  9
$DWGCODEPAGE
  3
UNDEFINED
  9
$INSBASE
 10
0.0
 20
0.0
 30
0.0
  9
$EXTMIN
 10
1.000000000000000E+20
 20
1.000000000000000E+20
 30
1.000000000000000E+20
  9
$EXTMAX
 10
-1.000000000000000E+20
 20
-1.000000000000000E+20
 30
-1.000000000000000E+20
  9
$LIMMIN
 10
0.0
 20
0.0
  9
$LIMMAX
 10
12.0
 20
9.0
  9
$ORTHOMODE
 70
     0
  9
$REGENMODE
 70
     1
  9
$FILLMODE
 70
     1
  9
$QTEXTMODE
 70
     0
  9
$MIRRTEXT
 70
     1
  9
$LTSCALE
 40
1.0
  9
$ATTMODE
 70
     1
  9
$TEXTSIZE
 40
0.2
  9
$TRACEWID
 40
0.05
  9
$TEXTSTYLE
  7
Standard
  9
$CLAYER
  8
0
  9
$CELTYPE
  6
ByLayer
  9
$CECOLOR
 62
   256
  9
$CELTSCALE
 40
1.0
  9
$DISPSILH
 70
     0
  9
$DIMSCALE
 40
1.0
  9
$DIMASZ
 40
0.18
  9
$DIMEXO
 40
0.0625
  9
$DIMDLI
 40
0.38
  9
$DIMRND
 40
0.0
  9
$DIMDLE
 40
0.0
  9
$DIMEXE
 40
0.18
  9
$DIMTP
 40
0.0
  9
$DIMTM
 40
0.0
  9
$DIMTXT
 40
0.18
  9
$DIMCEN
 40
0.09
  9
$DIMTSZ
 40
0.0
  9
$DIMTOL
 70
     0
  9
$DIMLIM
 70
     0
  9
$DIMTIH
 70
     1
  9
$DIMTOH
 70
     1
  9
$DIMSE1
 70
     0
  9
$DIMSE2
 70
     0
  9
$DIMTAD
 70
     0
  9
$DIMZIN
 70
     0
  9
$DIMBLK
  1

  9
$DIMASO
 70
     1
  9
$DIMSHO
 70
     1
  9
$DIMPOST
  1

  9
$DIMAPOST
  1

  9
$DIMALT
 70
     0
  9
$DIMALTD
 70
     2
  9
$DIMALTF
 40
25.4
  9
$DIMLFAC
 40
1.0
  9
$DIMTOFL
 70
     0
  9
$DIMTVP
 40
0.0
  9
$DIMTIX
 70
     0
  9
$DIMSOXD
 70
     0
  9
$DIMSAH
 70
     0
  9
$DIMBLK1
  1

  9
$DIMBLK2
  1

  9
$DIMSTYLE
  2
Standard
  9
$DIMCLRD
 70
     0
  9
$DIMCLRE
 70
     0
  9
$DIMCLRT
 70
     0
  9
$DIMTFAC
 40
1.0
  9
$DIMGAP
 40
0.09
  9
$DIMJUST
 70
     0
  9
$DIMSD1
 70
     0
  9
$DIMSD2
 70
     0
  9
$DIMTOLJ
 70
     1
  9
$DIMTZIN
 70
     0
  9
$DIMALTZ
 70
     0
  9
$DIMALTTZ
 70
     0
  9
$DIMUPT
 70
     0
  9
$DIMDEC
 70
     4
  9
$DIMTDEC
 70
     4
  9
$DIMALTU
 70
     2
  9
$DIMALTTD
 70
     2
  9
$DIMTXSTY
  7
Standard
  9
$DIMAUNIT
 70
     0
  9
$DIMADEC
 70
     0
  9
$DIMALTRND
 40
0.0
  9
$DIMAZIN
 70
     0
  9
$DIMDSEP
 70
    46
  9
$DIMATFIT
 70
     3
  9
$DIMFRAC
 70
     0
  9
$DIMLDRBLK
  1

  9
$DIMLUNIT
 70
     2
  9
$DIMLWD
 70
    -2
  9
$DIMLWE
 70
    -2
  9
$DIMTMOVE
 70
     0
  9
$DIMFXL
 40
1.0
  9
$DIMFXLON
 70
     0
  9
$DIMJOGANG
 40
0.7853981633974483
  9
$DIMTFILL
 70
     0
  9
$DIMTFILLCLR
 70
     0
  9
$DIMARCSYM
 70
     0
  9
$DIMLTYPE
  6

  9
$DIMLTEX1
  6

  9
$DIMLTEX2
  6

  9
$DIMTXTDIRECTION
 70
     0
  9
$LUNITS
 70
     2
  9
$LUPREC
 70
     4
  9
$SKETCHINC
 40
0.1
  9
$FILLETRAD
 40
0.5
  9
$AUNITS
 70
     0
  9
$AUPREC
 70
     0
  9
$MENU
  1
.
  9
$ELEVATION
 40
0.0
  9
$PELEVATION
 40
0.0
  9
$THICKNESS
 40
0.0
  9
$LIMCHECK
 70
     0
  9
$CHAMFERA
 40
0.5
  9
$CHAMFERB
 40
0.5
  9
$CHAMFERC
 40
1.0
  9
$CHAMFERD
 40
0.0
  9
$SKPOLY
 70
     0
  9
$TDCREATE
 40
2457933.616608785
  9
$TDUCREATE
 40
2457933.57494213
  9
$TDUPDATE
 40
2457933.616608785
  9
$TDUUPDATE
 40
2457933.57494213
  9
$TDINDWG
 40
0.0000000116
  9
$TDUSRTIMER
 40
0.0000000116
  9
$USRTIMER
 70
     1
  9
$ANGBASE
 50
0.0
  9
$ANGDIR
 70
     0
  9
$PDMODE
 70
     0
  9
$PDSIZE
 40
0.0
  9
$PLINEWID
 40
0.0
  9
$SPLFRAME
 70
     0
  9
$SPLINETYPE
 70
     6
  9
$SPLINESEGS
 70
     8
  9
$HANDSEED
  5
1B1
  9
$SURFTAB1
 70
     6
  9
$SURFTAB2
 70
     6
  9
$SURFTYPE
 70
     6
  9
$SURFU
 70
     6
  9
$SURFV
 70
     6
  9
$UCSBASE
  2

  9
$UCSNAME
  2

  9
$UCSORG
 10
0.0
 20
0.0
 30
0.0
  9
$UCSXDIR
 10
1.0
 20
0.0
 30
0.0
  9
$UCSYDIR
 10
0.0
 20
1.0
 30
0.0
  9
$UCSORTHOREF
  2

  9
$UCSORTHOVIEW
 70
     0
  9
$UCSORGTOP
 10
0.0
 20
0.0
 30
0.0
  9
$UCSORGBOTTOM
 10
0.0
 20
0.0
 30
0.0
  9
$UCSORGLEFT
 10
0.0
 20
0.0
 30
0.0
  9
$UCSORGRIGHT
 10
0.0
 20
0.0
 30
0.0
  9
$UCSORGFRONT
 10
0.0
 20
0.0
 30
0.0
  9
$UCSORGBACK
 10
0.0
 20
0.0
 30
0.0
  9
$PUCSBASE
  2

  9
$PUCSNAME
  2

  9
$PUCSORG
 10
0.0
 20
0.0
 30
0.0
  9
$PUCSXDIR
 10
1.0
 20
0.0
 30
0.0
  9
$PUCSYDIR
 10
0.0
 20
1.0
 30
0.0
  9
$PUCSORTHOREF
  2

  9
$PUCSORTHOVIEW
 70
     0
  9
$PUCSORGTOP
 10
0.0
 20
0.0
 30
0.0
  9
$PUCSORGBOTTOM
 10
0.0
 20
0.0
 30
0.0
  9
$PUCSORGLEFT
 10
0.0
 20
0.0
 30
0.0
  9
$PUCSORGRIGHT
 10
0.0
 20
0.0
 30
0.0
  9
$PUCSORGFRONT
 10
0.0
 20
0.0
 30
0.0
  9
$PUCSORGBACK
 10
0.0
 20
0.0
 30
0.0
  9
$USERI1
 70
     0
  9
$USERI2
 70
     0
  9
$USERI3
 70
     0
  9
$USERI4
 70
     0
  9
$USERI5
 70
     0
  9
$USERR1
 40
0.0
  9
$USERR2
 40
0.0
  9
$USERR3
 40
0.0
  9
$USERR4
 40
0.0
  9
$USERR5
 40
0.0
  9
$WORLDVIEW
 70
     1
  9
$SHADEDGE
 70
     3
  9
$SHADEDIF
 70
    70
  9
$TILEMODE
 70
     1
  9
$MAXACTVP
 70
    64
  9
$PINSBASE
 10
0.0
 20
0.0
 30
0.0
  9
$PLIMCHECK
 70
     0
  9
$PEXTMIN
 10
1.000000000000000E+20
 20
1.000000000000000E+20
 30
1.000000000000000E+20
  9
$PEXTMAX
 10
-1.000000000000000E+20
 20
-1.000000000000000E+20
 30
-1.000000000000000E+20
  9
$PLIMMIN
 10
0.0
 20
0.0
  9
$PLIMMAX
 10
12.0
 20
9.0
  9
$UNITMODE
 70
     0
  9
$VISRETAIN
 70
     1
  9
$PLINEGEN
 70
     0
  9
$PSLTSCALE
 70
     1
  9
$TREEDEPTH
 70
  3020
  9
$CMLSTYLE
  2
Standard
  9
$CMLJUST
 70
     0
  9
$CMLSCALE
 40
1.0
  9
$PROXYGRAPHICS
 70
     1
  9
$MEASUREMENT
 70
     0
  9
$CELWEIGHT
370
    -1
  9
$ENDCAPS
280
     0
  9
$JOINSTYLE
280
     0
  9
$LWDISPLAY
290
     1
  9
$INSUNITS
 70
     1
  9
$HYPERLINKBASE
  1

  9
$STYLESHEET
  1

  9
$XEDIT
290
     1
  9
$CEPSNTYPE
380
     0
  9
$PSTYLEMODE
290
     1
  9
$FINGERPRINTGUID
  2
{C843BC69-FF4E-BFEA-95DB-0201692055B2}
  9
$VERSIONGUID
  2
{FAEB1C32-E019-11D5-929B-00C0DF256EC4}
  9
$EXTNAMES
290
     1
  9
$PSVPSCALE
 40
0.0
  9
$OLESTARTUP
290
     0
  9
$SORTENTS
280
   127
  9
$INDEXCTL
280
     0
  9
$HIDETEXT
280
     1
  9
$XCLIPFRAME
280
     2
  9
$HALOGAP
280
     0
  9
$OBSCOLOR
 70
   257
  9
$OBSLTYPE
280
     0
  9
$INTERSECTIONDISPLAY
280
     0
  9
$INTERSECTIONCOLOR
 70
   257
  9
$DIMASSOC
280
     2
  9
$PROJECTNAME
  1

  9
$CAMERADISPLAY
290
     0
  9
$LENSLENGTH
 40
50.0
  9
$CAMERAHEIGHT
 40
0.0
  9
$STEPSPERSEC
 40
2.0
  9
$STEPSIZE
 40
6.0
  9
$3DDWFPREC
 40
2.0
  9
$PSOLWIDTH
 40
0.25
  9
$PSOLHEIGHT
 40
4.0
  9
$LOFTANG1
 40
1.570796326794897
  9
$LOFTANG2
 40
1.570796326794897
  9
$LOFTMAG1
 40
0.0
  9
$LOFTMAG2
 40
0.0
  9
$LOFTPARAM
 70
     7
  9
$LOFTNORMALS
280
     1
  9
$LATITUDE
 40
37.795
  9
$LONGITUDE
 40
-122.394
  9
$NORTHDIRECTION
 40
0.0
  9
$TIMEZONE
 70
 -8000
  9
$LIGHTGLYPHDISPLAY
280
     1
  9
$TILEMODELIGHTSYNCH
280
     1
  9
$CMATERIAL
347
3C
  9
$SOLIDHIST
280
     1
  9
$SHOWHIST
280
     1
  9
$DWFFRAME
280
     2
  9
$DGNFRAME
280
     2
  9
$REALWORLDSCALE
290
     1
  9
$INTERFERECOLOR
 62
   256
  9
$CSHADOW
280
     0
  9
$SHADOWPLANELOCATION
 40
0.0
  0
ENDSEC
  0
SECTION
  2
CLASSES
  0
CLASS
  1
ACDBDICTIONARYWDFLT
  2
AcDbDictionaryWithDefault
  3
ObjectDBX Classes
 90
        0
 91
        4
280
     0
281
     0
  0
CLASS
  1
VISUALSTYLE
  2
AcDbVisualStyle
  3
ObjectDBX Classes
 90
     4095
 91
        4
280
     0
281
     0
  0
CLASS
  1
MATERIAL
  2
AcDbMaterial
  3
ObjectDBX Classes
 90
     1153
 91
        4
280
     0
281
     0
  0
CLASS
  1
SUN
  2
AcDbSun
  3
SCENEOE
 90
     1024
 91
        4
280
     0
281
     0
  0
ENDSEC
  0
SECTION
  2
TABLES
  0
TABLE
  2
VPORT
  5
8
330
0
100
AcDbSymbolTable
 70
     1
  0
VPORT
  5
29
330
8
100
AcDbSymbolTableRecord
100
AcDbViewportTableRecord
  2
*Active
 70
     0
 10
0.0
 20
0.0
 11
1.0
 21
1.0
 12
0.0
 22
0.0
 13
0.0
 23
0.0
 14
0.5
 24
0.5
 15
0.5
 25
0.5
 16
0.0
 26
0.0
 36
1.0
 17
301.1304816375261
 27
8.292033492856262
 37
0.0
 40
1256.365811044306
 41
0.6285714285714277
 42
50.0
 43
0.0
 44
0.0
 50
0.0
 51
0.0
 71
     0
 72
   100
 73
     1
 74
     3
 75
     0
 76
     0
 77
     0
 78
     0
281
     0
 65
     1
110
0.0
120
0.0
130
0.0
111
1.0
121
0.0
131
0.0
112
0.0
122
1.0
132
0.0
 79
     0
146
0.0
 60
     3
 61
     5
292
     1
282
     1
141
0.0
142
0.0
 63
   250
361
3F
  0
ENDTAB
  0
TABLE
  2
LTYPE
  5
5
330
0
100
AcDbSymbolTable
 70
     1
  0
LTYPE
  5
14
330
5
100
AcDbSymbolTableRecord
100
AcDbLinetypeTableRecord
  2
ByBlock
 70
     0
  3

 72
    65
 73
     0
 40
0.0
  0
LTYPE
  5
15
330
5
100
AcDbSymbolTableRecord
100
AcDbLinetypeTableRecord
  2
ByLayer
 70
     0
  3

 72
    65
 73
     0
 40
0.0
  0
LTYPE
  5
16
330
5
100
AcDbSymbolTableRecord
100
AcDbLinetypeTableRecord
  2
Continuous
 70
     0
  3
Solid line
 72
    65
 73
     0
 40
0.0
  0
ENDTAB
  0
TABLE
  2
LAYER
  5
2
330
0
100
AcDbSymbolTable
 70
    11
  0
LAYER
  5
10
330
2
100
AcDbSymbolTableRecord
100
AcDbLayerTableRecord
  2
0
 70
     0
 62
     7
  6
Continuous
370
    -3
390
F
347
3E
  0
LAYER
  5
40
330
2
100
AcDbSymbolTableRecord
100
AcDbLayerTableRecord
  2
VISIBLE
 70
     0
 62
     7
  6
Continuous
370
    -3
390
F
347
3E
  0
LAYER
  5
41
330
2
100
AcDbSymbolTableRecord
100
AcDbLayerTableRecord
  2
4B-profileOutside-cut
 70
     0
 62
     7
  6
Continuous
370
    -3
390
F
347
3E
  0
LAYER
  5
93
330
2
100
AcDbSymbolTableRecord
100
AcDbLayerTableRecord
  2
4A-profileInside-cut
 70
     0
 62
     7
  6
Continuous
370
    -3
390
F
347
3E
  0
LAYER
  5
9E
330
2
100
AcDbSymbolTableRecord
100
AcDbLayerTableRecord
  2
4-profileOutside-intw-7mm-profundidad
 70
     0
 62
     7
  6
Continuous
370
    -3
390
F
347
3E
  0
LAYER
  5
B3
330
2
100
AcDbSymbolTableRecord
100
AcDbLayerTableRecord
  2
3-poket-extw-rest-9mm-profundidad
 70
     0
 62
     7
  6
Continuous
370
    -3
390
F
347
3E
  0
LAYER
  5
C8
330
2
100
AcDbSymbolTableRecord
100
AcDbLayerTableRecord
  2
3-poket-extw-rest-7mm-profundidad
 70
     0
 62
     7
  6
Continuous
370
    -3
390
F
347
3E
  0
LAYER
  5
DD
330
2
100
AcDbSymbolTableRecord
100
AcDbLayerTableRecord
  2
3-poket-extw-center
 70
     0
 62
     7
  6
Continuous
370
    -3
390
F
347
3E
  0
LAYER
  5
F2
330
2
100
AcDbSymbolTableRecord
100
AcDbLayerTableRecord
  2
3-poket-9mm
 70
     0
 62
     7
  6
Continuous
370
    -3
390
F
347
3E
  0
LAYER
  5
135
330
2
100
AcDbSymbolTableRecord
100
AcDbLayerTableRecord
  2
3-poket-5mm
 70
     0
 62
     7
  6
Continuous
370
    -3
390
F
347
3E
  0
LAYER
  5
15E
330
2
100
AcDbSymbolTableRecord
100
AcDbLayerTableRecord
  2
holes
 70
     0
 62
     7
  6
Continuous
370
    -3
390
F
347
3E
  0
ENDTAB
  0
TABLE
  2
STYLE
  5
3
330
0
100
AcDbSymbolTable
 70
     1
  0
STYLE
  5
11
330
3
100
AcDbSymbolTableRecord
100
AcDbTextStyleTableRecord
  2
Standard
 70
     0
 40
0.0
 41
1.0
 50
0.0
 71
     0
 42
0.2
  3
txt
  4

  0
ENDTAB
  0
TABLE
  2
VIEW
  5
6
330
0
100
AcDbSymbolTable
 70
     0
  0
ENDTAB
  0
TABLE
  2
UCS
  5
7
330
0
100
AcDbSymbolTable
 70
     0
  0
ENDTAB
  0
TABLE
  2
APPID
  5
9
330
0
100
AcDbSymbolTable
 70
     1
  0
APPID
  5
12
330
9
100
AcDbSymbolTableRecord
100
AcDbRegAppTableRecord
  2
ACAD
 70
     0
  0
ENDTAB
  0
TABLE
  2
DIMSTYLE
  5
A
330
0
100
AcDbSymbolTable
 70
     1
100
AcDbDimStyleTable
  0
DIMSTYLE
105
27
330
A
100
AcDbSymbolTableRecord
100
AcDbDimStyleTableRecord
  2
Standard
 70
     0
178
     0
340
11
  0
ENDTAB
  0
TABLE
  2
BLOCK_RECORD
  5
1
330
0
100
AcDbSymbolTable
 70
    66
  0
BLOCK_RECORD
  5
1F
330
1
100
AcDbSymbolTableRecord
100
AcDbBlockTableRecord
  2
*Model_Space
340
22
 70
     0
280
     1
281
     0
  0
BLOCK_RECORD
  5
1B
330
1
100
AcDbSymbolTableRecord
100
AcDbBlockTableRecord
  2
*Paper_Space
340
1E
 70
     0
280
     1
281
     0
  0
BLOCK_RECORD
  5
23
330
1
100
AcDbSymbolTableRecord
100
AcDbBlockTableRecord
  2
*Paper_Space0
340
26
 70
     0
280
     1
281
     0
  0
BLOCK_RECORD
  5
42
330
1
100
AcDbSymbolTableRecord
100
AcDbBlockTableRecord
  2
block 2
340
0
102
{BLKREFS
331
43
102
}
 70
     0
280
     1
281
     0
  0
BLOCK_RECORD
  5
47
330
1
100
AcDbSymbolTableRecord
100
AcDbBlockTableRecord
  2
block 3
340
0
102
{BLKREFS
331
48
102
}
 70
     0
280
     1
281
     0
  0
BLOCK_RECORD
  5
4C
330
1
100
AcDbSymbolTableRecord
100
AcDbBlockTableRecord
  2
block 4
340
0
102
{BLKREFS
331
4D
102
}
 70
     0
280
     1
281
     0
  0
BLOCK_RECORD
  5
57
330
1
100
AcDbSymbolTableRecord
100
AcDbBlockTableRecord
  2
block 5
340
0
102
{BLKREFS
331
58
102
}
 70
     0
280
     1
281
     0
  0
BLOCK_RECORD
  5
5C
330
1
100
AcDbSymbolTableRecord
100
AcDbBlockTableRecord
  2
block 6
340
0
102
{BLKREFS
331
5D
102
}
 70
     0
280
     1
281
     0
  0
BLOCK_RECORD
  5
61
330
1
100
AcDbSymbolTableRecord
100
AcDbBlockTableRecord
  2
block 7
340
0
102
{BLKREFS
331
62
102
}
 70
     0
280
     1
281
     0
  0
BLOCK_RECORD
  5
66
330
1
100
AcDbSymbolTableRecord
100
AcDbBlockTableRecord
  2
block 8
340
0
102
{BLKREFS
331
67
102
}
 70
     0
280
     1
281
     0
  0
BLOCK_RECORD
  5
6B
330
1
100
AcDbSymbolTableRecord
100
AcDbBlockTableRecord
  2
block 9
340
0
102
{BLKREFS
331
6C
102
}
 70
     0
280
     1
281
     0
  0
BLOCK_RECORD
  5
70
330
1
100
AcDbSymbolTableRecord
100
AcDbBlockTableRecord
  2
block 10
340
0
102
{BLKREFS
331
71
102
}
 70
     0
280
     1
281
     0
  0
BLOCK_RECORD
  5
75
330
1
100
AcDbSymbolTableRecord
100
AcDbBlockTableRecord
  2
block 11
340
0
102
{BLKREFS
331
76
102
}
 70
     0
280
     1
281
     0
  0
BLOCK_RECORD
  5
7A
330
1
100
AcDbSymbolTableRecord
100
AcDbBlockTableRecord
  2
block 12
340
0
102
{BLKREFS
331
7B
102
}
 70
     0
280
     1
281
     0
  0
BLOCK_RECORD
  5
7F
330
1
100
AcDbSymbolTableRecord
100
AcDbBlockTableRecord
  2
block 13
340
0
102
{BLKREFS
331
80
102
}
 70
     0
280
     1
281
     0
  0
BLOCK_RECORD
  5
84
330
1
100
AcDbSymbolTableRecord
100
AcDbBlockTableRecord
  2
block 14
340
0
102
{BLKREFS
331
85
102
}
 70
     0
280
     1
281
     0
  0
BLOCK_RECORD
  5
89
330
1
100
AcDbSymbolTableRecord
100
AcDbBlockTableRecord
  2
block 15
340
0
102
{BLKREFS
331
8A
102
}
 70
     0
280
     1
281
     0
  0
BLOCK_RECORD
  5
8E
330
1
100
AcDbSymbolTableRecord
100
AcDbBlockTableRecord
  2
block 16
340
0
102
{BLKREFS
331
8F
102
}
 70
     0
280
     1
281
     0
  0
BLOCK_RECORD
  5
94
330
1
100
AcDbSymbolTableRecord
100
AcDbBlockTableRecord
  2
block 17
340
0
102
{BLKREFS
331
95
102
}
 70
     0
280
     1
281
     0
  0
BLOCK_RECORD
  5
99
330
1
100
AcDbSymbolTableRecord
100
AcDbBlockTableRecord
  2
block 18
340
0
102
{BLKREFS
331
9A
102
}
 70
     0
280
     1
281
     0
  0
BLOCK_RECORD
  5
9F
330
1
100
AcDbSymbolTableRecord
100
AcDbBlockTableRecord
  2
block 19
340
0
102
{BLKREFS
331
A0
102
}
 70
     0
280
     1
281
     0
  0
BLOCK_RECORD
  5
A4
330
1
100
AcDbSymbolTableRecord
100
AcDbBlockTableRecord
  2
block 20
340
0
102
{BLKREFS
331
A5
102
}
 70
     0
280
     1
281
     0
  0
BLOCK_RECORD
  5
A9
330
1
100
AcDbSymbolTableRecord
100
AcDbBlockTableRecord
  2
block 21
340
0
102
{BLKREFS
331
AA
102
}
 70
     0
280
     1
281
     0
  0
BLOCK_RECORD
  5
AE
330
1
100
AcDbSymbolTableRecord
100
AcDbBlockTableRecord
  2
block 22
340
0
102
{BLKREFS
331
AF
102
}
 70
     0
280
     1
281
     0
  0
BLOCK_RECORD
  5
B4
330
1
100
AcDbSymbolTableRecord
100
AcDbBlockTableRecord
  2
block 23
340
0
102
{BLKREFS
331
B5
102
}
 70
     0
280
     1
281
     0
  0
BLOCK_RECORD
  5
B9
330
1
100
AcDbSymbolTableRecord
100
AcDbBlockTableRecord
  2
block 24
340
0
102
{BLKREFS
331
BA
102
}
 70
     0
280
     1
281
     0
  0
BLOCK_RECORD
  5
BE
330
1
100
AcDbSymbolTableRecord
100
AcDbBlockTableRecord
  2
block 25
340
0
102
{BLKREFS
331
BF
102
}
 70
     0
280
     1
281
     0
  0
BLOCK_RECORD
  5
C3
330
1
100
AcDbSymbolTableRecord
100
AcDbBlockTableRecord
  2
block 26
340
0
102
{BLKREFS
331
C4
102
}
 70
     0
280
     1
281
     0
  0
BLOCK_RECORD
  5
C9
330
1
100
AcDbSymbolTableRecord
100
AcDbBlockTableRecord
  2
block 27
340
0
102
{BLKREFS
331
CA
102
}
 70
     0
280
     1
281
     0
  0
BLOCK_RECORD
  5
CE
330
1
100
AcDbSymbolTableRecord
100
AcDbBlockTableRecord
  2
block 28
340
0
102
{BLKREFS
331
CF
102
}
 70
     0
280
     1
281
     0
  0
BLOCK_RECORD
  5
D3
330
1
100
AcDbSymbolTableRecord
100
AcDbBlockTableRecord
  2
block 29
340
0
102
{BLKREFS
331
D4
102
}
 70
     0
280
     1
281
     0
  0
BLOCK_RECORD
  5
D8
330
1
100
AcDbSymbolTableRecord
100
AcDbBlockTableRecord
  2
block 30
340
0
102
{BLKREFS
331
D9
102
}
 70
     0
280
     1
281
     0
  0
BLOCK_RECORD
  5
DE
330
1
100
AcDbSymbolTableRecord
100
AcDbBlockTableRecord
  2
block 31
340
0
102
{BLKREFS
331
DF
102
}
 70
     0
280
     1
281
     0
  0
BLOCK_RECORD
  5
E3
330
1
100
AcDbSymbolTableRecord
100
AcDbBlockTableRecord
  2
block 32
340
0
102
{BLKREFS
331
E4
102
}
 70
     0
280
     1
281
     0
  0
BLOCK_RECORD
  5
E8
330
1
100
AcDbSymbolTableRecord
100
AcDbBlockTableRecord
  2
block 33
340
0
102
{BLKREFS
331
E9
102
}
 70
     0
280
     1
281
     0
  0
BLOCK_RECORD
  5
ED
330
1
100
AcDbSymbolTableRecord
100
AcDbBlockTableRecord
  2
block 34
340
0
102
{BLKREFS
331
EE
102
}
 70
     0
280
     1
281
     0
  0
BLOCK_RECORD
  5
F3
330
1
100
AcDbSymbolTableRecord
100
AcDbBlockTableRecord
  2
block 35
340
0
102
{BLKREFS
331
F4
102
}
 70
     0
280
     1
281
     0
  0
BLOCK_RECORD
  5
F8
330
1
100
AcDbSymbolTableRecord
100
AcDbBlockTableRecord
  2
block 36
340
0
102
{BLKREFS
331
F9
102
}
 70
     0
280
     1
281
     0
  0
BLOCK_RECORD
  5
FD
330
1
100
AcDbSymbolTableRecord
100
AcDbBlockTableRecord
  2
block 37
340
0
102
{BLKREFS
331
FE
102
}
 70
     0
280
     1
281
     0
  0
BLOCK_RECORD
  5
102
330
1
100
AcDbSymbolTableRecord
100
AcDbBlockTableRecord
  2
block 38
340
0
102
{BLKREFS
331
103
102
}
 70
     0
280
     1
281
     0
  0
BLOCK_RECORD
  5
107
330
1
100
AcDbSymbolTableRecord
100
AcDbBlockTableRecord
  2
block 39
340
0
102
{BLKREFS
331
108
102
}
 70
     0
280
     1
281
     0
  0
BLOCK_RECORD
  5
10C
330
1
100
AcDbSymbolTableRecord
100
AcDbBlockTableRecord
  2
block 40
340
0
102
{BLKREFS
331
10D
102
}
 70
     0
280
     1
281
     0
  0
BLOCK_RECORD
  5
118
330
1
100
AcDbSymbolTableRecord
100
AcDbBlockTableRecord
  2
block 41
340
0
102
{BLKREFS
331
119
102
}
 70
     0
280
     1
281
     0
  0
BLOCK_RECORD
  5
12A
330
1
100
AcDbSymbolTableRecord
100
AcDbBlockTableRecord
  2
block 42
340
0
102
{BLKREFS
331
12B
102
}
 70
     0
280
     1
281
     0
  0
BLOCK_RECORD
  5
136
330
1
100
AcDbSymbolTableRecord
100
AcDbBlockTableRecord
  2
block 43
340
0
102
{BLKREFS
331
137
102
}
 70
     0
280
     1
281
     0
  0
BLOCK_RECORD
  5
13B
330
1
100
AcDbSymbolTableRecord
100
AcDbBlockTableRecord
  2
block 44
340
0
102
{BLKREFS
331
13C
102
}
 70
     0
280
     1
281
     0
  0
BLOCK_RECORD
  5
140
330
1
100
AcDbSymbolTableRecord
100
AcDbBlockTableRecord
  2
block 45
340
0
102
{BLKREFS
331
141
102
}
 70
     0
280
     1
281
     0
  0
BLOCK_RECORD
  5
145
330
1
100
AcDbSymbolTableRecord
100
AcDbBlockTableRecord
  2
block 46
340
0
102
{BLKREFS
331
146
102
}
 70
     0
280
     1
281
     0
  0
BLOCK_RECORD
  5
14A
330
1
100
AcDbSymbolTableRecord
100
AcDbBlockTableRecord
  2
block 47
340
0
102
{BLKREFS
331
14B
102
}
 70
     0
280
     1
281
     0
  0
BLOCK_RECORD
  5
14F
330
1
100
AcDbSymbolTableRecord
100
AcDbBlockTableRecord
  2
block 48
340
0
102
{BLKREFS
331
150
102
}
 70
     0
280
     1
281
     0
  0
BLOCK_RECORD
  5
154
330
1
100
AcDbSymbolTableRecord
100
AcDbBlockTableRecord
  2
block 49
340
0
102
{BLKREFS
331
155
102
}
 70
     0
280
     1
281
     0
  0
BLOCK_RECORD
  5
159
330
1
100
AcDbSymbolTableRecord
100
AcDbBlockTableRecord
  2
block 50
340
0
102
{BLKREFS
331
15A
102
}
 70
     0
280
     1
281
     0
  0
BLOCK_RECORD
  5
15F
330
1
100
AcDbSymbolTableRecord
100
AcDbBlockTableRecord
  2
block 51
340
0
102
{BLKREFS
331
160
102
}
 70
     0
280
     1
281
     0
  0
BLOCK_RECORD
  5
164
330
1
100
AcDbSymbolTableRecord
100
AcDbBlockTableRecord
  2
block 52
340
0
102
{BLKREFS
331
165
102
}
 70
     0
280
     1
281
     0
  0
BLOCK_RECORD
  5
169
330
1
100
AcDbSymbolTableRecord
100
AcDbBlockTableRecord
  2
block 53
340
0
102
{BLKREFS
331
16A
102
}
 70
     0
280
     1
281
     0
  0
BLOCK_RECORD
  5
16E
330
1
100
AcDbSymbolTableRecord
100
AcDbBlockTableRecord
  2
block 54
340
0
102
{BLKREFS
331
16F
102
}
 70
     0
280
     1
281
     0
  0
BLOCK_RECORD
  5
173
330
1
100
AcDbSymbolTableRecord
100
AcDbBlockTableRecord
  2
block 55
340
0
102
{BLKREFS
331
174
102
}
 70
     0
280
     1
281
     0
  0
BLOCK_RECORD
  5
178
330
1
100
AcDbSymbolTableRecord
100
AcDbBlockTableRecord
  2
block 56
340
0
102
{BLKREFS
331
179
102
}
 70
     0
280
     1
281
     0
  0
BLOCK_RECORD
  5
17D
330
1
100
AcDbSymbolTableRecord
100
AcDbBlockTableRecord
  2
block 57
340
0
102
{BLKREFS
331
17E
102
}
 70
     0
280
     1
281
     0
  0
BLOCK_RECORD
  5
182
330
1
100
AcDbSymbolTableRecord
100
AcDbBlockTableRecord
  2
block 58
340
0
102
{BLKREFS
331
183
102
}
 70
     0
280
     1
281
     0
  0
BLOCK_RECORD
  5
187
330
1
100
AcDbSymbolTableRecord
100
AcDbBlockTableRecord
  2
block 59
340
0
102
{BLKREFS
331
188
102
}
 70
     0
280
     1
281
     0
  0
BLOCK_RECORD
  5
18C
330
1
100
AcDbSymbolTableRecord
100
AcDbBlockTableRecord
  2
block 60
340
0
102
{BLKREFS
331
18D
102
}
 70
     0
280
     1
281
     0
  0
BLOCK_RECORD
  5
191
330
1
100
AcDbSymbolTableRecord
100
AcDbBlockTableRecord
  2
block 61
340
0
102
{BLKREFS
331
192
102
}
 70
     0
280
     1
281
     0
  0
BLOCK_RECORD
  5
196
330
1
100
AcDbSymbolTableRecord
100
AcDbBlockTableRecord
  2
block 62
340
0
102
{BLKREFS
331
197
102
}
 70
     0
280
     1
281
     0
  0
BLOCK_RECORD
  5
19B
330
1
100
AcDbSymbolTableRecord
100
AcDbBlockTableRecord
  2
block 63
340
0
102
{BLKREFS
331
19C
102
}
 70
     0
280
     1
281
     0
  0
BLOCK_RECORD
  5
1A0
330
1
100
AcDbSymbolTableRecord
100
AcDbBlockTableRecord
  2
block 64
340
0
102
{BLKREFS
331
1A1
102
}
 70
     0
280
     1
281
     0
  0
BLOCK_RECORD
  5
1A5
330
1
100
AcDbSymbolTableRecord
100
AcDbBlockTableRecord
  2
block 65
340
0
102
{BLKREFS
331
1A6
102
}
 70
     0
280
     1
281
     0
  0
BLOCK_RECORD
  5
1AA
330
1
100
AcDbSymbolTableRecord
100
AcDbBlockTableRecord
  2
block 66
340
0
102
{BLKREFS
331
1AB
102
}
 70
     0
280
     1
281
     0
  0
ENDTAB
  0
ENDSEC
  0
SECTION
  2
BLOCKS
  0
BLOCK
  5
20
330
1F
100
AcDbEntity
  8
0
100
AcDbBlockBegin
  2
*Model_Space
 70
     0
 10
0.0
 20
0.0
 30
0.0
  3
*Model_Space
  1

  0
ENDBLK
  5
21
330
1F
100
AcDbEntity
  8
0
100
AcDbBlockEnd
  0
BLOCK
  5
1C
330
1B
100
AcDbEntity
 67
     1
  8
0
100
AcDbBlockBegin
  2
*Paper_Space
 70
     0
 10
0.0
 20
0.0
 30
0.0
  3
*Paper_Space
  1

  0
ENDBLK
  5
1D
330
1B
100
AcDbEntity
 67
     1
  8
0
100
AcDbBlockEnd
  0
BLOCK
  5
24
330
23
100
AcDbEntity
  8
0
100
AcDbBlockBegin
  2
*Paper_Space0
 70
     0
 10
0.0
 20
0.0
 30
0.0
  3
*Paper_Space0
  1

  0
ENDBLK
  5
25
330
23
100
AcDbEntity
  8
0
100
AcDbBlockEnd
  0
BLOCK
  5
44
330
42
100
AcDbEntity
  8
0
100
AcDbBlockBegin
  2
block 2
 70
     0
 10
0.0
 20
0.0
 30
0.0
  3
block 2
  1

  0
SPLINE
  5
46
330
42
100
AcDbEntity
  8
4B-profileOutside-cut
 62
     7
420
 16777215
370
    70
100
AcDbSpline
210
0.0
220
0.0
230
1.0
 70
    11
 71
     3
 72
    65
 73
    61
 74
     0
 42
0.0000000001
 43
0.0000000001
 12
1.0
 22
0.0
 32
0.0
 13
1.0
 23
0.0
 33
0.0
 40
0.0
 40
0.0
 40
0.0
 40
0.0
 40
1.0
 40
1.0
 40
1.0
 40
2.0
 40
2.0
 40
2.0
 40
3.0
 40
3.0
 40
3.0
 40
4.0
 40
4.0
 40
4.0
 40
5.0
 40
5.0
 40
5.0
 40
6.0
 40
6.0
 40
6.0
 40
7.0
 40
7.0
 40
7.0
 40
8.0
 40
8.0
 40
8.0
 40
9.0
 40
9.0
 40
9.0
 40
10.0
 40
10.0
 40
10.0
 40
11.0
 40
11.0
 40
11.0
 40
12.0
 40
12.0
 40
12.0
 40
13.0
 40
13.0
 40
13.0
 40
14.0
 40
14.0
 40
14.0
 40
15.0
 40
15.0
 40
15.0
 40
16.0
 40
16.0
 40
16.0
 40
17.0
 40
17.0
 40
17.0
 40
18.0
 40
18.0
 40
18.0
 40
19.0
 40
19.0
 40
19.0
 40
20.0
 40
20.0
 40
20.0
 40
20.0
 10
281.61539508165
 20
10.94514055487594
 30
0.0
 10
281.61539508165
 20
10.94514055487594
 30
0.0
 10
281.61539508165
 20
2.595140554875801
 30
0.0
 10
281.61539508165
 20
2.595140554875801
 30
0.0
 10
281.61539508165
 20
2.595140554875801
 30
0.0
 10
-48.38460491835012
 20
2.595140554875801
 30
0.0
 10
-48.38460491835012
 20
2.595140554875801
 30
0.0
 10
-48.38460491835012
 20
2.595140554875801
 30
0.0
 10
-48.38460491835012
 20
10.94514055487594
 30
0.0
 10
-48.38460491835012
 20
10.94514055487594
 30
0.0
 10
-48.38460491835012
 20
10.94514055487594
 30
0.0
 10
-48.38460491835012
 20
19.89514055487609
 30
0.0
 10
-48.38460491835012
 20
19.89514055487609
 30
0.0
 10
-48.38460491835012
 20
19.89514055487609
 30
0.0
 10
-48.38460491835044
 20
39.72014207954096
 30
0.0
 10
-48.38460491835044
 20
39.72014207954096
 30
0.0
 10
-48.38460576039947
 20
41.48745268358095
 30
0.0
 10
-49.81729431431024
 20
42.92014055487602
 30
0.0
 10
-51.58460491834992
 20
42.92014055487602
 30
0.0
 10
-51.58460491834992
 20
42.92014055487602
 30
0.0
 10
-56.93460491834994
 20
42.92014055487602
 30
0.0
 10
-56.93460491834994
 20
42.92014055487602
 30
0.0
 10
-56.93460491834994
 20
42.92014055487602
 30
0.0
 10
-56.93460491834994
 20
89.3701405548759
 30
0.0
 10
-56.93460491834994
 20
89.3701405548759
 30
0.0
 10
-56.93460491834994
 20
89.3701405548759
 30
0.0
 10
-51.58460491834992
 20
89.3701405548759
 30
0.0
 10
-51.58460491834992
 20
89.3701405548759
 30
0.0
 10
-49.8172937188915
 20
89.3701405548759
 30
0.0
 10
-48.38460491835012
 20
90.80282935541727
 30
0.0
 10
-48.38460491835012
 20
92.57014055487569
 30
0.0
 10
-48.38460491835012
 20
92.57014055487569
 30
0.0
 10
-48.38460491835012
 20
112.5951405548758
 30
0.0
 10
-48.38460491835012
 20
112.5951405548758
 30
0.0
 10
-48.38460491835012
 20
112.5951405548758
 30
0.0
 10
281.61539508165
 20
112.5951405548758
 30
0.0
 10
281.61539508165
 20
112.5951405548758
 30
0.0
 10
281.61539508165
 20
112.5951405548758
 30
0.0
 10
281.61539508165
 20
92.57014055487569
 30
0.0
 10
281.61539508165
 20
92.57014055487569
 30
0.0
 10
281.61539508165
 20
90.80282935541727
 30
0.0
 10
283.0480838821917
 20
89.3701405548759
 30
0.0
 10
284.8153950816501
 20
89.3701405548759
 30
0.0
 10
284.8153950816501
 20
89.3701405548759
 30
0.0
 10
290.1653950816501
 20
89.3701405548759
 30
0.0
 10
290.1653950816501
 20
89.3701405548759
 30
0.0
 10
290.1653950816501
 20
89.3701405548759
 30
0.0
 10
290.1653950816501
 20
42.92014055487602
 30
0.0
 10
290.1653950816501
 20
42.92014055487602
 30
0.0
 10
290.1653950816501
 20
42.92014055487602
 30
0.0
 10
284.8153950816501
 20
42.92014055487602
 30
0.0
 10
284.8153950816501
 20
42.92014055487602
 30
0.0
 10
283.0480838821917
 20
42.92014055487602
 30
0.0
 10
281.61539508165
 20
41.48745175433464
 30
0.0
 10
281.61539508165
 20
39.72014055487623
 30
0.0
 10
281.61539508165
 20
39.72014055487623
 30
0.0
 10
281.61539508165
 20
19.89514055487609
 30
0.0
 10
281.61539508165
 20
19.89514055487609
 30
0.0
 10
281.61539508165
 20
19.89514055487609
 30
0.0
 10
281.61539508165
 20
10.94514055487594
 30
0.0
 10
281.61539508165
 20
10.94514055487594
 30
0.0
  0
ENDBLK
  5
45
330
42
100
AcDbEntity
  8
0
100
AcDbBlockEnd
  0
BLOCK
  5
49
330
47
100
AcDbEntity
  8
0
100
AcDbBlockBegin
  2
block 3
 70
     0
 10
0.0
 20
0.0
 30
0.0
  3
block 3
  1

  0
SPLINE
  5
4B
330
47
100
AcDbEntity
  8
4B-profileOutside-cut
 62
     7
420
 16777215
370
    70
100
AcDbSpline
210
0.0
220
0.0
230
1.0
 70
    11
 71
     3
 72
    65
 73
    61
 74
     0
 42
0.0000000001
 43
0.0000000001
 12
1.0
 22
0.0
 32
0.0
 13
1.0
 23
0.0
 33
0.0
 40
0.0
 40
0.0
 40
0.0
 40
0.0
 40
1.0
 40
1.0
 40
1.0
 40
2.0
 40
2.0
 40
2.0
 40
3.0
 40
3.0
 40
3.0
 40
4.0
 40
4.0
 40
4.0
 40
5.0
 40
5.0
 40
5.0
 40
6.0
 40
6.0
 40
6.0
 40
7.0
 40
7.0
 40
7.0
 40
8.0
 40
8.0
 40
8.0
 40
9.0
 40
9.0
 40
9.0
 40
10.0
 40
10.0
 40
10.0
 40
11.0
 40
11.0
 40
11.0
 40
12.0
 40
12.0
 40
12.0
 40
13.0
 40
13.0
 40
13.0
 40
14.0
 40
14.0
 40
14.0
 40
15.0
 40
15.0
 40
15.0
 40
16.0
 40
16.0
 40
16.0
 40
17.0
 40
17.0
 40
17.0
 40
18.0
 40
18.0
 40
18.0
 40
19.0
 40
19.0
 40
19.0
 40
20.0
 40
20.0
 40
20.0
 40
20.0
 10
-49.71032021344791
 20
161.8089831025219
 30
0.0
 10
-49.71032021344791
 20
161.8089831025219
 30
0.0
 10
-49.71032021344791
 20
153.4589831025217
 30
0.0
 10
-49.71032021344791
 20
153.4589831025217
 30
0.0
 10
-49.71032021344791
 20
153.4589831025217
 30
0.0
 10
280.2896797865522
 20
153.4589831025217
 30
0.0
 10
280.2896797865522
 20
153.4589831025217
 30
0.0
 10
280.2896797865522
 20
153.4589831025217
 30
0.0
 10
280.2896797865522
 20
161.8089831025219
 30
0.0
 10
280.2896797865522
 20
161.8089831025219
 30
0.0
 10
280.2896797865522
 20
161.8089831025219
 30
0.0
 10
280.2896797865522
 20
170.758983102522
 30
0.0
 10
280.2896797865522
 20
170.758983102522
 30
0.0
 10
280.2896797865522
 20
170.758983102522
 30
0.0
 10
280.2896797865522
 20
190.5839846271869
 30
0.0
 10
280.2896797865522
 20
190.5839846271869
 30
0.0
 10
280.2896806286012
 20
192.3512952312266
 30
0.0
 10
281.7223691825123
 20
193.7839831025219
 30
0.0
 10
283.4896797865523
 20
193.7839831025219
 30
0.0
 10
283.4896797865523
 20
193.7839831025219
 30
0.0
 10
288.8396797865517
 20
193.7839831025219
 30
0.0
 10
288.8396797865517
 20
193.7839831025219
 30
0.0
 10
288.8396797865517
 20
193.7839831025219
 30
0.0
 10
288.8396797865517
 20
240.2339831025218
 30
0.0
 10
288.8396797865517
 20
240.2339831025218
 30
0.0
 10
288.8396797865517
 20
240.2339831025218
 30
0.0
 10
283.4896797865517
 20
240.2339831025215
 30
0.0
 10
283.4896797865517
 20
240.2339831025215
 30
0.0
 10
281.7223685870932
 20
240.2339831025218
 30
0.0
 10
280.2896797865522
 20
241.6666719030632
 30
0.0
 10
280.2896797865522
 20
243.4339831025216
 30
0.0
 10
280.2896797865522
 20
243.4339831025216
 30
0.0
 10
280.2896797865522
 20
263.4589831025221
 30
0.0
 10
280.2896797865522
 20
263.4589831025221
 30
0.0
 10
280.2896797865522
 20
263.4589831025221
 30
0.0
 10
-49.71032021344791
 20
263.4589831025221
 30
0.0
 10
-49.71032021344791
 20
263.4589831025221
 30
0.0
 10
-49.71032021344791
 20
263.4589831025221
 30
0.0
 10
-49.71032021344791
 20
243.4339831025216
 30
0.0
 10
-49.71032021344791
 20
243.4339831025216
 30
0.0
 10
-49.71032021344791
 20
241.6666719030632
 30
0.0
 10
-51.14300901398961
 20
240.2339831025215
 30
0.0
 10
-52.91032021344802
 20
240.2339831025218
 30
0.0
 10
-52.91032021344802
 20
240.2339831025218
 30
0.0
 10
-58.26032021344805
 20
240.2339831025218
 30
0.0
 10
-58.26032021344805
 20
240.2339831025218
 30
0.0
 10
-58.26032021344805
 20
240.2339831025218
 30
0.0
 10
-58.26032021344805
 20
193.7839831025219
 30
0.0
 10
-58.26032021344805
 20
193.7839831025219
 30
0.0
 10
-58.26032021344805
 20
193.7839831025219
 30
0.0
 10
-52.91032021344802
 20
193.7839831025219
 30
0.0
 10
-52.91032021344802
 20
193.7839831025219
 30
0.0
 10
-51.14300901398961
 20
193.7839831025219
 30
0.0
 10
-49.71032021344855
 20
192.3512943019806
 30
0.0
 10
-49.71032021344791
 20
190.5839831025218
 30
0.0
 10
-49.71032021344791
 20
190.5839831025218
 30
0.0
 10
-49.71032021344791
 20
170.758983102522
 30
0.0
 10
-49.71032021344791
 20
170.758983102522
 30
0.0
 10
-49.71032021344791
 20
170.758983102522
 30
0.0
 10
-49.71032021344791
 20
161.8089831025219
 30
0.0
 10
-49.71032021344791
 20
161.8089831025219
 30
0.0
  0
ENDBLK
  5
4A
330
47
100
AcDbEntity
  8
0
100
AcDbBlockEnd
  0
BLOCK
  5
4E
330
4C
100
AcDbEntity
  8
0
100
AcDbBlockBegin
  2
block 4
 70
     0
 10
0.0
 20
0.0
 30
0.0
  3
block 4
  1

  0
POLYLINE
  5
50
330
4C
100
AcDbEntity
  8
4B-profileOutside-cut
 62
     7
420
 16777215
370
    70
100
AcDb2dPolyline
 66
     1
 10
0.0
 20
0.0
 30
0.0
  0
VERTEX
  5
51
330
50
100
AcDbEntity
  8
4B-profileOutside-cut
 62
     7
420
 16777215
370
    70
100
AcDbVertex
100
AcDb2dVertex
 10
298.795157646109
 20
-47.44821622711729
 30
0.0
  0
VERTEX
  5
52
330
50
100
AcDbEntity
  8
4B-profileOutside-cut
 62
     7
420
 16777215
370
    70
100
AcDbVertex
100
AcDb2dVertex
 10
298.795157646109
 20
-365.1482162271166
 30
0.0
  0
VERTEX
  5
53
330
50
100
AcDbEntity
  8
4B-profileOutside-cut
 62
     7
420
 16777215
370
    70
100
AcDbVertex
100
AcDb2dVertex
 10
-48.10484235389143
 20
-365.1482162271166
 30
0.0
  0
VERTEX
  5
54
330
50
100
AcDbEntity
  8
4B-profileOutside-cut
 62
     7
420
 16777215
370
    70
100
AcDbVertex
100
AcDb2dVertex
 10
-48.10484235389143
 20
-47.44821622711729
 30
0.0
  0
VERTEX
  5
55
330
50
100
AcDbEntity
  8
4B-profileOutside-cut
 62
     7
420
 16777215
370
    70
100
AcDbVertex
100
AcDb2dVertex
 10
298.795157646109
 20
-47.44821622711729
 30
0.0
  0
SEQEND
  5
56
330
50
100
AcDbEntity
  8
4B-profileOutside-cut
 62
     7
420
 16777215
370
    70
  0
ENDBLK
  5
4F
330
4C
100
AcDbEntity
  8
0
100
AcDbBlockEnd
  0
BLOCK
  5
59
330
57
100
AcDbEntity
  8
0
100
AcDbBlockBegin
  2
block 5
 70
     0
 10
0.0
 20
0.0
 30
0.0
  3
block 5
  1

  0
SPLINE
  5
5B
330
57
100
AcDbEntity
  8
4B-profileOutside-cut
 62
     7
420
 16777215
370
    70
100
AcDbSpline
210
0.0
220
0.0
230
1.0
 70
    11
 71
     3
 72
    29
 73
    25
 74
     0
 42
0.0000000001
 43
0.0000000001
 12
1.0
 22
0.0
 32
0.0
 13
1.0
 23
0.0
 33
0.0
 40
0.0
 40
0.0
 40
0.0
 40
0.0
 40
1.0
 40
1.0
 40
1.0
 40
2.0
 40
2.0
 40
2.0
 40
3.0
 40
3.0
 40
3.0
 40
4.0
 40
4.0
 40
4.0
 40
5.0
 40
5.0
 40
5.0
 40
6.0
 40
6.0
 40
6.0
 40
7.0
 40
7.0
 40
7.0
 40
8.0
 40
8.0
 40
8.0
 40
8.0
 10
-59.04480007537939
 20
492.1456572437429
 30
0.0
 10
-59.04480007537939
 20
530.8055897318976
 30
0.0
 10
-27.70473256353513
 20
562.1456572437428
 30
0.0
 10
10.95519992462051
 20
562.1456572437428
 30
0.0
 10
10.95519992462051
 20
562.1456572437428
 30
0.0
 10
345.9551999246204
 20
562.1456572437428
 30
0.0
 10
345.9551999246204
 20
562.1456572437428
 30
0.0
 10
384.6151324127752
 20
562.1456572437428
 30
0.0
 10
415.9551999246204
 20
530.8055897318976
 30
0.0
 10
415.9551999246204
 20
492.1456572437429
 30
0.0
 10
415.9551999246204
 20
492.1456572437429
 30
0.0
 10
415.9551999246204
 20
472.1456572437428
 30
0.0
 10
415.9551999246204
 20
472.1456572437428
 30
0.0
 10
415.9551999246204
 20
461.0999622471263
 30
0.0
 10
407.0008949212375
 20
452.1456572437428
 30
0.0
 10
395.9551999246203
 20
452.1456572437428
 30
0.0
 10
395.9551999246203
 20
452.1456572437428
 30
0.0
 10
-39.04480007537965
 20
452.1456572437428
 30
0.0
 10
-39.04480007537965
 20
452.1456572437428
 30
0.0
 10
-50.09049507199523
 20
452.1456572437428
 30
0.0
 10
-59.04480007537939
 20
461.0999622471298
 30
0.0
 10
-59.04480007537939
 20
472.1456572437428
 30
0.0
 10
-59.04480007537939
 20
472.1456572437428
 30
0.0
 10
-59.04480007537939
 20
492.1456572437429
 30
0.0
 10
-59.04480007537939
 20
492.1456572437429
 30
0.0
  0
ENDBLK
  5
5A
330
57
100
AcDbEntity
  8
0
100
AcDbBlockEnd
  0
BLOCK
  5
5E
330
5C
100
AcDbEntity
  8
0
100
AcDbBlockBegin
  2
block 6
 70
     0
 10
0.0
 20
0.0
 30
0.0
  3
block 6
  1

  0
SPLINE
  5
60
330
5C
100
AcDbEntity
  8
4B-profileOutside-cut
 62
     7
420
 16777215
370
    70
100
AcDbSpline
210
0.0
220
0.0
230
1.0
 70
    11
 71
     3
 72
    29
 73
    25
 74
     0
 42
0.0000000001
 43
0.0000000001
 12
1.0
 22
0.0
 32
0.0
 13
1.0
 23
0.0
 33
0.0
 40
0.0
 40
0.0
 40
0.0
 40
0.0
 40
1.0
 40
1.0
 40
1.0
 40
2.0
 40
2.0
 40
2.0
 40
3.0
 40
3.0
 40
3.0
 40
4.0
 40
4.0
 40
4.0
 40
5.0
 40
5.0
 40
5.0
 40
6.0
 40
6.0
 40
6.0
 40
7.0
 40
7.0
 40
7.0
 40
8.0
 40
8.0
 40
8.0
 40
8.0
 10
406.8991049970949
 20
341.2921736588005
 30
0.0
 10
406.8991049970949
 20
379.9521061469565
 30
0.0
 10
375.5590374852497
 20
411.2921736588017
 30
0.0
 10
336.8991049970937
 20
411.2921736588017
 30
0.0
 10
336.8991049970937
 20
411.2921736588017
 30
0.0
 10
1.899104997093471
 20
411.2921736588017
 30
0.0
 10
1.899104997093471
 20
411.2921736588017
 30
0.0
 10
-36.76082749106218
 20
411.2921736588017
 30
0.0
 10
-68.10089500290643
 20
379.9521061469565
 30
0.0
 10
-68.10089500290675
 20
341.2921736588005
 30
0.0
 10
-68.10089500290675
 20
341.2921736588005
 30
0.0
 10
-68.10089500290675
 20
321.2921736587985
 30
0.0
 10
-68.10089500290675
 20
321.2921736587985
 30
0.0
 10
-68.10089500290675
 20
310.2464786621829
 30
0.0
 10
-59.14658999952259
 20
301.2921736587984
 30
0.0
 10
-48.10089500290669
 20
301.2921736587984
 30
0.0
 10
-48.10089500290669
 20
301.2921736587984
 30
0.0
 10
386.8991049970949
 20
301.2921736588007
 30
0.0
 10
386.8991049970949
 20
301.2921736588007
 30
0.0
 10
397.9447999937075
 20
301.2921736588013
 30
0.0
 10
406.8991049970949
 20
310.2464786621858
 30
0.0
 10
406.8991049970949
 20
321.2921736588014
 30
0.0
 10
406.8991049970949
 20
321.2921736588014
 30
0.0
 10
406.8991049970949
 20
341.2921736588005
 30
0.0
 10
406.8991049970949
 20
341.2921736588005
 30
0.0
  0
ENDBLK
  5
5F
330
5C
100
AcDbEntity
  8
0
100
AcDbBlockEnd
  0
BLOCK
  5
63
330
61
100
AcDbEntity
  8
0
100
AcDbBlockBegin
  2
block 7
 70
     0
 10
0.0
 20
0.0
 30
0.0
  3
block 7
  1

  0
SPLINE
  5
65
330
61
100
AcDbEntity
  8
4B-profileOutside-cut
 62
     7
420
 16777215
370
    70
100
AcDbSpline
210
0.0
220
0.0
230
1.0
 70
    11
 71
     3
 72
   131
 73
   127
 74
     0
 42
0.0000000001
 43
0.0000000001
 12
1.0
 22
0.0
 32
0.0
 13
1.0
 23
0.0
 33
0.0
 40
0.0
 40
0.0
 40
0.0
 40
0.0
 40
1.0
 40
1.0
 40
1.0
 40
2.0
 40
2.0
 40
2.0
 40
3.0
 40
3.0
 40
3.0
 40
4.0
 40
4.0
 40
4.0
 40
5.0
 40
5.0
 40
5.0
 40
6.0
 40
6.0
 40
6.0
 40
7.0
 40
7.0
 40
7.0
 40
8.0
 40
8.0
 40
8.0
 40
9.0
 40
9.0
 40
9.0
 40
10.0
 40
10.0
 40
10.0
 40
11.0
 40
11.0
 40
11.0
 40
12.0
 40
12.0
 40
12.0
 40
13.0
 40
13.0
 40
13.0
 40
14.0
 40
14.0
 40
14.0
 40
15.0
 40
15.0
 40
15.0
 40
16.0
 40
16.0
 40
16.0
 40
17.0
 40
17.0
 40
17.0
 40
18.0
 40
18.0
 40
18.0
 40
19.0
 40
19.0
 40
19.0
 40
20.0
 40
20.0
 40
20.0
 40
21.0
 40
21.0
 40
21.0
 40
22.0
 40
22.0
 40
22.0
 40
23.0
 40
23.0
 40
23.0
 40
24.0
 40
24.0
 40
24.0
 40
25.0
 40
25.0
 40
25.0
 40
26.0
 40
26.0
 40
26.0
 40
27.0
 40
27.0
 40
27.0
 40
28.0
 40
28.0
 40
28.0
 40
29.0
 40
29.0
 40
29.0
 40
30.0
 40
30.0
 40
30.0
 40
31.0
 40
31.0
 40
31.0
 40
32.0
 40
32.0
 40
32.0
 40
33.0
 40
33.0
 40
33.0
 40
34.0
 40
34.0
 40
34.0
 40
35.0
 40
35.0
 40
35.0
 40
36.0
 40
36.0
 40
36.0
 40
37.0
 40
37.0
 40
37.0
 40
38.0
 40
38.0
 40
38.0
 40
39.0
 40
39.0
 40
39.0
 40
40.0
 40
40.0
 40
40.0
 40
41.0
 40
41.0
 40
41.0
 40
42.0
 40
42.0
 40
42.0
 40
42.0
 10
364.6869980434312
 20
242.5901367792535
 30
0.0
 10
366.2105443695963
 20
253.5302549024865
 30
0.0
 10
376.3143407331507
 20
261.1638946130754
 30
0.0
 10
387.2544588563831
 20
259.6403482869105
 30
0.0
 10
398.194576979616
 20
258.116801960746
 30
0.0
 10
405.8282166902043
 20
248.0130055971913
 30
0.0
 10
404.3046703640424
 20
237.072887473958
 30
0.0
 10
404.3046703640424
 20
237.072887473958
 30
0.0
 10
401.0855412929301
 20
212.4880300169914
 30
0.0
 10
401.0855412929301
 20
212.4880300169914
 30
0.0
 10
401.0855412929301
 20
212.4880300169914
 30
0.0
 10
398.3166027268761
 20
188.1367499108809
 30
0.0
 10
398.3166027268761
 20
188.1367499108809
 30
0.0
 10
398.3166027268761
 20
188.1367499108809
 30
0.0
 10
395.9989898290954
 20
163.9363864822073
 30
0.0
 10
395.9989898290954
 20
163.9363864822073
 30
0.0
 10
395.9989898290954
 20
163.9363864822073
 30
0.0
 10
394.1338377648414
 20
139.8042790560229
 30
0.0
 10
394.1338377648414
 20
139.8042790560229
 30
0.0
 10
394.1338377648414
 20
139.8042790560229
 30
0.0
 10
392.7224671607191
 20
115.657627966505
 30
0.0
 10
392.7224671607191
 20
115.657627966505
 30
0.0
 10
392.7224671607191
 20
115.657627966505
 30
0.0
 10
391.7668916225076
 20
91.41311420630113
 30
0.0
 10
391.7668916225076
 20
91.41311420630113
 30
0.0
 10
391.7668916225076
 20
91.41311420630113
 30
0.0
 10
391.2692865790103
 20
66.98729749252801
 30
0.0
 10
391.2692865790103
 20
66.98729749252801
 30
0.0
 10
391.2692865790103
 20
66.98729749252801
 30
0.0
 10
391.200847616951
 20
47.65651618395029
 30
0.0
 10
391.200847616951
 20
47.65651618395029
 30
0.0
 10
391.200847616951
 20
47.65651618395029
 30
0.0
 10
391.4163256710494
 20
28.12285900391188
 30
0.0
 10
391.4163256710494
 20
28.12285900391188
 30
0.0
 10
391.4163256710494
 20
28.12285900391188
 30
0.0
 10
391.9170976123762
 20
8.346639204395771
 30
0.0
 10
391.9170976123762
 20
8.346639204395771
 30
0.0
 10
391.9170976123762
 20
8.346639204395771
 30
0.0
 10
392.7046774292677
 20
-11.71161198123423
 30
0.0
 10
392.7046774292677
 20
-11.71161198123423
 30
0.0
 10
392.7046774292677
 20
-11.71161198123423
 30
0.0
 10
393.7805799103565
 20
-32.09136204736284
 30
0.0
 10
393.7805799103565
 20
-32.09136204736284
 30
0.0
 10
393.7805799103565
 20
-32.09136204736284
 30
0.0
 10
395.0101450812936
 20
-50.93060500807278
 30
0.0
 10
395.0101450812936
 20
-50.93060500807278
 30
0.0
 10
395.0101450812936
 20
-50.93060500807278
 30
0.0
 10
396.480383545348
 20
-70.09779479705453
 30
0.0
 10
396.480383545348
 20
-70.09779479705453
 30
0.0
 10
396.480383545348
 20
-70.09779479705453
 30
0.0
 10
398.1924355350912
 20
-89.6221540835485
 30
0.0
 10
398.1924355350912
 20
-89.6221540835485
 30
0.0
 10
398.1924355350912
 20
-89.6221540835485
 30
0.0
 10
400.1474429240425
 20
-109.5325773849918
 30
0.0
 10
400.1474429240425
 20
-109.5325773849918
 30
0.0
 10
400.1474429240425
 20
-109.5325773849918
 30
0.0
 10
402.3465476329814
 20
-129.8579497665333
 30
0.0
 10
402.3465476329814
 20
-129.8579497665333
 30
0.0
 10
402.3465476329814
 20
-129.8579497665333
 30
0.0
 10
404.7908915826929
 20
-150.6271562933241
 30
0.0
 10
404.7908915826929
 20
-150.6271562933241
 30
0.0
 10
404.7908915826929
 20
-150.6271562933241
 30
0.0
 10
407.481616693959
 20
-171.8690820305124
 30
0.0
 10
407.481616693959
 20
-171.8690820305124
 30
0.0
 10
408.9160335668479
 20
-182.8212428306941
 30
0.0
 10
401.2003776397949
 20
-192.8625480149095
 30
0.0
 10
390.2482168396132
 20
-194.296964887799
 30
0.0
 10
379.2960560394308
 20
-195.7313817606879
 30
0.0
 10
369.2547508552134
 20
-188.015725833633
 30
0.0
 10
367.8203339823245
 20
-177.0635650334513
 30
0.0
 10
367.8203339823245
 20
-177.0635650334513
 30
0.0
 10
365.0864350154632
 20
-155.4808957345169
 30
0.0
 10
365.0864350154632
 20
-155.4808957345169
 30
0.0
 10
365.0864350154632
 20
-155.4808957345169
 30
0.0
 10
362.5994209955419
 20
-134.3494269723532
 30
0.0
 10
362.5994209955419
 20
-134.3494269723532
 30
0.0
 10
362.5994209955419
 20
-134.3494269723532
 30
0.0
 10
360.3588185584159
 20
-113.6406289659751
 30
0.0
 10
360.3588185584159
 20
-113.6406289659751
 30
0.0
 10
360.3588185584159
 20
-113.6406289659751
 30
0.0
 10
358.3641543399494
 20
-93.32597193439885
 30
0.0
 10
358.3641543399494
 20
-93.32597193439885
 30
0.0
 10
358.3641543399494
 20
-93.32597193439885
 30
0.0
 10
356.614954975992
 20
-73.37692609663826
 30
0.0
 10
356.614954975992
 20
-73.37692609663826
 30
0.0
 10
356.614954975992
 20
-73.37692609663826
 30
0.0
 10
355.1107470551373
 20
-53.76497112399741
 30
0.0
 10
355.1107470551373
 20
-53.76497112399741
 30
0.0
 10
355.1107470551373
 20
-53.76497112399741
 30
0.0
 10
353.8510555250348
 20
-34.46191483958043
 30
0.0
 10
353.8510555250348
 20
-34.46191483958043
 30
0.0
 10
353.8510555250348
 20
-34.46191483958043
 30
0.0
 10
352.7472418772792
 20
-13.55216768876263
 30
0.0
 10
352.7472418772792
 20
-13.55216768876263
 30
0.0
 10
352.7472418772792
 20
-13.55216768876263
 30
0.0
 10
351.9380806438095
 20
7.054386391621366
 30
0.0
 10
351.9380806438095
 20
7.054386391621366
 30
0.0
 10
351.9380806438095
 20
7.054386391621366
 30
0.0
 10
351.4229366690144
 20
27.39469906739036
 30
0.0
 10
351.4229366690144
 20
27.39469906739036
 30
0.0
 10
351.4229366690144
 20
27.39469906739036
 30
0.0
 10
351.2011739969961
 20
47.50572073211393
 30
0.0
 10
351.2011739969961
 20
47.50572073211393
 30
0.0
 10
351.2011739969961
 20
47.50572073211393
 30
0.0
 10
351.272019554591
 20
67.42418379797951
 30
0.0
 10
351.272019554591
 20
67.42418379797951
 30
0.0
 10
351.272019554591
 20
67.42418379797951
 30
0.0
 10
351.7853307186149
 20
92.60840272329531
 30
0.0
 10
351.7853307186149
 20
92.60840272329531
 30
0.0
 10
351.7853307186149
 20
92.60840272329531
 30
0.0
 10
352.7706761803929
 20
117.6134922766442
 30
0.0
 10
352.7706761803929
 20
117.6134922766442
 30
0.0
 10
352.7706761803929
 20
117.6134922766442
 30
0.0
 10
354.2257698881389
 20
142.5145942415811
 30
0.0
 10
354.2257698881389
 20
142.5145942415811
 30
0.0
 10
354.2257698881389
 20
142.5145942415811
 30
0.0
 10
356.1481639670432
 20
167.3869716771927
 30
0.0
 10
356.1481639670432
 20
167.3869716771927
 30
0.0
 10
356.1481639670432
 20
167.3869716771927
 30
0.0
 10
358.5347175631234
 20
192.3064069840927
 30
0.0
 10
358.5347175631234
 20
192.3064069840927
 30
0.0
 10
358.5347175631234
 20
192.3064069840927
 30
0.0
 10
361.3821043610433
 20
217.3488215537737
 30
0.0
 10
361.3821043610433
 20
217.3488215537737
 30
0.0
 10
361.3821043610433
 20
217.3488215537737
 30
0.0
 10
364.6869980434312
 20
242.5901367792535
 30
0.0
 10
364.6869980434312
 20
242.5901367792535
 30
0.0
  0
ENDBLK
  5
64
330
61
100
AcDbEntity
  8
0
100
AcDbBlockEnd
  0
BLOCK
  5
68
330
66
100
AcDbEntity
  8
0
100
AcDbBlockBegin
  2
block 8
 70
     0
 10
0.0
 20
0.0
 30
0.0
  3
block 8
  1

  0
SPLINE
  5
6A
330
66
100
AcDbEntity
  8
4B-profileOutside-cut
 62
     7
420
 16777215
370
    70
100
AcDbSpline
210
0.0
220
0.0
230
1.0
 70
    11
 71
     3
 72
   131
 73
   127
 74
     0
 42
0.0000000001
 43
0.0000000001
 12
1.0
 22
0.0
 32
0.0
 13
1.0
 23
0.0
 33
0.0
 40
0.0
 40
0.0
 40
0.0
 40
0.0
 40
1.0
 40
1.0
 40
1.0
 40
2.0
 40
2.0
 40
2.0
 40
3.0
 40
3.0
 40
3.0
 40
4.0
 40
4.0
 40
4.0
 40
5.0
 40
5.0
 40
5.0
 40
6.0
 40
6.0
 40
6.0
 40
7.0
 40
7.0
 40
7.0
 40
8.0
 40
8.0
 40
8.0
 40
9.0
 40
9.0
 40
9.0
 40
10.0
 40
10.0
 40
10.0
 40
11.0
 40
11.0
 40
11.0
 40
12.0
 40
12.0
 40
12.0
 40
13.0
 40
13.0
 40
13.0
 40
14.0
 40
14.0
 40
14.0
 40
15.0
 40
15.0
 40
15.0
 40
16.0
 40
16.0
 40
16.0
 40
17.0
 40
17.0
 40
17.0
 40
18.0
 40
18.0
 40
18.0
 40
19.0
 40
19.0
 40
19.0
 40
20.0
 40
20.0
 40
20.0
 40
21.0
 40
21.0
 40
21.0
 40
22.0
 40
22.0
 40
22.0
 40
23.0
 40
23.0
 40
23.0
 40
24.0
 40
24.0
 40
24.0
 40
25.0
 40
25.0
 40
25.0
 40
26.0
 40
26.0
 40
26.0
 40
27.0
 40
27.0
 40
27.0
 40
28.0
 40
28.0
 40
28.0
 40
29.0
 40
29.0
 40
29.0
 40
30.0
 40
30.0
 40
30.0
 40
31.0
 40
31.0
 40
31.0
 40
32.0
 40
32.0
 40
32.0
 40
33.0
 40
33.0
 40
33.0
 40
34.0
 40
34.0
 40
34.0
 40
35.0
 40
35.0
 40
35.0
 40
36.0
 40
36.0
 40
36.0
 40
37.0
 40
37.0
 40
37.0
 40
38.0
 40
38.0
 40
38.0
 40
39.0
 40
39.0
 40
39.0
 40
40.0
 40
40.0
 40
40.0
 40
41.0
 40
41.0
 40
41.0
 40
42.0
 40
42.0
 40
42.0
 40
42.0
 10
489.7459523598624
 20
65.17889618413545
 30
0.0
 10
489.7459523598624
 20
65.17889618413545
 30
0.0
 10
492.9650814309747
 20
40.5940387271682
 30
0.0
 10
492.9650814309747
 20
40.5940387271682
 30
0.0
 10
492.9650814309747
 20
40.5940387271682
 30
0.0
 10
495.7340199970287
 20
16.24275862105799
 30
0.0
 10
495.7340199970287
 20
16.24275862105799
 30
0.0
 10
495.7340199970287
 20
16.24275862105799
 30
0.0
 10
498.0516328948094
 20
-7.957604807616253
 30
0.0
 10
498.0516328948094
 20
-7.957604807616253
 30
0.0
 10
498.0516328948094
 20
-7.957604807616253
 30
0.0
 10
499.9167849590634
 20
-32.08971223379996
 30
0.0
 10
499.9167849590634
 20
-32.08971223379996
 30
0.0
 10
499.9167849590634
 20
-32.08971223379996
 30
0.0
 10
501.3281555631857
 20
-56.23636332331788
 30
0.0
 10
501.3281555631857
 20
-56.23636332331788
 30
0.0
 10
501.3281555631857
 20
-56.23636332331788
 30
0.0
 10
502.2837311013972
 20
-80.48087708352209
 30
0.0
 10
502.2837311013972
 20
-80.48087708352209
 30
0.0
 10
502.2837311013972
 20
-80.48087708352209
 30
0.0
 10
502.7813361448945
 20
-104.9066937972952
 30
0.0
 10
502.7813361448945
 20
-104.9066937972952
 30
0.0
 10
502.7813361448945
 20
-104.9066937972952
 30
0.0
 10
502.8497751069538
 20
-124.2374751058726
 30
0.0
 10
502.8497751069538
 20
-124.2374751058726
 30
0.0
 10
502.8497751069538
 20
-124.2374751058726
 30
0.0
 10
502.6342970528553
 20
-143.7711322859113
 30
0.0
 10
502.6342970528553
 20
-143.7711322859113
 30
0.0
 10
502.6342970528553
 20
-143.7711322859113
 30
0.0
 10
502.1335251115286
 20
-163.5473520854274
 30
0.0
 10
502.1335251115286
 20
-163.5473520854274
 30
0.0
 10
502.1335251115286
 20
-163.5473520854274
 30
0.0
 10
501.345945294637
 20
-183.6056032710574
 30
0.0
 10
501.345945294637
 20
-183.6056032710574
 30
0.0
 10
501.345945294637
 20
-183.6056032710574
 30
0.0
 10
500.2700428135483
 20
-203.985353337186
 30
0.0
 10
500.2700428135483
 20
-203.985353337186
 30
0.0
 10
500.2700428135483
 20
-203.985353337186
 30
0.0
 10
499.0404776426112
 20
-222.824596297896
 30
0.0
 10
499.0404776426112
 20
-222.824596297896
 30
0.0
 10
499.0404776426112
 20
-222.824596297896
 30
0.0
 10
497.5702391785567
 20
-241.9917860868778
 30
0.0
 10
497.5702391785567
 20
-241.9917860868778
 30
0.0
 10
497.5702391785567
 20
-241.9917860868778
 30
0.0
 10
495.8581871888136
 20
-261.5161453733717
 30
0.0
 10
495.8581871888136
 20
-261.5161453733717
 30
0.0
 10
495.8581871888136
 20
-261.5161453733717
 30
0.0
 10
493.9031797998616
 20
-281.4265686748144
 30
0.0
 10
493.9031797998616
 20
-281.4265686748144
 30
0.0
 10
493.9031797998616
 20
-281.4265686748144
 30
0.0
 10
491.7040750909234
 20
-301.7519410563565
 30
0.0
 10
491.7040750909234
 20
-301.7519410563565
 30
0.0
 10
491.7040750909234
 20
-301.7519410563565
 30
0.0
 10
489.2597311412119
 20
-322.5211475831473
 30
0.0
 10
489.2597311412119
 20
-322.5211475831473
 30
0.0
 10
489.2597311412119
 20
-322.5211475831473
 30
0.0
 10
486.5690060299426
 20
-343.7630733203356
 30
0.0
 10
486.5690060299426
 20
-343.7630733203356
 30
0.0
 10
485.134589157053
 20
-354.7152341205173
 30
0.0
 10
492.8502450841099
 20
-364.756539304734
 30
0.0
 10
503.8024058842916
 20
-366.1909561776235
 30
0.0
 10
514.754566684474
 20
-367.6253730505125
 30
0.0
 10
524.7958718686913
 20
-359.9097171234562
 30
0.0
 10
526.230288741577
 20
-348.9575563232745
 30
0.0
 10
526.230288741577
 20
-348.9575563232745
 30
0.0
 10
528.9641877084415
 20
-327.3748870243402
 30
0.0
 10
528.9641877084415
 20
-327.3748870243402
 30
0.0
 10
528.9641877084415
 20
-327.3748870243402
 30
0.0
 10
531.4512017283629
 20
-306.2434182621764
 30
0.0
 10
531.4512017283629
 20
-306.2434182621764
 30
0.0
 10
531.4512017283629
 20
-306.2434182621764
 30
0.0
 10
533.6918041654883
 20
-285.5346202557983
 30
0.0
 10
533.6918041654883
 20
-285.5346202557983
 30
0.0
 10
533.6918041654883
 20
-285.5346202557983
 30
0.0
 10
535.6864683839547
 20
-265.2199632242214
 30
0.0
 10
535.6864683839547
 20
-265.2199632242214
 30
0.0
 10
535.6864683839547
 20
-265.2199632242214
 30
0.0
 10
537.4356677479127
 20
-245.2709173864615
 30
0.0
 10
537.4356677479127
 20
-245.2709173864615
 30
0.0
 10
537.4356677479127
 20
-245.2709173864615
 30
0.0
 10
538.9398756687636
 20
-225.65896241382
 30
0.0
 10
538.9398756687636
 20
-225.65896241382
 30
0.0
 10
538.9398756687636
 20
-225.65896241382
 30
0.0
 10
540.19956719887
 20
-206.3559061294036
 30
0.0
 10
540.19956719887
 20
-206.3559061294036
 30
0.0
 10
540.19956719887
 20
-206.3559061294036
 30
0.0
 10
541.3033808466262
 20
-185.4461589785852
 30
0.0
 10
541.3033808466262
 20
-185.4461589785852
 30
0.0
 10
541.3033808466262
 20
-185.4461589785852
 30
0.0
 10
542.1125420800934
 20
-164.8396048982012
 30
0.0
 10
542.1125420800934
 20
-164.8396048982012
 30
0.0
 10
542.1125420800934
 20
-164.8396048982012
 30
0.0
 10
542.6276860548891
 20
-144.4992922224322
 30
0.0
 10
542.6276860548891
 20
-144.4992922224322
 30
0.0
 10
542.6276860548891
 20
-144.4992922224322
 30
0.0
 10
542.8494487269094
 20
-124.3882705577093
 30
0.0
 10
542.8494487269094
 20
-124.3882705577093
 30
0.0
 10
542.8494487269094
 20
-124.3882705577093
 30
0.0
 10
542.7786031693125
 20
-104.4698074918437
 30
0.0
 10
542.7786031693125
 20
-104.4698074918437
 30
0.0
 10
542.7786031693125
 20
-104.4698074918437
 30
0.0
 10
542.2652920052898
 20
-79.2855885665276
 30
0.0
 10
542.2652920052898
 20
-79.2855885665276
 30
0.0
 10
542.2652920052898
 20
-79.2855885665276
 30
0.0
 10
541.2799465435126
 20
-54.28049901317898
 30
0.0
 10
541.2799465435126
 20
-54.28049901317898
 30
0.0
 10
541.2799465435126
 20
-54.28049901317898
 30
0.0
 10
539.8248528357659
 20
-29.37939704824214
 30
0.0
 10
539.8248528357659
 20
-29.37939704824214
 30
0.0
 10
539.8248528357659
 20
-29.37939704824214
 30
0.0
 10
537.9024587568609
 20
-4.507019612630184
 30
0.0
 10
537.9024587568609
 20
-4.507019612630184
 30
0.0
 10
537.9024587568609
 20
-4.507019612630184
 30
0.0
 10
535.5159051607782
 20
20.41241569426982
 30
0.0
 10
535.5159051607782
 20
20.41241569426982
 30
0.0
 10
535.5159051607782
 20
20.41241569426982
 30
0.0
 10
532.6685183628576
 20
45.45483026395047
 30
0.0
 10
532.6685183628576
 20
45.45483026395047
 30
0.0
 10
532.6685183628576
 20
45.45483026395047
 30
0.0
 10
529.3636246804735
 20
70.69614548942998
 30
0.0
 10
529.3636246804735
 20
70.69614548942998
 30
0.0
 10
527.8400783543078
 20
81.63626361266294
 30
0.0
 10
517.736281990754
 20
89.26990332325184
 30
0.0
 10
506.7961638675217
 20
87.74635699708766
 30
0.0
 10
495.8560457442887
 20
86.22281067092314
 30
0.0
 10
488.2224060336998
 20
76.11901430736874
 30
0.0
 10
489.7459523598624
 20
65.17889618413545
 30
0.0
  0
ENDBLK
  5
69
330
66
100
AcDbEntity
  8
0
100
AcDbBlockEnd
  0
BLOCK
  5
6D
330
6B
100
AcDbEntity
  8
0
100
AcDbBlockBegin
  2
block 9
 70
     0
 10
0.0
 20
0.0
 30
0.0
  3
block 9
  1

  0
SPLINE
  5
6F
330
6B
100
AcDbEntity
  8
4B-profileOutside-cut
 62
     7
420
 16777215
370
    70
100
AcDbSpline
210
0.0
220
0.0
230
1.0
 70
    11
 71
     3
 72
    20
 73
    16
 74
     0
 42
0.0000000001
 43
0.0000000001
 12
1.0
 22
0.0
 32
0.0
 13
1.0
 23
0.0
 33
0.0
 40
0.0
 40
0.0
 40
0.0
 40
0.0
 40
1.0
 40
1.0
 40
1.0
 40
2.0
 40
2.0
 40
2.0
 40
3.0
 40
3.0
 40
3.0
 40
4.0
 40
4.0
 40
4.0
 40
5.0
 40
5.0
 40
5.0
 40
5.0
 10
542.9508849068748
 20
379.6370519312878
 30
0.0
 10
542.9508849068748
 20
407.8035741726586
 30
0.0
 10
520.1174071482452
 20
430.6370519312877
 30
0.0
 10
491.9508849068742
 20
430.6370519312877
 30
0.0
 10
463.7843626655038
 20
430.6370519312877
 30
0.0
 10
440.9508849068743
 20
407.8035741726586
 30
0.0
 10
440.9508849068743
 20
379.6370519312878
 30
0.0
 10
440.9508849068743
 20
351.4705296899174
 30
0.0
 10
463.7843626655038
 20
328.6370519312879
 30
0.0
 10
491.9508849068742
 20
328.6370519312879
 30
0.0
 10
520.1174071482452
 20
328.6370519312879
 30
0.0
 10
542.9508849068748
 20
351.4705296899174
 30
0.0
 10
542.9508849068748
 20
379.6370519312878
 30
0.0
 10
542.9508849068748
 20
379.6370519312878
 30
0.0
 10
542.9508849068748
 20
379.6370519312878
 30
0.0
 10
542.9508849068748
 20
379.6370519312878
 30
0.0
  0
ENDBLK
  5
6E
330
6B
100
AcDbEntity
  8
0
100
AcDbBlockEnd
  0
BLOCK
  5
72
330
70
100
AcDbEntity
  8
0
100
AcDbBlockBegin
  2
block 10
 70
     0
 10
0.0
 20
0.0
 30
0.0
  3
block 10
  1

  0
SPLINE
  5
74
330
70
100
AcDbEntity
  8
4B-profileOutside-cut
 62
     7
420
 16777215
370
    70
100
AcDbSpline
210
0.0
220
0.0
230
1.0
 70
    11
 71
     3
 72
    20
 73
    16
 74
     0
 42
0.0000000001
 43
0.0000000001
 12
1.0
 22
0.0
 32
0.0
 13
1.0
 23
0.0
 33
0.0
 40
0.0
 40
0.0
 40
0.0
 40
0.0
 40
1.0
 40
1.0
 40
1.0
 40
2.0
 40
2.0
 40
2.0
 40
3.0
 40
3.0
 40
3.0
 40
4.0
 40
4.0
 40
4.0
 40
5.0
 40
5.0
 40
5.0
 40
5.0
 10
433.1472452576339
 20
555.3886399645746
 30
0.0
 10
433.1472452576339
 20
583.555162205945
 30
0.0
 10
455.9807230162634
 20
606.3886399645745
 30
0.0
 10
484.1472452576338
 20
606.3886399645745
 30
0.0
 10
512.3137674990048
 20
606.3886399645745
 30
0.0
 10
535.1472452576343
 20
583.555162205945
 30
0.0
 10
535.1472452576343
 20
555.3886399645746
 30
0.0
 10
535.1472452576343
 20
527.2221177232038
 30
0.0
 10
512.3137674990048
 20
504.3886399645744
 30
0.0
 10
484.1472452576338
 20
504.3886399645744
 30
0.0
 10
455.9807230162634
 20
504.3886399645744
 30
0.0
 10
433.1472452576339
 20
527.2221177232038
 30
0.0
 10
433.1472452576339
 20
555.3886399645746
 30
0.0
 10
433.1472452576339
 20
555.3886399645746
 30
0.0
 10
433.1472452576339
 20
555.3886399645746
 30
0.0
 10
433.1472452576339
 20
555.3886399645746
 30
0.0
  0
ENDBLK
  5
73
330
70
100
AcDbEntity
  8
0
100
AcDbBlockEnd
  0
BLOCK
  5
77
330
75
100
AcDbEntity
  8
0
100
AcDbBlockBegin
  2
block 11
 70
     0
 10
0.0
 20
0.0
 30
0.0
  3
block 11
  1

  0
SPLINE
  5
79
330
75
100
AcDbEntity
  8
4B-profileOutside-cut
 62
     7
420
 16777215
370
    70
100
AcDbSpline
210
0.0
220
0.0
230
1.0
 70
    11
 71
     3
 72
    20
 73
    16
 74
     0
 42
0.0000000001
 43
0.0000000001
 12
1.0
 22
0.0
 32
0.0
 13
1.0
 23
0.0
 33
0.0
 40
0.0
 40
0.0
 40
0.0
 40
0.0
 40
1.0
 40
1.0
 40
1.0
 40
2.0
 40
2.0
 40
2.0
 40
3.0
 40
3.0
 40
3.0
 40
4.0
 40
4.0
 40
4.0
 40
5.0
 40
5.0
 40
5.0
 40
5.0
 10
345.7705167354482
 20
-297.5159555282362
 30
0.0
 10
345.7705167354482
 20
-269.3494332868652
 30
0.0
 10
368.603994494077
 20
-246.5159555282357
 30
0.0
 10
396.770516735448
 20
-246.5159555282357
 30
0.0
 10
424.9370389768184
 20
-246.5159555282357
 30
0.0
 10
447.7705167354479
 20
-269.3494332868652
 30
0.0
 10
447.7705167354479
 20
-297.5159555282362
 30
0.0
 10
447.7705167354479
 20
-325.6824777696066
 30
0.0
 10
424.9370389768184
 20
-348.5159555282361
 30
0.0
 10
396.770516735448
 20
-348.5159555282361
 30
0.0
 10
368.603994494077
 20
-348.5159555282361
 30
0.0
 10
345.7705167354482
 20
-325.6824777696066
 30
0.0
 10
345.7705167354482
 20
-297.5159555282362
 30
0.0
 10
345.7705167354482
 20
-297.5159555282362
 30
0.0
 10
345.7705167354482
 20
-297.5159555282362
 30
0.0
 10
345.7705167354482
 20
-297.5159555282362
 30
0.0
  0
ENDBLK
  5
78
330
75
100
AcDbEntity
  8
0
100
AcDbBlockEnd
  0
BLOCK
  5
7C
330
7A
100
AcDbEntity
  8
0
100
AcDbBlockBegin
  2
block 12
 70
     0
 10
0.0
 20
0.0
 30
0.0
  3
block 12
  1

  0
SPLINE
  5
7E
330
7A
100
AcDbEntity
  8
4B-profileOutside-cut
 62
     7
420
 16777215
370
    70
100
AcDbSpline
210
0.0
220
0.0
230
1.0
 70
    11
 71
     3
 72
    20
 73
    16
 74
     0
 42
0.0000000001
 43
0.0000000001
 12
1.0
 22
0.0
 32
0.0
 13
1.0
 23
0.0
 33
0.0
 40
0.0
 40
0.0
 40
0.0
 40
0.0
 40
1.0
 40
1.0
 40
1.0
 40
2.0
 40
2.0
 40
2.0
 40
3.0
 40
3.0
 40
3.0
 40
4.0
 40
4.0
 40
4.0
 40
5.0
 40
5.0
 40
5.0
 40
5.0
 10
548.231450438428
 20
219.7410460703638
 30
0.0
 10
548.231450438428
 20
247.9075683117341
 30
0.0
 10
525.3979726797986
 20
270.7410460703636
 30
0.0
 10
497.2314504384282
 20
270.7410460703636
 30
0.0
 10
469.0649281970578
 20
270.7410460703636
 30
0.0
 10
446.2314504384283
 20
247.9075683117341
 30
0.0
 10
446.2314504384283
 20
219.7410460703638
 30
0.0
 10
446.2314504384283
 20
191.5745238289931
 30
0.0
 10
469.0649281970578
 20
168.7410460703639
 30
0.0
 10
497.2314504384282
 20
168.7410460703639
 30
0.0
 10
525.3979726797986
 20
168.7410460703639
 30
0.0
 10
548.231450438428
 20
191.5745238289931
 30
0.0
 10
548.231450438428
 20
219.7410460703638
 30
0.0
 10
548.231450438428
 20
219.7410460703638
 30
0.0
 10
548.231450438428
 20
219.7410460703638
 30
0.0
 10
548.231450438428
 20
219.7410460703638
 30
0.0
  0
ENDBLK
  5
7D
330
7A
100
AcDbEntity
  8
0
100
AcDbBlockEnd
  0
BLOCK
  5
81
330
7F
100
AcDbEntity
  8
0
100
AcDbBlockBegin
  2
block 13
 70
     0
 10
0.0
 20
0.0
 30
0.0
  3
block 13
  1

  0
SPLINE
  5
83
330
7F
100
AcDbEntity
  8
4B-profileOutside-cut
 62
     7
420
 16777215
370
    70
100
AcDbSpline
210
0.0
220
0.0
230
1.0
 70
    11
 71
     3
 72
    20
 73
    16
 74
     0
 42
0.0000000001
 43
0.0000000001
 12
1.0
 22
0.0
 32
0.0
 13
1.0
 23
0.0
 33
0.0
 40
0.0
 40
0.0
 40
0.0
 40
0.0
 40
1.0
 40
1.0
 40
1.0
 40
2.0
 40
2.0
 40
2.0
 40
3.0
 40
3.0
 40
3.0
 40
4.0
 40
4.0
 40
4.0
 40
5.0
 40
5.0
 40
5.0
 40
5.0
 10
-40.90549714731157
 20
-469.7420182117369
 30
0.0
 10
-40.90549714731157
 20
-441.575495970369
 30
0.0
 10
-18.07201938868208
 20
-418.7420182117402
 30
0.0
 10
10.09450285268863
 20
-418.7420182117402
 30
0.0
 10
38.26102509405901
 20
-418.7420182117402
 30
0.0
 10
61.0945028526885
 20
-441.575495970369
 30
0.0
 10
61.0945028526885
 20
-469.7420182117369
 30
0.0
 10
61.0945028526885
 20
-497.9085404531073
 30
0.0
 10
38.26102509405901
 20
-520.7420182117368
 30
0.0
 10
10.09450285268863
 20
-520.7420182117368
 30
0.0
 10
-18.07201938868208
 20
-520.7420182117368
 30
0.0
 10
-40.90549714731157
 20
-497.9085404531073
 30
0.0
 10
-40.90549714731157
 20
-469.7420182117369
 30
0.0
 10
-40.90549714731157
 20
-469.7420182117369
 30
0.0
 10
-40.90549714731157
 20
-469.7420182117369
 30
0.0
 10
-40.90549714731157
 20
-469.7420182117369
 30
0.0
  0
ENDBLK
  5
82
330
7F
100
AcDbEntity
  8
0
100
AcDbBlockEnd
  0
BLOCK
  5
86
330
84
100
AcDbEntity
  8
0
100
AcDbBlockBegin
  2
block 14
 70
     0
 10
0.0
 20
0.0
 30
0.0
  3
block 14
  1

  0
SPLINE
  5
88
330
84
100
AcDbEntity
  8
4B-profileOutside-cut
 62
     7
420
 16777215
370
    70
100
AcDbSpline
210
0.0
220
0.0
230
1.0
 70
    11
 71
     3
 72
    20
 73
    16
 74
     0
 42
0.0000000001
 43
0.0000000001
 12
1.0
 22
0.0
 32
0.0
 13
1.0
 23
0.0
 33
0.0
 40
0.0
 40
0.0
 40
0.0
 40
0.0
 40
1.0
 40
1.0
 40
1.0
 40
2.0
 40
2.0
 40
2.0
 40
3.0
 40
3.0
 40
3.0
 40
4.0
 40
4.0
 40
4.0
 40
5.0
 40
5.0
 40
5.0
 40
5.0
 10
343.2022224926907
 20
-463.9888776251741
 30
0.0
 10
343.2022224926907
 20
-435.8223553838037
 30
0.0
 10
320.3687447340612
 20
-412.9888776251742
 30
0.0
 10
292.2022224926909
 20
-412.9888776251742
 30
0.0
 10
264.0357002513198
 20
-412.9888776251742
 30
0.0
 10
241.2022224926903
 20
-435.8223553838037
 30
0.0
 10
241.2022224926903
 20
-463.9888776251741
 30
0.0
 10
241.2022224926903
 20
-492.1553998665451
 30
0.0
 10
264.0357002513198
 20
-514.988877625174
 30
0.0
 10
292.2022224926909
 20
-514.988877625174
 30
0.0
 10
320.3687447340612
 20
-514.988877625174
 30
0.0
 10
343.2022224926907
 20
-492.1553998665451
 30
0.0
 10
343.2022224926907
 20
-463.9888776251741
 30
0.0
 10
343.2022224926907
 20
-463.9888776251741
 30
0.0
 10
343.2022224926907
 20
-463.9888776251741
 30
0.0
 10
343.2022224926907
 20
-463.9888776251741
 30
0.0
  0
ENDBLK
  5
87
330
84
100
AcDbEntity
  8
0
100
AcDbBlockEnd
  0
BLOCK
  5
8B
330
89
100
AcDbEntity
  8
0
100
AcDbBlockBegin
  2
block 15
 70
     0
 10
0.0
 20
0.0
 30
0.0
  3
block 15
  1

  0
SPLINE
  5
8D
330
89
100
AcDbEntity
  8
4B-profileOutside-cut
 62
     7
420
 16777215
370
    70
100
AcDbSpline
210
0.0
220
0.0
230
1.0
 70
    11
 71
     3
 72
    20
 73
    16
 74
     0
 42
0.0000000001
 43
0.0000000001
 12
1.0
 22
0.0
 32
0.0
 13
1.0
 23
0.0
 33
0.0
 40
0.0
 40
0.0
 40
0.0
 40
0.0
 40
1.0
 40
1.0
 40
1.0
 40
2.0
 40
2.0
 40
2.0
 40
3.0
 40
3.0
 40
3.0
 40
4.0
 40
4.0
 40
4.0
 40
5.0
 40
5.0
 40
5.0
 40
5.0
 10
201.5977369924863
 20
-471.0747510967641
 30
0.0
 10
201.5977369924863
 20
-442.9082288553938
 30
0.0
 10
178.7642592338568
 20
-420.0747510967643
 30
0.0
 10
150.5977369924864
 20
-420.0747510967643
 30
0.0
 10
122.4312147511157
 20
-420.0747510967643
 30
0.0
 10
99.59773699248622
 20
-442.9082288553938
 30
0.0
 10
99.59773699248622
 20
-471.0747510967641
 30
0.0
 10
99.59773699248622
 20
-499.2412733381345
 30
0.0
 10
122.4312147511157
 20
-522.0747510967641
 30
0.0
 10
150.5977369924864
 20
-522.0747510967641
 30
0.0
 10
178.7642592338568
 20
-522.0747510967641
 30
0.0
 10
201.5977369924863
 20
-499.2412733381345
 30
0.0
 10
201.5977369924863
 20
-471.0747510967641
 30
0.0
 10
201.5977369924863
 20
-471.0747510967641
 30
0.0
 10
201.5977369924863
 20
-471.0747510967641
 30
0.0
 10
201.5977369924863
 20
-471.0747510967641
 30
0.0
  0
ENDBLK
  5
8C
330
89
100
AcDbEntity
  8
0
100
AcDbBlockEnd
  0
BLOCK
  5
90
330
8E
100
AcDbEntity
  8
0
100
AcDbBlockBegin
  2
block 16
 70
     0
 10
0.0
 20
0.0
 30
0.0
  3
block 16
  1

  0
SPLINE
  5
92
330
8E
100
AcDbEntity
  8
4B-profileOutside-cut
 62
     7
420
 16777215
370
    70
100
AcDbSpline
210
0.0
220
0.0
230
1.0
 70
    11
 71
     3
 72
    20
 73
    16
 74
     0
 42
0.0000000001
 43
0.0000000001
 12
1.0
 22
0.0
 32
0.0
 13
1.0
 23
0.0
 33
0.0
 40
0.0
 40
0.0
 40
0.0
 40
0.0
 40
1.0
 40
1.0
 40
1.0
 40
2.0
 40
2.0
 40
2.0
 40
3.0
 40
3.0
 40
3.0
 40
4.0
 40
4.0
 40
4.0
 40
5.0
 40
5.0
 40
5.0
 40
5.0
 10
386.0309833263957
 20
-462.7048166883553
 30
0.0
 10
386.0309833263957
 20
-434.5382944469843
 30
0.0
 10
408.8644610850251
 20
-411.7048166883555
 30
0.0
 10
437.0309833263955
 20
-411.7048166883555
 30
0.0
 10
465.1975055677666
 20
-411.7048166883555
 30
0.0
 10
488.030983326396
 20
-434.5382944469843
 30
0.0
 10
488.030983326396
 20
-462.7048166883553
 30
0.0
 10
488.030983326396
 20
-490.8713389297257
 30
0.0
 10
465.1975055677666
 20
-513.7048166883552
 30
0.0
 10
437.0309833263955
 20
-513.7048166883552
 30
0.0
 10
408.8644610850251
 20
-513.7048166883552
 30
0.0
 10
386.0309833263957
 20
-490.8713389297257
 30
0.0
 10
386.0309833263957
 20
-462.7048166883553
 30
0.0
 10
386.0309833263957
 20
-462.7048166883553
 30
0.0
 10
386.0309833263957
 20
-462.7048166883553
 30
0.0
 10
386.0309833263957
 20
-462.7048166883553
 30
0.0
  0
ENDBLK
  5
91
330
8E
100
AcDbEntity
  8
0
100
AcDbBlockEnd
  0
BLOCK
  5
96
330
94
100
AcDbEntity
  8
0
100
AcDbBlockBegin
  2
block 17
 70
     0
 10
0.0
 20
0.0
 30
0.0
  3
block 17
  1

  0
SPLINE
  5
98
330
94
100
AcDbEntity
  8
4A-profileInside-cut
 62
     7
420
 16777215
370
    70
100
AcDbSpline
210
0.0
220
0.0
230
1.0
 70
    11
 71
     3
 72
    20
 73
    16
 74
     0
 42
0.0000000001
 43
0.0000000001
 12
1.0
 22
0.0
 32
0.0
 13
1.0
 23
0.0
 33
0.0
 40
0.0
 40
0.0
 40
0.0
 40
0.0
 40
1.0
 40
1.0
 40
1.0
 40
2.0
 40
2.0
 40
2.0
 40
3.0
 40
3.0
 40
3.0
 40
4.0
 40
4.0
 40
4.0
 40
5.0
 40
5.0
 40
5.0
 40
5.0
 10
498.3047885201681
 20
67.93752083678272
 30
0.0
 10
498.3047885201681
 20
74.15072427237888
 30
0.0
 10
503.3415850845725
 20
79.18752083678264
 30
0.0
 10
509.554788520168
 20
79.18752083678264
 30
0.0
 10
515.7679919557635
 20
79.18752083678264
 30
0.0
 10
520.8047885201679
 20
74.15072427237888
 30
0.0
 10
520.8047885201679
 20
67.93752083678272
 30
0.0
 10
520.8047885201679
 20
61.72431740118623
 30
0.0
 10
515.7679919557635
 20
56.68752083678248
 30
0.0
 10
509.554788520168
 20
56.68752083678248
 30
0.0
 10
503.3415850845725
 20
56.68752083678248
 30
0.0
 10
498.3047885201681
 20
61.72431740118623
 30
0.0
 10
498.3047885201681
 20
67.93752083678272
 30
0.0
 10
498.3047885201681
 20
67.93752083678272
 30
0.0
 10
498.3047885201681
 20
67.93752083678272
 30
0.0
 10
498.3047885201681
 20
67.93752083678272
 30
0.0
  0
ENDBLK
  5
97
330
94
100
AcDbEntity
  8
0
100
AcDbBlockEnd
  0
BLOCK
  5
9B
330
99
100
AcDbEntity
  8
0
100
AcDbBlockBegin
  2
block 18
 70
     0
 10
0.0
 20
0.0
 30
0.0
  3
block 18
  1

  0
SPLINE
  5
9D
330
99
100
AcDbEntity
  8
4A-profileInside-cut
 62
     7
420
 16777215
370
    70
100
AcDbSpline
210
0.0
220
0.0
230
1.0
 70
    11
 71
     3
 72
    20
 73
    16
 74
     0
 42
0.0000000001
 43
0.0000000001
 12
1.0
 22
0.0
 32
0.0
 13
1.0
 23
0.0
 33
0.0
 40
0.0
 40
0.0
 40
0.0
 40
0.0
 40
1.0
 40
1.0
 40
1.0
 40
2.0
 40
2.0
 40
2.0
 40
3.0
 40
3.0
 40
3.0
 40
4.0
 40
4.0
 40
4.0
 40
5.0
 40
5.0
 40
5.0
 40
5.0
 10
395.7458342037367
 20
239.8315121266056
 30
0.0
 10
395.7458342037367
 20
246.0447155622021
 30
0.0
 10
390.7090376393323
 20
251.0815121266055
 30
0.0
 10
384.4958342037368
 20
251.0815121266055
 30
0.0
 10
378.2826307681412
 20
251.0815121266055
 30
0.0
 10
373.2458342037369
 20
246.0447155622021
 30
0.0
 10
373.2458342037369
 20
239.8315121266056
 30
0.0
 10
373.2458342037369
 20
233.6183086910091
 30
0.0
 10
378.2826307681412
 20
228.5815121266057
 30
0.0
 10
384.4958342037368
 20
228.5815121266057
 30
0.0
 10
390.7090376393323
 20
228.5815121266057
 30
0.0
 10
395.7458342037367
 20
233.6183086910091
 30
0.0
 10
395.7458342037367
 20
239.8315121266056
 30
0.0
 10
395.7458342037367
 20
239.8315121266056
 30
0.0
 10
395.7458342037367
 20
239.8315121266056
 30
0.0
 10
395.7458342037367
 20
239.8315121266056
 30
0.0
  0
ENDBLK
  5
9C
330
99
100
AcDbEntity
  8
0
100
AcDbBlockEnd
  0
BLOCK
  5
A1
330
9F
100
AcDbEntity
  8
0
100
AcDbBlockBegin
  2
block 19
 70
     0
 10
0.0
 20
0.0
 30
0.0
  3
block 19
  1

  0
SPLINE
  5
A3
330
9F
100
AcDbEntity
  8
4-profileOutside-intw-7mm-profundidad
 62
     7
420
 16777215
370
    70
100
AcDbSpline
210
0.0
220
0.0
230
1.0
 70
    11
 71
     3
 72
    20
 73
    16
 74
     0
 42
0.0000000001
 43
0.0000000001
 12
1.0
 22
0.0
 32
0.0
 13
1.0
 23
0.0
 33
0.0
 40
0.0
 40
0.0
 40
0.0
 40
0.0
 40
1.0
 40
1.0
 40
1.0
 40
2.0
 40
2.0
 40
2.0
 40
3.0
 40
3.0
 40
3.0
 40
4.0
 40
4.0
 40
4.0
 40
5.0
 40
5.0
 40
5.0
 40
5.0
 10
-38.9054971473115
 20
-469.7420182117369
 30
0.0
 10
-38.9054971473115
 20
-442.680065470031
 30
0.0
 10
-16.96744988902049
 20
-420.7420182117403
 30
0.0
 10
10.09450285268863
 20
-420.7420182117403
 30
0.0
 10
37.15645559439742
 20
-420.7420182117403
 30
0.0
 10
59.09450285268843
 20
-442.680065470031
 30
0.0
 10
59.09450285268843
 20
-469.7420182117369
 30
0.0
 10
59.09450285268843
 20
-496.8039709534492
 30
0.0
 10
37.15645559439742
 20
-518.7420182117398
 30
0.0
 10
10.09450285268863
 20
-518.7420182117398
 30
0.0
 10
-16.96744988902049
 20
-518.7420182117398
 30
0.0
 10
-38.9054971473115
 20
-496.8039709534492
 30
0.0
 10
-38.9054971473115
 20
-469.7420182117369
 30
0.0
 10
-38.9054971473115
 20
-469.7420182117369
 30
0.0
 10
-38.9054971473115
 20
-469.7420182117369
 30
0.0
 10
-38.9054971473115
 20
-469.7420182117369
 30
0.0
  0
ENDBLK
  5
A2
330
9F
100
AcDbEntity
  8
0
100
AcDbBlockEnd
  0
BLOCK
  5
A6
330
A4
100
AcDbEntity
  8
0
100
AcDbBlockBegin
  2
block 20
 70
     0
 10
0.0
 20
0.0
 30
0.0
  3
block 20
  1

  0
SPLINE
  5
A8
330
A4
100
AcDbEntity
  8
4-profileOutside-intw-7mm-profundidad
 62
     7
420
 16777215
370
    70
100
AcDbSpline
210
0.0
220
0.0
230
1.0
 70
    11
 71
     3
 72
    20
 73
    16
 74
     0
 42
0.0000000001
 43
0.0000000001
 12
1.0
 22
0.0
 32
0.0
 13
1.0
 23
0.0
 33
0.0
 40
0.0
 40
0.0
 40
0.0
 40
0.0
 40
1.0
 40
1.0
 40
1.0
 40
2.0
 40
2.0
 40
2.0
 40
3.0
 40
3.0
 40
3.0
 40
4.0
 40
4.0
 40
4.0
 40
5.0
 40
5.0
 40
5.0
 40
5.0
 10
341.2022224926907
 20
-463.9888776251741
 30
0.0
 10
341.2022224926907
 20
-436.926924883465
 30
0.0
 10
319.2641752343993
 20
-414.9888776251743
 30
0.0
 10
292.2022224926909
 20
-414.9888776251743
 30
0.0
 10
265.1402697509818
 20
-414.9888776251743
 30
0.0
 10
243.2022224926904
 20
-436.926924883465
 30
0.0
 10
243.2022224926904
 20
-463.9888776251741
 30
0.0
 10
243.2022224926904
 20
-491.0508303668832
 30
0.0
 10
265.1402697509818
 20
-512.9888776251739
 30
0.0
 10
292.2022224926909
 20
-512.9888776251739
 30
0.0
 10
319.2641752343993
 20
-512.9888776251739
 30
0.0
 10
341.2022224926907
 20
-491.0508303668832
 30
0.0
 10
341.2022224926907
 20
-463.9888776251741
 30
0.0
 10
341.2022224926907
 20
-463.9888776251741
 30
0.0
 10
341.2022224926907
 20
-463.9888776251741
 30
0.0
 10
341.2022224926907
 20
-463.9888776251741
 30
0.0
  0
ENDBLK
  5
A7
330
A4
100
AcDbEntity
  8
0
100
AcDbBlockEnd
  0
BLOCK
  5
AB
330
A9
100
AcDbEntity
  8
0
100
AcDbBlockBegin
  2
block 21
 70
     0
 10
0.0
 20
0.0
 30
0.0
  3
block 21
  1

  0
SPLINE
  5
AD
330
A9
100
AcDbEntity
  8
4-profileOutside-intw-7mm-profundidad
 62
     7
420
 16777215
370
    70
100
AcDbSpline
210
0.0
220
0.0
230
1.0
 70
    11
 71
     3
 72
    20
 73
    16
 74
     0
 42
0.0000000001
 43
0.0000000001
 12
1.0
 22
0.0
 32
0.0
 13
1.0
 23
0.0
 33
0.0
 40
0.0
 40
0.0
 40
0.0
 40
0.0
 40
1.0
 40
1.0
 40
1.0
 40
2.0
 40
2.0
 40
2.0
 40
3.0
 40
3.0
 40
3.0
 40
4.0
 40
4.0
 40
4.0
 40
5.0
 40
5.0
 40
5.0
 40
5.0
 10
199.5977369924862
 20
-471.0747510967641
 30
0.0
 10
199.5977369924862
 20
-444.0127983550551
 30
0.0
 10
177.6596897341952
 20
-422.0747510967644
 30
0.0
 10
150.5977369924864
 20
-422.0747510967644
 30
0.0
 10
123.5357842507776
 20
-422.0747510967644
 30
0.0
 10
101.5977369924863
 20
-444.0127983550551
 30
0.0
 10
101.5977369924863
 20
-471.0747510967641
 30
0.0
 10
101.5977369924863
 20
-498.1367038384733
 30
0.0
 10
123.5357842507773
 20
-520.074751096764
 30
0.0
 10
150.5977369924864
 20
-520.074751096764
 30
0.0
 10
177.6596897341952
 20
-520.074751096764
 30
0.0
 10
199.5977369924862
 20
-498.1367038384733
 30
0.0
 10
199.5977369924862
 20
-471.0747510967641
 30
0.0
 10
199.5977369924862
 20
-471.0747510967641
 30
0.0
 10
199.5977369924862
 20
-471.0747510967641
 30
0.0
 10
199.5977369924862
 20
-471.0747510967641
 30
0.0
  0
ENDBLK
  5
AC
330
A9
100
AcDbEntity
  8
0
100
AcDbBlockEnd
  0
BLOCK
  5
B0
330
AE
100
AcDbEntity
  8
0
100
AcDbBlockBegin
  2
block 22
 70
     0
 10
0.0
 20
0.0
 30
0.0
  3
block 22
  1

  0
SPLINE
  5
B2
330
AE
100
AcDbEntity
  8
4-profileOutside-intw-7mm-profundidad
 62
     7
420
 16777215
370
    70
100
AcDbSpline
210
0.0
220
0.0
230
1.0
 70
    11
 71
     3
 72
    20
 73
    16
 74
     0
 42
0.0000000001
 43
0.0000000001
 12
1.0
 22
0.0
 32
0.0
 13
1.0
 23
0.0
 33
0.0
 40
0.0
 40
0.0
 40
0.0
 40
0.0
 40
1.0
 40
1.0
 40
1.0
 40
2.0
 40
2.0
 40
2.0
 40
3.0
 40
3.0
 40
3.0
 40
4.0
 40
4.0
 40
4.0
 40
5.0
 40
5.0
 40
5.0
 40
5.0
 10
388.0309833263958
 20
-462.7048166883553
 30
0.0
 10
388.0309833263958
 20
-435.6428639466462
 30
0.0
 10
409.9690305846871
 20
-413.7048166883555
 30
0.0
 10
437.0309833263955
 20
-413.7048166883555
 30
0.0
 10
464.0929360681047
 20
-413.7048166883555
 30
0.0
 10
486.030983326396
 20
-435.6428639466462
 30
0.0
 10
486.030983326396
 20
-462.7048166883553
 30
0.0
 10
486.030983326396
 20
-489.7667694300645
 30
0.0
 10
464.0929360681047
 20
-511.7048166883552
 30
0.0
 10
437.0309833263955
 20
-511.7048166883552
 30
0.0
 10
409.9690305846871
 20
-511.7048166883552
 30
0.0
 10
388.0309833263958
 20
-489.7667694300645
 30
0.0
 10
388.0309833263958
 20
-462.7048166883553
 30
0.0
 10
388.0309833263958
 20
-462.7048166883553
 30
0.0
 10
388.0309833263958
 20
-462.7048166883553
 30
0.0
 10
388.0309833263958
 20
-462.7048166883553
 30
0.0
  0
ENDBLK
  5
B1
330
AE
100
AcDbEntity
  8
0
100
AcDbBlockEnd
  0
BLOCK
  5
B6
330
B4
100
AcDbEntity
  8
0
100
AcDbBlockBegin
  2
block 23
 70
     0
 10
0.0
 20
0.0
 30
0.0
  3
block 23
  1

  0
SPLINE
  5
B8
330
B4
100
AcDbEntity
  8
3-poket-extw-rest-9mm-profundidad
 62
     7
420
 16777215
370
    70
100
AcDbSpline
210
0.0
220
0.0
230
1.0
 70
    11
 71
     3
 72
    20
 73
    16
 74
     0
 42
0.0000000001
 43
0.0000000001
 12
1.0
 22
0.0
 32
0.0
 13
1.0
 23
0.0
 33
0.0
 40
0.0
 40
0.0
 40
0.0
 40
0.0
 40
1.0
 40
1.0
 40
1.0
 40
2.0
 40
2.0
 40
2.0
 40
3.0
 40
3.0
 40
3.0
 40
4.0
 40
4.0
 40
4.0
 40
5.0
 40
5.0
 40
5.0
 40
5.0
 10
540.9508849068746
 20
379.6370519312878
 30
0.0
 10
540.9508849068746
 20
406.699004672997
 30
0.0
 10
519.0128376485833
 20
428.6370519312877
 30
0.0
 10
491.9508849068742
 20
428.6370519312877
 30
0.0
 10
464.8889321651657
 20
428.6370519312877
 30
0.0
 10
442.9508849068744
 20
406.699004672997
 30
0.0
 10
442.9508849068744
 20
379.6370519312878
 30
0.0
 10
442.9508849068744
 20
352.5750991895791
 30
0.0
 10
464.8889321651657
 20
330.6370519312877
 30
0.0
 10
491.9508849068742
 20
330.6370519312877
 30
0.0
 10
519.0128376485833
 20
330.6370519312877
 30
0.0
 10
540.9508849068746
 20
352.5750991895791
 30
0.0
 10
540.9508849068746
 20
379.6370519312878
 30
0.0
 10
540.9508849068746
 20
379.6370519312878
 30
0.0
 10
540.9508849068746
 20
379.6370519312878
 30
0.0
 10
540.9508849068746
 20
379.6370519312878
 30
0.0
  0
ENDBLK
  5
B7
330
B4
100
AcDbEntity
  8
0
100
AcDbBlockEnd
  0
BLOCK
  5
BB
330
B9
100
AcDbEntity
  8
0
100
AcDbBlockBegin
  2
block 24
 70
     0
 10
0.0
 20
0.0
 30
0.0
  3
block 24
  1

  0
SPLINE
  5
BD
330
B9
100
AcDbEntity
  8
3-poket-extw-rest-9mm-profundidad
 62
     7
420
 16777215
370
    70
100
AcDbSpline
210
0.0
220
0.0
230
1.0
 70
    11
 71
     3
 72
    20
 73
    16
 74
     0
 42
0.0000000001
 43
0.0000000001
 12
1.0
 22
0.0
 32
0.0
 13
1.0
 23
0.0
 33
0.0
 40
0.0
 40
0.0
 40
0.0
 40
0.0
 40
1.0
 40
1.0
 40
1.0
 40
2.0
 40
2.0
 40
2.0
 40
3.0
 40
3.0
 40
3.0
 40
4.0
 40
4.0
 40
4.0
 40
5.0
 40
5.0
 40
5.0
 40
5.0
 10
435.147245257634
 20
555.3886399645746
 30
0.0
 10
435.147245257634
 20
582.4505927062834
 30
0.0
 10
457.0852925159247
 20
604.3886399645744
 30
0.0
 10
484.1472452576338
 20
604.3886399645744
 30
0.0
 10
511.2091979993428
 20
604.3886399645744
 30
0.0
 10
533.1472452576342
 20
582.4505927062834
 30
0.0
 10
533.1472452576342
 20
555.3886399645746
 30
0.0
 10
533.1472452576342
 20
528.3266872228655
 30
0.0
 10
511.2091979993428
 20
506.3886399645745
 30
0.0
 10
484.1472452576338
 20
506.3886399645745
 30
0.0
 10
457.0852925159247
 20
506.3886399645745
 30
0.0
 10
435.147245257634
 20
528.3266872228655
 30
0.0
 10
435.147245257634
 20
555.3886399645746
 30
0.0
 10
435.147245257634
 20
555.3886399645746
 30
0.0
 10
435.147245257634
 20
555.3886399645746
 30
0.0
 10
435.147245257634
 20
555.3886399645746
 30
0.0
  0
ENDBLK
  5
BC
330
B9
100
AcDbEntity
  8
0
100
AcDbBlockEnd
  0
BLOCK
  5
C0
330
BE
100
AcDbEntity
  8
0
100
AcDbBlockBegin
  2
block 25
 70
     0
 10
0.0
 20
0.0
 30
0.0
  3
block 25
  1

  0
SPLINE
  5
C2
330
BE
100
AcDbEntity
  8
3-poket-extw-rest-9mm-profundidad
 62
     7
420
 16777215
370
    70
100
AcDbSpline
210
0.0
220
0.0
230
1.0
 70
    11
 71
     3
 72
    20
 73
    16
 74
     0
 42
0.0000000001
 43
0.0000000001
 12
1.0
 22
0.0
 32
0.0
 13
1.0
 23
0.0
 33
0.0
 40
0.0
 40
0.0
 40
0.0
 40
0.0
 40
1.0
 40
1.0
 40
1.0
 40
2.0
 40
2.0
 40
2.0
 40
3.0
 40
3.0
 40
3.0
 40
4.0
 40
4.0
 40
4.0
 40
5.0
 40
5.0
 40
5.0
 40
5.0
 10
347.7705167354483
 20
-297.5159555282362
 30
0.0
 10
347.7705167354483
 20
-270.4540027865271
 30
0.0
 10
369.7085639937389
 20
-248.5159555282358
 30
0.0
 10
396.770516735448
 20
-248.5159555282358
 30
0.0
 10
423.8324694771571
 20
-248.5159555282358
 30
0.0
 10
445.7705167354479
 20
-270.4540027865271
 30
0.0
 10
445.7705167354479
 20
-297.5159555282362
 30
0.0
 10
445.7705167354479
 20
-324.5779082699447
 30
0.0
 10
423.8324694771571
 20
-346.515955528236
 30
0.0
 10
396.770516735448
 20
-346.515955528236
 30
0.0
 10
369.7085639937389
 20
-346.515955528236
 30
0.0
 10
347.7705167354483
 20
-324.5779082699447
 30
0.0
 10
347.7705167354483
 20
-297.5159555282362
 30
0.0
 10
347.7705167354483
 20
-297.5159555282362
 30
0.0
 10
347.7705167354483
 20
-297.5159555282362
 30
0.0
 10
347.7705167354483
 20
-297.5159555282362
 30
0.0
  0
ENDBLK
  5
C1
330
BE
100
AcDbEntity
  8
0
100
AcDbBlockEnd
  0
BLOCK
  5
C5
330
C3
100
AcDbEntity
  8
0
100
AcDbBlockBegin
  2
block 26
 70
     0
 10
0.0
 20
0.0
 30
0.0
  3
block 26
  1

  0
SPLINE
  5
C7
330
C3
100
AcDbEntity
  8
3-poket-extw-rest-9mm-profundidad
 62
     7
420
 16777215
370
    70
100
AcDbSpline
210
0.0
220
0.0
230
1.0
 70
    11
 71
     3
 72
    20
 73
    16
 74
     0
 42
0.0000000001
 43
0.0000000001
 12
1.0
 22
0.0
 32
0.0
 13
1.0
 23
0.0
 33
0.0
 40
0.0
 40
0.0
 40
0.0
 40
0.0
 40
1.0
 40
1.0
 40
1.0
 40
2.0
 40
2.0
 40
2.0
 40
3.0
 40
3.0
 40
3.0
 40
4.0
 40
4.0
 40
4.0
 40
5.0
 40
5.0
 40
5.0
 40
5.0
 10
546.231450438428
 20
219.7410460703638
 30
0.0
 10
546.2314504384319
 20
246.8029988120729
 30
0.0
 10
524.2934031801374
 20
268.7410460703636
 30
0.0
 10
497.2314504384282
 20
268.7410460703636
 30
0.0
 10
470.1694976967229
 20
268.7410460703636
 30
0.0
 10
448.2314504384284
 20
246.8029988120729
 30
0.0
 10
448.2314504384284
 20
219.7410460703638
 30
0.0
 10
448.2314504384284
 20
192.6790933286546
 30
0.0
 10
470.1694976967229
 20
170.7410460703636
 30
0.0
 10
497.2314504384282
 20
170.7410460703636
 30
0.0
 10
524.2934031801374
 20
170.7410460703636
 30
0.0
 10
546.2314504384319
 20
192.6790933286546
 30
0.0
 10
546.2314504384319
 20
219.7410460703638
 30
0.0
 10
546.2314504384319
 20
219.7410460703638
 30
0.0
 10
546.231450438428
 20
219.7410460703638
 30
0.0
 10
546.231450438428
 20
219.7410460703638
 30
0.0
  0
ENDBLK
  5
C6
330
C3
100
AcDbEntity
  8
0
100
AcDbBlockEnd
  0
BLOCK
  5
CB
330
C9
100
AcDbEntity
  8
0
100
AcDbBlockBegin
  2
block 27
 70
     0
 10
0.0
 20
0.0
 30
0.0
  3
block 27
  1

  0
SPLINE
  5
CD
330
C9
100
AcDbEntity
  8
3-poket-extw-rest-7mm-profundidad
 62
     7
420
 16777215
370
    70
100
AcDbSpline
210
0.0
220
0.0
230
1.0
 70
    11
 71
     3
 72
    20
 73
    16
 74
     0
 42
0.0000000001
 43
0.0000000001
 12
1.0
 22
0.0
 32
0.0
 13
1.0
 23
0.0
 33
0.0
 40
0.0
 40
0.0
 40
0.0
 40
0.0
 40
1.0
 40
1.0
 40
1.0
 40
2.0
 40
2.0
 40
2.0
 40
3.0
 40
3.0
 40
3.0
 40
4.0
 40
4.0
 40
4.0
 40
5.0
 40
5.0
 40
5.0
 40
5.0
 10
542.9508849068748
 20
379.6370519312878
 30
0.0
 10
542.9508849068748
 20
407.8035741726586
 30
0.0
 10
520.1174071482452
 20
430.6370519312877
 30
0.0
 10
491.9508849068742
 20
430.6370519312877
 30
0.0
 10
463.7843626655038
 20
430.6370519312877
 30
0.0
 10
440.9508849068743
 20
407.8035741726586
 30
0.0
 10
440.9508849068743
 20
379.6370519312878
 30
0.0
 10
440.9508849068743
 20
351.4705296899174
 30
0.0
 10
463.7843626655038
 20
328.6370519312879
 30
0.0
 10
491.9508849068742
 20
328.6370519312879
 30
0.0
 10
520.1174071482452
 20
328.6370519312879
 30
0.0
 10
542.9508849068748
 20
351.4705296899174
 30
0.0
 10
542.9508849068748
 20
379.6370519312878
 30
0.0
 10
542.9508849068748
 20
379.6370519312878
 30
0.0
 10
542.9508849068748
 20
379.6370519312878
 30
0.0
 10
542.9508849068748
 20
379.6370519312878
 30
0.0
  0
ENDBLK
  5
CC
330
C9
100
AcDbEntity
  8
0
100
AcDbBlockEnd
  0
BLOCK
  5
D0
330
CE
100
AcDbEntity
  8
0
100
AcDbBlockBegin
  2
block 28
 70
     0
 10
0.0
 20
0.0
 30
0.0
  3
block 28
  1

  0
SPLINE
  5
D2
330
CE
100
AcDbEntity
  8
3-poket-extw-rest-7mm-profundidad
 62
     7
420
 16777215
370
    70
100
AcDbSpline
210
0.0
220
0.0
230
1.0
 70
    11
 71
     3
 72
    20
 73
    16
 74
     0
 42
0.0000000001
 43
0.0000000001
 12
1.0
 22
0.0
 32
0.0
 13
1.0
 23
0.0
 33
0.0
 40
0.0
 40
0.0
 40
0.0
 40
0.0
 40
1.0
 40
1.0
 40
1.0
 40
2.0
 40
2.0
 40
2.0
 40
3.0
 40
3.0
 40
3.0
 40
4.0
 40
4.0
 40
4.0
 40
5.0
 40
5.0
 40
5.0
 40
5.0
 10
433.1472452576339
 20
555.3886399645746
 30
0.0
 10
433.1472452576339
 20
583.555162205945
 30
0.0
 10
455.9807230162634
 20
606.3886399645745
 30
0.0
 10
484.1472452576338
 20
606.3886399645745
 30
0.0
 10
512.3137674990048
 20
606.3886399645745
 30
0.0
 10
535.1472452576343
 20
583.555162205945
 30
0.0
 10
535.1472452576343
 20
555.3886399645746
 30
0.0
 10
535.1472452576343
 20
527.2221177232038
 30
0.0
 10
512.3137674990048
 20
504.3886399645744
 30
0.0
 10
484.1472452576338
 20
504.3886399645744
 30
0.0
 10
455.9807230162634
 20
504.3886399645744
 30
0.0
 10
433.1472452576339
 20
527.2221177232038
 30
0.0
 10
433.1472452576339
 20
555.3886399645746
 30
0.0
 10
433.1472452576339
 20
555.3886399645746
 30
0.0
 10
433.1472452576339
 20
555.3886399645746
 30
0.0
 10
433.1472452576339
 20
555.3886399645746
 30
0.0
  0
ENDBLK
  5
D1
330
CE
100
AcDbEntity
  8
0
100
AcDbBlockEnd
  0
BLOCK
  5
D5
330
D3
100
AcDbEntity
  8
0
100
AcDbBlockBegin
  2
block 29
 70
     0
 10
0.0
 20
0.0
 30
0.0
  3
block 29
  1

  0
SPLINE
  5
D7
330
D3
100
AcDbEntity
  8
3-poket-extw-rest-7mm-profundidad
 62
     7
420
 16777215
370
    70
100
AcDbSpline
210
0.0
220
0.0
230
1.0
 70
    11
 71
     3
 72
    20
 73
    16
 74
     0
 42
0.0000000001
 43
0.0000000001
 12
1.0
 22
0.0
 32
0.0
 13
1.0
 23
0.0
 33
0.0
 40
0.0
 40
0.0
 40
0.0
 40
0.0
 40
1.0
 40
1.0
 40
1.0
 40
2.0
 40
2.0
 40
2.0
 40
3.0
 40
3.0
 40
3.0
 40
4.0
 40
4.0
 40
4.0
 40
5.0
 40
5.0
 40
5.0
 40
5.0
 10
345.7705167354482
 20
-297.5159555282362
 30
0.0
 10
345.7705167354482
 20
-269.3494332868652
 30
0.0
 10
368.603994494077
 20
-246.5159555282357
 30
0.0
 10
396.770516735448
 20
-246.5159555282357
 30
0.0
 10
424.9370389768184
 20
-246.5159555282357
 30
0.0
 10
447.7705167354479
 20
-269.3494332868652
 30
0.0
 10
447.7705167354479
 20
-297.5159555282362
 30
0.0
 10
447.7705167354479
 20
-325.6824777696066
 30
0.0
 10
424.9370389768184
 20
-348.5159555282361
 30
0.0
 10
396.770516735448
 20
-348.5159555282361
 30
0.0
 10
368.603994494077
 20
-348.5159555282361
 30
0.0
 10
345.7705167354482
 20
-325.6824777696066
 30
0.0
 10
345.7705167354482
 20
-297.5159555282362
 30
0.0
 10
345.7705167354482
 20
-297.5159555282362
 30
0.0
 10
345.7705167354482
 20
-297.5159555282362
 30
0.0
 10
345.7705167354482
 20
-297.5159555282362
 30
0.0
  0
ENDBLK
  5
D6
330
D3
100
AcDbEntity
  8
0
100
AcDbBlockEnd
  0
BLOCK
  5
DA
330
D8
100
AcDbEntity
  8
0
100
AcDbBlockBegin
  2
block 30
 70
     0
 10
0.0
 20
0.0
 30
0.0
  3
block 30
  1

  0
SPLINE
  5
DC
330
D8
100
AcDbEntity
  8
3-poket-extw-rest-7mm-profundidad
 62
     7
420
 16777215
370
    70
100
AcDbSpline
210
0.0
220
0.0
230
1.0
 70
    11
 71
     3
 72
    20
 73
    16
 74
     0
 42
0.0000000001
 43
0.0000000001
 12
1.0
 22
0.0
 32
0.0
 13
1.0
 23
0.0
 33
0.0
 40
0.0
 40
0.0
 40
0.0
 40
0.0
 40
1.0
 40
1.0
 40
1.0
 40
2.0
 40
2.0
 40
2.0
 40
3.0
 40
3.0
 40
3.0
 40
4.0
 40
4.0
 40
4.0
 40
5.0
 40
5.0
 40
5.0
 40
5.0
 10
548.231450438428
 20
219.7410460703638
 30
0.0
 10
548.231450438428
 20
247.9075683117341
 30
0.0
 10
525.3979726797986
 20
270.7410460703636
 30
0.0
 10
497.2314504384282
 20
270.7410460703636
 30
0.0
 10
469.0649281970578
 20
270.7410460703636
 30
0.0
 10
446.2314504384283
 20
247.9075683117341
 30
0.0
 10
446.2314504384283
 20
219.7410460703638
 30
0.0
 10
446.2314504384283
 20
191.5745238289931
 30
0.0
 10
469.0649281970578
 20
168.7410460703639
 30
0.0
 10
497.2314504384282
 20
168.7410460703639
 30
0.0
 10
525.3979726797986
 20
168.7410460703639
 30
0.0
 10
548.231450438428
 20
191.5745238289931
 30
0.0
 10
548.231450438428
 20
219.7410460703638
 30
0.0
 10
548.231450438428
 20
219.7410460703638
 30
0.0
 10
548.231450438428
 20
219.7410460703638
 30
0.0
 10
548.231450438428
 20
219.7410460703638
 30
0.0
  0
ENDBLK
  5
DB
330
D8
100
AcDbEntity
  8
0
100
AcDbBlockEnd
  0
BLOCK
  5
E0
330
DE
100
AcDbEntity
  8
0
100
AcDbBlockBegin
  2
block 31
 70
     0
 10
0.0
 20
0.0
 30
0.0
  3
block 31
  1

  0
SPLINE
  5
E2
330
DE
100
AcDbEntity
  8
3-poket-extw-center
 62
     7
420
 16777215
370
    70
100
AcDbSpline
210
0.0
220
0.0
230
1.0
 70
    11
 71
     3
 72
    20
 73
    16
 74
     0
 42
0.0000000001
 43
0.0000000001
 12
1.0
 22
0.0
 32
0.0
 13
1.0
 23
0.0
 33
0.0
 40
0.0
 40
0.0
 40
0.0
 40
0.0
 40
1.0
 40
1.0
 40
1.0
 40
2.0
 40
2.0
 40
2.0
 40
3.0
 40
3.0
 40
3.0
 40
4.0
 40
4.0
 40
4.0
 40
5.0
 40
5.0
 40
5.0
 40
5.0
 10
486.9508849068746
 20
379.6370519312878
 30
0.0
 10
486.9508849068746
 20
382.3984756804439
 30
0.0
 10
489.1894611577188
 20
384.6370519312877
 30
0.0
 10
491.9508849068742
 20
384.6370519312877
 30
0.0
 10
494.7123086560271
 20
384.6370519312877
 30
0.0
 10
496.9508849068744
 20
382.3984756804439
 30
0.0
 10
496.9508849068744
 20
379.6370519312878
 30
0.0
 10
496.9508849068744
 20
376.8756281821353
 30
0.0
 10
494.7123086560271
 20
374.6370519312877
 30
0.0
 10
491.9508849068742
 20
374.6370519312877
 30
0.0
 10
489.1894611577188
 20
374.6370519312877
 30
0.0
 10
486.9508849068746
 20
376.8756281821353
 30
0.0
 10
486.9508849068746
 20
379.6370519312878
 30
0.0
 10
486.9508849068746
 20
379.6370519312878
 30
0.0
 10
486.9508849068746
 20
379.6370519312878
 30
0.0
 10
486.9508849068746
 20
379.6370519312878
 30
0.0
  0
ENDBLK
  5
E1
330
DE
100
AcDbEntity
  8
0
100
AcDbBlockEnd
  0
BLOCK
  5
E5
330
E3
100
AcDbEntity
  8
0
100
AcDbBlockBegin
  2
block 32
 70
     0
 10
0.0
 20
0.0
 30
0.0
  3
block 32
  1

  0
SPLINE
  5
E7
330
E3
100
AcDbEntity
  8
3-poket-extw-center
 62
     7
420
 16777215
370
    70
100
AcDbSpline
210
0.0
220
0.0
230
1.0
 70
    11
 71
     3
 72
    20
 73
    16
 74
     0
 42
0.0000000001
 43
0.0000000001
 12
1.0
 22
0.0
 32
0.0
 13
1.0
 23
0.0
 33
0.0
 40
0.0
 40
0.0
 40
0.0
 40
0.0
 40
1.0
 40
1.0
 40
1.0
 40
2.0
 40
2.0
 40
2.0
 40
3.0
 40
3.0
 40
3.0
 40
4.0
 40
4.0
 40
4.0
 40
5.0
 40
5.0
 40
5.0
 40
5.0
 10
489.1472452576339
 20
555.3886399645746
 30
0.0
 10
489.1472452576339
 20
558.1500637137303
 30
0.0
 10
486.908669006786
 20
560.3886399645744
 30
0.0
 10
484.1472452576338
 20
560.3886399645744
 30
0.0
 10
481.3858215084777
 20
560.3886399645744
 30
0.0
 10
479.1472452576336
 20
558.1500637137303
 30
0.0
 10
479.1472452576336
 20
555.3886399645746
 30
0.0
 10
479.1472452576336
 20
552.6272162154221
 30
0.0
 10
481.3858215084777
 20
550.3886399645744
 30
0.0
 10
484.1472452576338
 20
550.3886399645744
 30
0.0
 10
486.908669006786
 20
550.3886399645744
 30
0.0
 10
489.1472452576339
 20
552.6272162154221
 30
0.0
 10
489.1472452576339
 20
555.3886399645746
 30
0.0
 10
489.1472452576339
 20
555.3886399645746
 30
0.0
 10
489.1472452576339
 20
555.3886399645746
 30
0.0
 10
489.1472452576339
 20
555.3886399645746
 30
0.0
  0
ENDBLK
  5
E6
330
E3
100
AcDbEntity
  8
0
100
AcDbBlockEnd
  0
BLOCK
  5
EA
330
E8
100
AcDbEntity
  8
0
100
AcDbBlockBegin
  2
block 33
 70
     0
 10
0.0
 20
0.0
 30
0.0
  3
block 33
  1

  0
SPLINE
  5
EC
330
E8
100
AcDbEntity
  8
3-poket-extw-center
 62
     7
420
 16777215
370
    70
100
AcDbSpline
210
0.0
220
0.0
230
1.0
 70
    11
 71
     3
 72
    20
 73
    16
 74
     0
 42
0.0000000001
 43
0.0000000001
 12
1.0
 22
0.0
 32
0.0
 13
1.0
 23
0.0
 33
0.0
 40
0.0
 40
0.0
 40
0.0
 40
0.0
 40
1.0
 40
1.0
 40
1.0
 40
2.0
 40
2.0
 40
2.0
 40
3.0
 40
3.0
 40
3.0
 40
4.0
 40
4.0
 40
4.0
 40
5.0
 40
5.0
 40
5.0
 40
5.0
 10
401.7705167354482
 20
-297.5159555282362
 30
0.0
 10
401.7705167354482
 20
-294.7545317790821
 30
0.0
 10
399.5319404846041
 20
-292.515955528236
 30
0.0
 10
396.770516735448
 20
-292.515955528236
 30
0.0
 10
394.0090929862959
 20
-292.515955528236
 30
0.0
 10
391.7705167354479
 20
-294.7545317790821
 30
0.0
 10
391.7705167354479
 20
-297.5159555282362
 30
0.0
 10
391.7705167354479
 20
-300.2773792773897
 30
0.0
 10
394.0090929862959
 20
-302.5159555282357
 30
0.0
 10
396.770516735448
 20
-302.5159555282357
 30
0.0
 10
399.5319404846041
 20
-302.5159555282357
 30
0.0
 10
401.7705167354482
 20
-300.2773792773897
 30
0.0
 10
401.7705167354482
 20
-297.5159555282362
 30
0.0
 10
401.7705167354482
 20
-297.5159555282362
 30
0.0
 10
401.7705167354482
 20
-297.5159555282362
 30
0.0
 10
401.7705167354482
 20
-297.5159555282362
 30
0.0
  0
ENDBLK
  5
EB
330
E8
100
AcDbEntity
  8
0
100
AcDbBlockEnd
  0
BLOCK
  5
EF
330
ED
100
AcDbEntity
  8
0
100
AcDbBlockBegin
  2
block 34
 70
     0
 10
0.0
 20
0.0
 30
0.0
  3
block 34
  1

  0
SPLINE
  5
F1
330
ED
100
AcDbEntity
  8
3-poket-extw-center
 62
     7
420
 16777215
370
    70
100
AcDbSpline
210
0.0
220
0.0
230
1.0
 70
    11
 71
     3
 72
    20
 73
    16
 74
     0
 42
0.0000000001
 43
0.0000000001
 12
1.0
 22
0.0
 32
0.0
 13
1.0
 23
0.0
 33
0.0
 40
0.0
 40
0.0
 40
0.0
 40
0.0
 40
1.0
 40
1.0
 40
1.0
 40
2.0
 40
2.0
 40
2.0
 40
3.0
 40
3.0
 40
3.0
 40
4.0
 40
4.0
 40
4.0
 40
5.0
 40
5.0
 40
5.0
 40
5.0
 10
492.2314504384319
 20
219.7410460703638
 30
0.0
 10
492.2314504384319
 20
222.5024698195176
 30
0.0
 10
494.470026689276
 20
224.7410460703636
 30
0.0
 10
497.2314504384282
 20
224.7410460703636
 30
0.0
 10
499.9928741875843
 20
224.7410460703636
 30
0.0
 10
502.2314504384284
 20
222.5024698195176
 30
0.0
 10
502.2314504384284
 20
219.7410460703638
 30
0.0
 10
502.2314504384284
 20
216.9796223212096
 30
0.0
 10
499.9928741875843
 20
214.7410460703636
 30
0.0
 10
497.2314504384282
 20
214.7410460703636
 30
0.0
 10
494.470026689276
 20
214.7410460703636
 30
0.0
 10
492.2314504384319
 20
216.9796223212096
 30
0.0
 10
492.2314504384319
 20
219.7410460703638
 30
0.0
 10
492.2314504384319
 20
219.7410460703638
 30
0.0
 10
492.2314504384319
 20
219.7410460703638
 30
0.0
 10
492.2314504384319
 20
219.7410460703638
 30
0.0
  0
ENDBLK
  5
F0
330
ED
100
AcDbEntity
  8
0
100
AcDbBlockEnd
  0
BLOCK
  5
F5
330
F3
100
AcDbEntity
  8
0
100
AcDbBlockBegin
  2
block 35
 70
     0
 10
0.0
 20
0.0
 30
0.0
  3
block 35
  1

  0
SPLINE
  5
F7
330
F3
100
AcDbEntity
  8
3-poket-9mm
 62
     7
420
 16777215
370
    70
100
AcDbSpline
210
0.0
220
0.0
230
1.0
 70
    11
 71
     3
 72
    29
 73
    25
 74
     0
 42
0.0000000001
 43
0.0000000001
 12
1.0
 22
0.0
 32
0.0
 13
1.0
 23
0.0
 33
0.0
 40
0.0
 40
0.0
 40
0.0
 40
0.0
 40
1.0
 40
1.0
 40
1.0
 40
2.0
 40
2.0
 40
2.0
 40
3.0
 40
3.0
 40
3.0
 40
4.0
 40
4.0
 40
4.0
 40
5.0
 40
5.0
 40
5.0
 40
6.0
 40
6.0
 40
6.0
 40
7.0
 40
7.0
 40
7.0
 40
8.0
 40
8.0
 40
8.0
 40
8.0
 10
14.05519992462062
 20
489.2706572437429
 30
0.0
 10
12.28788872516188
 20
489.2706572437429
 30
0.0
 10
10.85519992462051
 20
490.7033460442872
 30
0.0
 10
10.85519992462051
 20
492.470657243743
 30
0.0
 10
10.85519992462051
 20
492.470657243743
 30
0.0
 10
10.85519992462051
 20
538.9206572437429
 30
0.0
 10
10.85519992462051
 20
538.9206572437429
 30
0.0
 10
10.85519992462051
 20
540.6879684432023
 30
0.0
 10
12.28788872516188
 20
542.120657243743
 30
0.0
 10
14.05519992462062
 20
542.120657243743
 30
0.0
 10
14.05519992462062
 20
542.120657243743
 30
0.0
 10
24.95519992462036
 20
542.120657243743
 30
0.0
 10
24.95519992462036
 20
542.120657243743
 30
0.0
 10
26.7225111240791
 20
542.120657243743
 30
0.0
 10
28.15519992462048
 20
540.6879684432023
 30
0.0
 10
28.15519992462048
 20
538.9206572437429
 30
0.0
 10
28.15519992462048
 20
538.9206572437429
 30
0.0
 10
28.15519992462048
 20
492.470657243743
 30
0.0
 10
28.15519992462048
 20
492.470657243743
 30
0.0
 10
28.15519992462048
 20
490.7033460442872
 30
0.0
 10
26.7225111240791
 20
489.2706572437429
 30
0.0
 10
24.95519992462036
 20
489.2706572437429
 30
0.0
 10
24.95519992462036
 20
489.2706572437429
 30
0.0
 10
14.05519992462062
 20
489.2706572437429
 30
0.0
 10
14.05519992462062
 20
489.2706572437429
 30
0.0
  0
ENDBLK
  5
F6
330
F3
100
AcDbEntity
  8
0
100
AcDbBlockEnd
  0
BLOCK
  5
FA
330
F8
100
AcDbEntity
  8
0
100
AcDbBlockBegin
  2
block 36
 70
     0
 10
0.0
 20
0.0
 30
0.0
  3
block 36
  1

  0
SPLINE
  5
FC
330
F8
100
AcDbEntity
  8
3-poket-9mm
 62
     7
420
 16777215
370
    70
100
AcDbSpline
210
0.0
220
0.0
230
1.0
 70
    11
 71
     3
 72
    29
 73
    25
 74
     0
 42
0.0000000001
 43
0.0000000001
 12
1.0
 22
0.0
 32
0.0
 13
1.0
 23
0.0
 33
0.0
 40
0.0
 40
0.0
 40
0.0
 40
0.0
 40
1.0
 40
1.0
 40
1.0
 40
2.0
 40
2.0
 40
2.0
 40
3.0
 40
3.0
 40
3.0
 40
4.0
 40
4.0
 40
4.0
 40
5.0
 40
5.0
 40
5.0
 40
6.0
 40
6.0
 40
6.0
 40
7.0
 40
7.0
 40
7.0
 40
8.0
 40
8.0
 40
8.0
 40
8.0
 10
328.7551999246205
 20
492.470657243743
 30
0.0
 10
328.7551999246205
 20
492.470657243743
 30
0.0
 10
328.7551999246205
 20
538.9206572437429
 30
0.0
 10
328.7551999246205
 20
538.9206572437429
 30
0.0
 10
328.7551999246205
 20
540.6879684432023
 30
0.0
 10
330.1878887251615
 20
542.120657243743
 30
0.0
 10
331.9551999246206
 20
542.120657243743
 30
0.0
 10
331.9551999246206
 20
542.120657243743
 30
0.0
 10
342.8551999246206
 20
542.120657243743
 30
0.0
 10
342.8551999246206
 20
542.120657243743
 30
0.0
 10
344.6225111240791
 20
542.120657243743
 30
0.0
 10
346.0551999246208
 20
540.6879684432023
 30
0.0
 10
346.0551999246208
 20
538.9206572437429
 30
0.0
 10
346.0551999246208
 20
538.9206572437429
 30
0.0
 10
346.0551999246201
 20
492.470657243743
 30
0.0
 10
346.0551999246201
 20
492.470657243743
 30
0.0
 10
346.0551999246201
 20
490.7033460442836
 30
0.0
 10
344.6225111240791
 20
489.2706572437429
 30
0.0
 10
342.8551999246206
 20
489.2706572437429
 30
0.0
 10
342.8551999246206
 20
489.2706572437429
 30
0.0
 10
331.9551999246206
 20
489.2706572437429
 30
0.0
 10
331.9551999246206
 20
489.2706572437429
 30
0.0
 10
330.1878887251615
 20
489.2706572437429
 30
0.0
 10
328.7551999246205
 20
490.7033460442836
 30
0.0
 10
328.7551999246205
 20
492.470657243743
 30
0.0
  0
ENDBLK
  5
FB
330
F8
100
AcDbEntity
  8
0
100
AcDbBlockEnd
  0
BLOCK
  5
FF
330
FD
100
AcDbEntity
  8
0
100
AcDbBlockBegin
  2
block 37
 70
     0
 10
0.0
 20
0.0
 30
0.0
  3
block 37
  1

  0
SPLINE
  5
101
330
FD
100
AcDbEntity
  8
3-poket-9mm
 62
     7
420
 16777215
370
    70
100
AcDbSpline
210
0.0
220
0.0
230
1.0
 70
    11
 71
     3
 72
    23
 73
    19
 74
     0
 42
0.0000000001
 43
0.0000000001
 12
1.0
 22
0.0
 32
0.0
 13
1.0
 23
0.0
 33
0.0
 40
0.0
 40
0.0
 40
0.0
 40
0.0
 40
1.0
 40
1.0
 40
1.0
 40
2.0
 40
2.0
 40
2.0
 40
3.0
 40
3.0
 40
3.0
 40
4.0
 40
4.0
 40
4.0
 40
5.0
 40
5.0
 40
5.0
 40
6.0
 40
6.0
 40
6.0
 40
6.0
 10
19.40519992462065
 20
469.4456572437431
 30
0.0
 10
19.40519992462065
 20
469.4456572437431
 30
0.0
 10
337.5051999246206
 20
469.4456572437431
 30
0.0
 10
337.5051999246206
 20
469.4456572437431
 30
0.0
 10
339.9766741801136
 20
469.4456572437431
 30
0.0
 10
341.9801999246204
 20
467.442131499236
 30
0.0
 10
341.9801999246204
 20
464.970657243743
 30
0.0
 10
341.9801999246204
 20
462.4991829882497
 30
0.0
 10
339.9766741801136
 20
460.4956572437429
 30
0.0
 10
337.5051999246206
 20
460.4956572437429
 30
0.0
 10
337.5051999246206
 20
460.4956572437429
 30
0.0
 10
19.40519992462065
 20
460.4956572437429
 30
0.0
 10
19.40519992462065
 20
460.4956572437429
 30
0.0
 10
16.93372566912769
 20
460.4956572437429
 30
0.0
 10
14.93019992462057
 20
462.4991829882497
 30
0.0
 10
14.93019992462057
 20
464.970657243743
 30
0.0
 10
14.93019992462057
 20
467.442131499236
 30
0.0
 10
16.93372566912769
 20
469.4456572437431
 30
0.0
 10
19.40519992462065
 20
469.4456572437431
 30
0.0
  0
ENDBLK
  5
100
330
FD
100
AcDbEntity
  8
0
100
AcDbBlockEnd
  0
BLOCK
  5
104
330
102
100
AcDbEntity
  8
0
100
AcDbBlockBegin
  2
block 38
 70
     0
 10
0.0
 20
0.0
 30
0.0
  3
block 38
  1

  0
SPLINE
  5
106
330
102
100
AcDbEntity
  8
3-poket-9mm
 62
     7
420
 16777215
370
    70
100
AcDbSpline
210
0.0
220
0.0
230
1.0
 70
    11
 71
     3
 72
    29
 73
    25
 74
     0
 42
0.0000000001
 43
0.0000000001
 12
1.0
 22
0.0
 32
0.0
 13
1.0
 23
0.0
 33
0.0
 40
0.0
 40
0.0
 40
0.0
 40
0.0
 40
1.0
 40
1.0
 40
1.0
 40
2.0
 40
2.0
 40
2.0
 40
3.0
 40
3.0
 40
3.0
 40
4.0
 40
4.0
 40
4.0
 40
5.0
 40
5.0
 40
5.0
 40
6.0
 40
6.0
 40
6.0
 40
7.0
 40
7.0
 40
7.0
 40
8.0
 40
8.0
 40
8.0
 40
8.0
 10
319.6991049970931
 20
388.0671736588014
 30
0.0
 10
319.6991049970931
 20
389.8344848582611
 30
0.0
 10
321.1317937976348
 20
391.2671736588015
 30
0.0
 10
322.8991049970933
 20
391.2671736588015
 30
0.0
 10
322.8991049970933
 20
391.2671736588015
 30
0.0
 10
333.7991049970933
 20
391.2671736588015
 30
0.0
 10
333.7991049970933
 20
391.2671736588015
 30
0.0
 10
335.5664161965518
 20
391.2671736588015
 30
0.0
 10
336.9991049970934
 20
389.8344848582611
 30
0.0
 10
336.9991049970934
 20
388.0671736588014
 30
0.0
 10
336.9991049970934
 20
388.0671736588014
 30
0.0
 10
336.9991049970934
 20
341.6171736588009
 30
0.0
 10
336.9991049970934
 20
341.6171736588009
 30
0.0
 10
336.9991049970934
 20
339.8498624593421
 30
0.0
 10
335.5664161965518
 20
338.4171736588008
 30
0.0
 10
333.7991049970933
 20
338.4171736588008
 30
0.0
 10
333.7991049970933
 20
338.4171736588008
 30
0.0
 10
322.8991049970933
 20
338.4171736588008
 30
0.0
 10
322.8991049970933
 20
338.4171736588008
 30
0.0
 10
321.1317937976348
 20
338.4171736588008
 30
0.0
 10
319.6991049970931
 20
339.8498624593425
 30
0.0
 10
319.6991049970931
 20
341.6171736588009
 30
0.0
 10
319.6991049970931
 20
341.6171736588009
 30
0.0
 10
319.6991049970931
 20
388.0671736588014
 30
0.0
 10
319.6991049970931
 20
388.0671736588014
 30
0.0
  0
ENDBLK
  5
105
330
102
100
AcDbEntity
  8
0
100
AcDbBlockEnd
  0
BLOCK
  5
109
330
107
100
AcDbEntity
  8
0
100
AcDbBlockBegin
  2
block 39
 70
     0
 10
0.0
 20
0.0
 30
0.0
  3
block 39
  1

  0
SPLINE
  5
10B
330
107
100
AcDbEntity
  8
3-poket-9mm
 62
     7
420
 16777215
370
    70
100
AcDbSpline
210
0.0
220
0.0
230
1.0
 70
    11
 71
     3
 72
    29
 73
    25
 74
     0
 42
0.0000000001
 43
0.0000000001
 12
1.0
 22
0.0
 32
0.0
 13
1.0
 23
0.0
 33
0.0
 40
0.0
 40
0.0
 40
0.0
 40
0.0
 40
1.0
 40
1.0
 40
1.0
 40
2.0
 40
2.0
 40
2.0
 40
3.0
 40
3.0
 40
3.0
 40
4.0
 40
4.0
 40
4.0
 40
5.0
 40
5.0
 40
5.0
 40
6.0
 40
6.0
 40
6.0
 40
7.0
 40
7.0
 40
7.0
 40
8.0
 40
8.0
 40
8.0
 40
8.0
 10
1.799104997093468
 20
341.6171736588009
 30
0.0
 10
1.799104997093468
 20
341.6171736588009
 30
0.0
 10
1.799104997093468
 20
388.0671736588014
 30
0.0
 10
1.799104997093468
 20
388.0671736588014
 30
0.0
 10
1.799104997093468
 20
389.8344848582611
 30
0.0
 10
3.231793797634844
 20
391.2671736588015
 30
0.0
 10
4.99910499709326
 20
391.2671736588015
 30
0.0
 10
4.99910499709326
 20
391.2671736588015
 30
0.0
 10
15.89910499709332
 20
391.2671736588015
 30
0.0
 10
15.89910499709332
 20
391.2671736588015
 30
0.0
 10
17.66641619655206
 20
391.2671736588015
 30
0.0
 10
19.09910499709344
 20
389.8344848582611
 30
0.0
 10
19.09910499709344
 20
388.0671736588014
 30
0.0
 10
19.09910499709344
 20
388.0671736588014
 30
0.0
 10
19.09910499709344
 20
341.6171736588009
 30
0.0
 10
19.09910499709344
 20
341.6171736588009
 30
0.0
 10
19.09910499709344
 20
339.8498624593421
 30
0.0
 10
17.66641619655206
 20
338.4171736588008
 30
0.0
 10
15.89910499709332
 20
338.4171736588008
 30
0.0
 10
15.89910499709332
 20
338.4171736588008
 30
0.0
 10
4.99910499709326
 20
338.4171736588008
 30
0.0
 10
4.99910499709326
 20
338.4171736588008
 30
0.0
 10
3.231793797634844
 20
338.4171736588008
 30
0.0
 10
1.799104997093468
 20
339.8498624593421
 30
0.0
 10
1.799104997093468
 20
341.6171736588009
 30
0.0
  0
ENDBLK
  5
10A
330
107
100
AcDbEntity
  8
0
100
AcDbBlockEnd
  0
BLOCK
  5
10E
330
10C
100
AcDbEntity
  8
0
100
AcDbBlockBegin
  2
block 40
 70
     0
 10
0.0
 20
0.0
 30
0.0
  3
block 40
  1

  0
SPLINE
  5
110
330
10C
100
AcDbEntity
  8
3-poket-9mm
 62
     7
420
 16777215
370
    70
100
AcDbSpline
210
0.0
220
0.0
230
1.0
 70
    11
 71
     3
 72
    23
 73
    19
 74
     0
 42
0.0000000001
 43
0.0000000001
 12
1.0
 22
0.0
 32
0.0
 13
1.0
 23
0.0
 33
0.0
 40
0.0
 40
0.0
 40
0.0
 40
0.0
 40
1.0
 40
1.0
 40
1.0
 40
2.0
 40
2.0
 40
2.0
 40
3.0
 40
3.0
 40
3.0
 40
4.0
 40
4.0
 40
4.0
 40
5.0
 40
5.0
 40
5.0
 40
6.0
 40
6.0
 40
6.0
 40
6.0
 10
10.34910499709329
 20
318.592173658801
 30
0.0
 10
10.34910499709329
 20
318.592173658801
 30
0.0
 10
328.4491049970933
 20
318.592173658801
 30
0.0
 10
328.4491049970933
 20
318.592173658801
 30
0.0
 10
330.9205792525863
 20
318.5921736588007
 30
0.0
 10
332.924104997093
 20
316.5886479142935
 30
0.0
 10
332.924104997093
 20
314.1171736588009
 30
0.0
 10
332.924104997093
 20
311.6456994033079
 30
0.0
 10
330.9205792525863
 20
309.6421736588008
 30
0.0
 10
328.4491049970933
 20
309.6421736588008
 30
0.0
 10
328.4491049970933
 20
309.6421736588008
 30
0.0
 10
10.34910499709329
 20
309.6421736588008
 30
0.0
 10
10.34910499709329
 20
309.6421736588008
 30
0.0
 10
7.877630741600645
 20
309.6421736588008
 30
0.0
 10
5.874104997093211
 20
311.6456994033079
 30
0.0
 10
5.874104997093211
 20
314.1171736588009
 30
0.0
 10
5.874104997093211
 20
316.5886479142935
 30
0.0
 10
7.877630741600645
 20
318.5921736588007
 30
0.0
 10
10.34910499709329
 20
318.592173658801
 30
0.0
  0
ENDBLK
  5
10F
330
10C
100
AcDbEntity
  8
0
100
AcDbBlockEnd
  0
BLOCK
  5
11A
330
118
100
AcDbEntity
  8
0
100
AcDbBlockBegin
  2
block 41
 70
     0
 10
0.0
 20
0.0
 30
0.0
  3
block 41
  1

  0
POLYLINE
  5
11C
330
118
100
AcDbEntity
  8
3-poket-9mm
 62
     7
420
 16777215
370
    70
100
AcDb2dPolyline
 66
     1
 10
0.0
 20
0.0
 30
0.0
  0
VERTEX
  5
11D
330
11C
100
AcDbEntity
  8
3-poket-9mm
 62
     7
420
 16777215
370
    70
100
AcDbVertex
100
AcDb2dVertex
 10
-39.4548423538916
 20
-356.4982162271168
 30
0.0
  0
VERTEX
  5
11E
330
11C
100
AcDbEntity
  8
3-poket-9mm
 62
     7
420
 16777215
370
    70
100
AcDbVertex
100
AcDb2dVertex
 10
-39.4548423538916
 20
-56.09821622711712
 30
0.0
  0
VERTEX
  5
11F
330
11C
100
AcDbEntity
  8
3-poket-9mm
 62
     7
420
 16777215
370
    70
100
AcDbVertex
100
AcDb2dVertex
 10
290.1451576461085
 20
-56.09821622711712
 30
0.0
  0
VERTEX
  5
120
330
11C
100
AcDbEntity
  8
3-poket-9mm
 62
     7
420
 16777215
370
    70
100
AcDbVertex
100
AcDb2dVertex
 10
290.1451576461085
 20
-356.4982162271168
 30
0.0
  0
VERTEX
  5
121
330
11C
100
AcDbEntity
  8
3-poket-9mm
 62
     7
420
 16777215
370
    70
100
AcDbVertex
100
AcDb2dVertex
 10
-39.4548423538916
 20
-356.4982162271168
 30
0.0
  0
SEQEND
  5
122
330
11C
100
AcDbEntity
  8
3-poket-9mm
 62
     7
420
 16777215
370
    70
  0
ENDBLK
  5
11B
330
118
100
AcDbEntity
  8
0
100
AcDbBlockEnd
  0
BLOCK
  5
12C
330
12A
100
AcDbEntity
  8
0
100
AcDbBlockBegin
  2
block 42
 70
     0
 10
0.0
 20
0.0
 30
0.0
  3
block 42
  1

  0
POLYLINE
  5
12E
330
12A
100
AcDbEntity
  8
3-poket-9mm
 62
     7
420
 16777215
370
    70
100
AcDb2dPolyline
 66
     1
 10
0.0
 20
0.0
 30
0.0
  0
VERTEX
  5
12F
330
12E
100
AcDbEntity
  8
3-poket-9mm
 62
     7
420
 16777215
370
    70
100
AcDbVertex
100
AcDb2dVertex
 10
303.8148248958046
 20
-42.8510750186182
 30
0.0
  0
VERTEX
  5
130
330
12E
100
AcDbEntity
  8
3-poket-9mm
 62
     7
420
 16777215
370
    70
100
AcDbVertex
100
AcDb2dVertex
 10
303.8148248958046
 20
-369.7453574356157
 30
0.0
  0
VERTEX
  5
131
330
12E
100
AcDbEntity
  8
3-poket-9mm
 62
     7
420
 16777215
370
    70
100
AcDbVertex
100
AcDb2dVertex
 10
-53.12450960358713
 20
-369.7453574356157
 30
0.0
  0
VERTEX
  5
132
330
12E
100
AcDbEntity
  8
3-poket-9mm
 62
     7
420
 16777215
370
    70
100
AcDbVertex
100
AcDb2dVertex
 10
-53.12450960358713
 20
-42.8510750186182
 30
0.0
  0
VERTEX
  5
133
330
12E
100
AcDbEntity
  8
3-poket-9mm
 62
     7
420
 16777215
370
    70
100
AcDbVertex
100
AcDb2dVertex
 10
303.8148248958046
 20
-42.8510750186182
 30
0.0
  0
SEQEND
  5
134
330
12E
100
AcDbEntity
  8
3-poket-9mm
 62
     7
420
 16777215
370
    70
  0
ENDBLK
  5
12D
330
12A
100
AcDbEntity
  8
0
100
AcDbBlockEnd
  0
BLOCK
  5
138
330
136
100
AcDbEntity
  8
0
100
AcDbBlockBegin
  2
block 43
 70
     0
 10
0.0
 20
0.0
 30
0.0
  3
block 43
  1

  0
SPLINE
  5
13A
330
136
100
AcDbEntity
  8
3-poket-5mm
 62
     7
420
 16777215
370
    70
100
AcDbSpline
210
0.0
220
0.0
230
1.0
 70
    11
 71
     3
 72
    20
 73
    16
 74
     0
 42
0.0000000001
 43
0.0000000001
 12
1.0
 22
0.0
 32
0.0
 13
1.0
 23
0.0
 33
0.0
 40
0.0
 40
0.0
 40
0.0
 40
0.0
 40
1.0
 40
1.0
 40
1.0
 40
2.0
 40
2.0
 40
2.0
 40
3.0
 40
3.0
 40
3.0
 40
4.0
 40
4.0
 40
4.0
 40
5.0
 40
5.0
 40
5.0
 40
5.0
 10
245.9223259298756
 20
525.4789905770762
 30
0.0
 10
245.9223259298756
 20
529.0688414509776
 30
0.0
 10
248.8324750559753
 20
531.9789905770764
 30
0.0
 10
252.4223259298755
 20
531.9789905770764
 30
0.0
 10
256.0121768037758
 20
531.9789905770764
 30
0.0
 10
258.9223259298754
 20
529.0688414509776
 30
0.0
 10
258.9223259298754
 20
525.4789905770762
 30
0.0
 10
258.9223259298754
 20
521.8891397031784
 30
0.0
 10
256.0121768037758
 20
518.9789905770763
 30
0.0
 10
252.4223259298755
 20
518.9789905770763
 30
0.0
 10
248.8324750559753
 20
518.9789905770763
 30
0.0
 10
245.9223259298756
 20
521.8891397031784
 30
0.0
 10
245.9223259298756
 20
525.4789905770762
 30
0.0
 10
245.9223259298756
 20
525.4789905770762
 30
0.0
 10
245.9223259298756
 20
525.4789905770762
 30
0.0
 10
245.9223259298756
 20
525.4789905770762
 30
0.0
  0
ENDBLK
  5
139
330
136
100
AcDbEntity
  8
0
100
AcDbBlockEnd
  0
BLOCK
  5
13D
330
13B
100
AcDbEntity
  8
0
100
AcDbBlockBegin
  2
block 44
 70
     0
 10
0.0
 20
0.0
 30
0.0
  3
block 44
  1

  0
SPLINE
  5
13F
330
13B
100
AcDbEntity
  8
3-poket-5mm
 62
     7
420
 16777215
370
    70
100
AcDbSpline
210
0.0
220
0.0
230
1.0
 70
    11
 71
     3
 72
    20
 73
    16
 74
     0
 42
0.0000000001
 43
0.0000000001
 12
1.0
 22
0.0
 32
0.0
 13
1.0
 23
0.0
 33
0.0
 40
0.0
 40
0.0
 40
0.0
 40
0.0
 40
1.0
 40
1.0
 40
1.0
 40
2.0
 40
2.0
 40
2.0
 40
3.0
 40
3.0
 40
3.0
 40
4.0
 40
4.0
 40
4.0
 40
5.0
 40
5.0
 40
5.0
 40
5.0
 10
237.1963677678735
 20
488.8123239104095
 30
0.0
 10
237.1963677678735
 20
492.402174784311
 30
0.0
 10
240.1065168939732
 20
495.3123239104097
 30
0.0
 10
243.6963677678734
 20
495.3123239104097
 30
0.0
 10
247.2862186417736
 20
495.3123239104097
 30
0.0
 10
250.1963677678733
 20
492.402174784311
 30
0.0
 10
250.1963677678733
 20
488.8123239104095
 30
0.0
 10
250.1963677678733
 20
485.2224730365118
 30
0.0
 10
247.2862186417736
 20
482.3123239104095
 30
0.0
 10
243.6963677678734
 20
482.3123239104095
 30
0.0
 10
240.1065168939732
 20
482.3123239104095
 30
0.0
 10
237.1963677678735
 20
485.2224730365118
 30
0.0
 10
237.1963677678735
 20
488.8123239104095
 30
0.0
 10
237.1963677678735
 20
488.8123239104095
 30
0.0
 10
237.1963677678735
 20
488.8123239104095
 30
0.0
 10
237.1963677678735
 20
488.8123239104095
 30
0.0
  0
ENDBLK
  5
13E
330
13B
100
AcDbEntity
  8
0
100
AcDbBlockEnd
  0
BLOCK
  5
142
330
140
100
AcDbEntity
  8
0
100
AcDbBlockBegin
  2
block 45
 70
     0
 10
0.0
 20
0.0
 30
0.0
  3
block 45
  1

  0
SPLINE
  5
144
330
140
100
AcDbEntity
  8
3-poket-5mm
 62
     7
420
 16777215
370
    70
100
AcDbSpline
210
0.0
220
0.0
230
1.0
 70
    11
 71
     3
 72
    20
 73
    16
 74
     0
 42
0.0000000001
 43
0.0000000001
 12
1.0
 22
0.0
 32
0.0
 13
1.0
 23
0.0
 33
0.0
 40
0.0
 40
0.0
 40
0.0
 40
0.0
 40
1.0
 40
1.0
 40
1.0
 40
2.0
 40
2.0
 40
2.0
 40
3.0
 40
3.0
 40
3.0
 40
4.0
 40
4.0
 40
4.0
 40
5.0
 40
5.0
 40
5.0
 40
5.0
 10
101.9319789918383
 20
374.625506992135
 30
0.0
 10
101.9319789918383
 20
378.2153578660327
 30
0.0
 10
99.02182986573834
 20
381.1255069921349
 30
0.0
 10
95.4319789918381
 20
381.1255069921349
 30
0.0
 10
91.84212811793785
 20
381.1255069921349
 30
0.0
 10
88.93197899183819
 20
378.2153578660327
 30
0.0
 10
88.93197899183819
 20
374.625506992135
 30
0.0
 10
88.93197899183819
 20
371.0356561182335
 30
0.0
 10
91.84212811793785
 20
368.1255069921351
 30
0.0
 10
95.4319789918381
 20
368.1255069921351
 30
0.0
 10
99.02182986573834
 20
368.1255069921351
 30
0.0
 10
101.9319789918383
 20
371.0356561182335
 30
0.0
 10
101.9319789918383
 20
374.625506992135
 30
0.0
 10
101.9319789918383
 20
374.625506992135
 30
0.0
 10
101.9319789918383
 20
374.625506992135
 30
0.0
 10
101.9319789918383
 20
374.625506992135
 30
0.0
  0
ENDBLK
  5
143
330
140
100
AcDbEntity
  8
0
100
AcDbBlockEnd
  0
BLOCK
  5
147
330
145
100
AcDbEntity
  8
0
100
AcDbBlockBegin
  2
block 46
 70
     0
 10
0.0
 20
0.0
 30
0.0
  3
block 46
  1

  0
SPLINE
  5
149
330
145
100
AcDbEntity
  8
3-poket-5mm
 62
     7
420
 16777215
370
    70
100
AcDbSpline
210
0.0
220
0.0
230
1.0
 70
    11
 71
     3
 72
    20
 73
    16
 74
     0
 42
0.0000000001
 43
0.0000000001
 12
1.0
 22
0.0
 32
0.0
 13
1.0
 23
0.0
 33
0.0
 40
0.0
 40
0.0
 40
0.0
 40
0.0
 40
1.0
 40
1.0
 40
1.0
 40
2.0
 40
2.0
 40
2.0
 40
3.0
 40
3.0
 40
3.0
 40
4.0
 40
4.0
 40
4.0
 40
5.0
 40
5.0
 40
5.0
 40
5.0
 10
110.6579371538404
 20
337.9588403254673
 30
0.0
 10
110.6579371538404
 20
341.5486911993679
 30
0.0
 10
107.7477880277405
 20
344.4588403254673
 30
0.0
 10
104.1579371538405
 20
344.4588403254673
 30
0.0
 10
100.5680862799403
 20
344.4588403254673
 30
0.0
 10
97.65793715384062
 20
341.5486911993679
 30
0.0
 10
97.65793715384062
 20
337.9588403254673
 30
0.0
 10
97.65793715384062
 20
334.3689894515671
 30
0.0
 10
100.5680862799403
 20
331.4588403254675
 30
0.0
 10
104.1579371538405
 20
331.4588403254675
 30
0.0
 10
107.7477880277405
 20
331.4588403254675
 30
0.0
 10
110.6579371538404
 20
334.3689894515671
 30
0.0
 10
110.6579371538404
 20
337.9588403254673
 30
0.0
 10
110.6579371538404
 20
337.9588403254673
 30
0.0
 10
110.6579371538404
 20
337.9588403254673
 30
0.0
 10
110.6579371538404
 20
337.9588403254673
 30
0.0
  0
ENDBLK
  5
148
330
145
100
AcDbEntity
  8
0
100
AcDbBlockEnd
  0
BLOCK
  5
14C
330
14A
100
AcDbEntity
  8
0
100
AcDbBlockBegin
  2
block 47
 70
     0
 10
0.0
 20
0.0
 30
0.0
  3
block 47
  1

  0
SPLINE
  5
14E
330
14A
100
AcDbEntity
  8
3-poket-5mm
 62
     7
420
 16777215
370
    70
100
AcDbSpline
210
0.0
220
0.0
230
1.0
 70
    11
 71
     3
 72
    20
 73
    16
 74
     0
 42
0.0000000001
 43
0.0000000001
 12
1.0
 22
0.0
 32
0.0
 13
1.0
 23
0.0
 33
0.0
 40
0.0
 40
0.0
 40
0.0
 40
0.0
 40
1.0
 40
1.0
 40
1.0
 40
2.0
 40
2.0
 40
2.0
 40
3.0
 40
3.0
 40
3.0
 40
4.0
 40
4.0
 40
4.0
 40
5.0
 40
5.0
 40
5.0
 40
5.0
 10
387.6474612391822
 20
-120.0772612167522
 30
0.0
 10
387.6474612391822
 20
-116.4874103428519
 30
0.0
 10
384.7373121130831
 20
-113.5772612167516
 30
0.0
 10
381.1474612391822
 20
-113.5772612167516
 30
0.0
 10
377.5576103652839
 20
-113.5772612167516
 30
0.0
 10
374.6474612391817
 20
-116.4874103428519
 30
0.0
 10
374.6474612391817
 20
-120.0772612167522
 30
0.0
 10
374.6474612391817
 20
-123.6671120906518
 30
0.0
 10
377.5576103652839
 20
-126.5772612167521
 30
0.0
 10
381.1474612391822
 20
-126.5772612167521
 30
0.0
 10
384.7373121130831
 20
-126.5772612167521
 30
0.0
 10
387.6474612391822
 20
-123.6671120906518
 30
0.0
 10
387.6474612391822
 20
-120.0772612167522
 30
0.0
 10
387.6474612391822
 20
-120.0772612167522
 30
0.0
 10
387.6474612391822
 20
-120.0772612167522
 30
0.0
 10
387.6474612391822
 20
-120.0772612167522
 30
0.0
  0
ENDBLK
  5
14D
330
14A
100
AcDbEntity
  8
0
100
AcDbBlockEnd
  0
BLOCK
  5
151
330
14F
100
AcDbEntity
  8
0
100
AcDbBlockBegin
  2
block 48
 70
     0
 10
0.0
 20
0.0
 30
0.0
  3
block 48
  1

  0
SPLINE
  5
153
330
14F
100
AcDbEntity
  8
3-poket-5mm
 62
     7
420
 16777215
370
    70
100
AcDbSpline
210
0.0
220
0.0
230
1.0
 70
    11
 71
     3
 72
    20
 73
    16
 74
     0
 42
0.0000000001
 43
0.0000000001
 12
1.0
 22
0.0
 32
0.0
 13
1.0
 23
0.0
 33
0.0
 40
0.0
 40
0.0
 40
0.0
 40
0.0
 40
1.0
 40
1.0
 40
1.0
 40
2.0
 40
2.0
 40
2.0
 40
3.0
 40
3.0
 40
3.0
 40
4.0
 40
4.0
 40
4.0
 40
5.0
 40
5.0
 40
5.0
 40
5.0
 10
391.988481333669
 20
-157.5171107734574
 30
0.0
 10
391.988481333669
 20
-153.9272598995572
 30
0.0
 10
389.07833220757
 20
-151.0171107734575
 30
0.0
 10
385.4884813336685
 20
-151.0171107734575
 30
0.0
 10
381.8986304597708
 20
-151.0171107734575
 30
0.0
 10
378.9884813336686
 20
-153.9272598995572
 30
0.0
 10
378.9884813336686
 20
-157.5171107734574
 30
0.0
 10
378.9884813336686
 20
-161.1069616473577
 30
0.0
 10
381.8986304597708
 20
-164.0171107734573
 30
0.0
 10
385.4884813336685
 20
-164.0171107734573
 30
0.0
 10
389.07833220757
 20
-164.0171107734573
 30
0.0
 10
391.988481333669
 20
-161.1069616473577
 30
0.0
 10
391.988481333669
 20
-157.5171107734574
 30
0.0
 10
391.988481333669
 20
-157.5171107734574
 30
0.0
 10
391.988481333669
 20
-157.5171107734574
 30
0.0
 10
391.988481333669
 20
-157.5171107734574
 30
0.0
  0
ENDBLK
  5
152
330
14F
100
AcDbEntity
  8
0
100
AcDbBlockEnd
  0
BLOCK
  5
156
330
154
100
AcDbEntity
  8
0
100
AcDbBlockBegin
  2
block 49
 70
     0
 10
0.0
 20
0.0
 30
0.0
  3
block 49
  1

  0
SPLINE
  5
158
330
154
100
AcDbEntity
  8
3-poket-5mm
 62
     7
420
 16777215
370
    70
100
AcDbSpline
210
0.0
220
0.0
230
1.0
 70
    11
 71
     3
 72
    20
 73
    16
 74
     0
 42
0.0000000001
 43
0.0000000001
 12
1.0
 22
0.0
 32
0.0
 13
1.0
 23
0.0
 33
0.0
 40
0.0
 40
0.0
 40
0.0
 40
0.0
 40
1.0
 40
1.0
 40
1.0
 40
2.0
 40
2.0
 40
2.0
 40
3.0
 40
3.0
 40
3.0
 40
4.0
 40
4.0
 40
4.0
 40
5.0
 40
5.0
 40
5.0
 40
5.0
 10
506.4031614847226
 20
-291.9712525065747
 30
0.0
 10
506.4031614847226
 20
-288.3814016326745
 30
0.0
 10
509.3133106108216
 20
-285.4712525065748
 30
0.0
 10
512.9031614847225
 20
-285.4712525065748
 30
0.0
 10
516.4930123586208
 20
-285.4712525065748
 30
0.0
 10
519.4031614847231
 20
-288.3814016326745
 30
0.0
 10
519.4031614847231
 20
-291.9712525065747
 30
0.0
 10
519.4031614847231
 20
-295.561103380475
 30
0.0
 10
516.4930123586208
 20
-298.4712525065747
 30
0.0
 10
512.9031614847225
 20
-298.4712525065747
 30
0.0
 10
509.3133106108216
 20
-298.4712525065747
 30
0.0
 10
506.4031614847226
 20
-295.561103380475
 30
0.0
 10
506.4031614847226
 20
-291.9712525065747
 30
0.0
 10
506.4031614847226
 20
-291.9712525065747
 30
0.0
 10
506.4031614847226
 20
-291.9712525065747
 30
0.0
 10
506.4031614847226
 20
-291.9712525065747
 30
0.0
  0
ENDBLK
  5
157
330
154
100
AcDbEntity
  8
0
100
AcDbBlockEnd
  0
BLOCK
  5
15B
330
159
100
AcDbEntity
  8
0
100
AcDbBlockBegin
  2
block 50
 70
     0
 10
0.0
 20
0.0
 30
0.0
  3
block 50
  1

  0
SPLINE
  5
15D
330
159
100
AcDbEntity
  8
3-poket-5mm
 62
     7
420
 16777215
370
    70
100
AcDbSpline
210
0.0
220
0.0
230
1.0
 70
    11
 71
     3
 72
    20
 73
    16
 74
     0
 42
0.0000000001
 43
0.0000000001
 12
1.0
 22
0.0
 32
0.0
 13
1.0
 23
0.0
 33
0.0
 40
0.0
 40
0.0
 40
0.0
 40
0.0
 40
1.0
 40
1.0
 40
1.0
 40
2.0
 40
2.0
 40
2.0
 40
3.0
 40
3.0
 40
3.0
 40
4.0
 40
4.0
 40
4.0
 40
5.0
 40
5.0
 40
5.0
 40
5.0
 10
502.0621413902326
 20
-329.4111020632806
 30
0.0
 10
502.0621413902326
 20
-325.8212511893803
 30
0.0
 10
504.9722905163348
 20
-322.9111020632801
 30
0.0
 10
508.5621413902325
 20
-322.9111020632801
 30
0.0
 10
512.1519922641334
 20
-322.9111020632801
 30
0.0
 10
515.0621413902323
 20
-325.8212511893803
 30
0.0
 10
515.0621413902323
 20
-329.4111020632806
 30
0.0
 10
515.0621413902323
 20
-333.0009529371802
 30
0.0
 10
512.1519922641334
 20
-335.9111020632805
 30
0.0
 10
508.5621413902325
 20
-335.9111020632805
 30
0.0
 10
504.9722905163348
 20
-335.9111020632805
 30
0.0
 10
502.0621413902326
 20
-333.0009529371802
 30
0.0
 10
502.0621413902326
 20
-329.4111020632806
 30
0.0
 10
502.0621413902326
 20
-329.4111020632806
 30
0.0
 10
502.0621413902326
 20
-329.4111020632806
 30
0.0
 10
502.0621413902326
 20
-329.4111020632806
 30
0.0
  0
ENDBLK
  5
15C
330
159
100
AcDbEntity
  8
0
100
AcDbBlockEnd
  0
BLOCK
  5
161
330
15F
100
AcDbEntity
  8
0
100
AcDbBlockBegin
  2
block 51
 70
     0
 10
0.0
 20
0.0
 30
0.0
  3
block 51
  1

  0
SPLINE
  5
163
330
15F
100
AcDbEntity
  8
holes
 62
     7
420
 16777215
370
    70
100
AcDbSpline
210
0.0
220
0.0
230
1.0
 70
    11
 71
     3
 72
    20
 73
    16
 74
     0
 42
0.0000000001
 43
0.0000000001
 12
1.0
 22
0.0
 32
0.0
 13
1.0
 23
0.0
 33
0.0
 40
0.0
 40
0.0
 40
0.0
 40
0.0
 40
1.0
 40
1.0
 40
1.0
 40
2.0
 40
2.0
 40
2.0
 40
3.0
 40
3.0
 40
3.0
 40
4.0
 40
4.0
 40
4.0
 40
5.0
 40
5.0
 40
5.0
 40
5.0
 10
-27.24480007537955
 20
472.1456572437428
 30
0.0
 10
-27.24480007537955
 20
473.9129684432022
 30
0.0
 10
-25.81211127483818
 20
475.3456572437429
 30
0.0
 10
-24.04480007537944
 20
475.3456572437429
 30
0.0
 10
-22.27748887592103
 20
475.3456572437429
 30
0.0
 10
-20.84480007537933
 20
473.9129684432022
 30
0.0
 10
-20.84480007537933
 20
472.1456572437428
 30
0.0
 10
-20.84480007537933
 20
470.3783460442835
 30
0.0
 10
-22.27748887592103
 20
468.9456572437431
 30
0.0
 10
-24.04480007537944
 20
468.9456572437431
 30
0.0
 10
-25.81211127483818
 20
468.9456572437431
 30
0.0
 10
-27.24480007537955
 20
470.3783460442835
 30
0.0
 10
-27.24480007537955
 20
472.1456572437428
 30
0.0
 10
-27.24480007537955
 20
472.1456572437428
 30
0.0
 10
-27.24480007537955
 20
472.1456572437428
 30
0.0
 10
-27.24480007537955
 20
472.1456572437428
 30
0.0
  0
ENDBLK
  5
162
330
15F
100
AcDbEntity
  8
0
100
AcDbBlockEnd
  0
BLOCK
  5
166
330
164
100
AcDbEntity
  8
0
100
AcDbBlockBegin
  2
block 52
 70
     0
 10
0.0
 20
0.0
 30
0.0
  3
block 52
  1

  0
SPLINE
  5
168
330
164
100
AcDbEntity
  8
holes
 62
     7
420
 16777215
370
    70
100
AcDbSpline
210
0.0
220
0.0
230
1.0
 70
    11
 71
     3
 72
    20
 73
    16
 74
     0
 42
0.0000000001
 43
0.0000000001
 12
1.0
 22
0.0
 32
0.0
 13
1.0
 23
0.0
 33
0.0
 40
0.0
 40
0.0
 40
0.0
 40
0.0
 40
1.0
 40
1.0
 40
1.0
 40
2.0
 40
2.0
 40
2.0
 40
3.0
 40
3.0
 40
3.0
 40
4.0
 40
4.0
 40
4.0
 40
5.0
 40
5.0
 40
5.0
 40
5.0
 10
377.7551999246203
 20
472.1456572437428
 30
0.0
 10
377.7551999246203
 20
473.9129684432022
 30
0.0
 10
379.1878887251614
 20
475.3456572437429
 30
0.0
 10
380.9551999246204
 20
475.3456572437429
 30
0.0
 10
382.7225111240801
 20
475.3456572437429
 30
0.0
 10
384.1551999246205
 20
473.9129684432022
 30
0.0
 10
384.1551999246205
 20
472.1456572437428
 30
0.0
 10
384.1551999246205
 20
470.3783460442835
 30
0.0
 10
382.7225111240801
 20
468.9456572437431
 30
0.0
 10
380.9551999246204
 20
468.9456572437431
 30
0.0
 10
379.1878887251614
 20
468.9456572437431
 30
0.0
 10
377.7551999246203
 20
470.3783460442835
 30
0.0
 10
377.7551999246203
 20
472.1456572437428
 30
0.0
 10
377.7551999246203
 20
472.1456572437428
 30
0.0
 10
377.7551999246203
 20
472.1456572437428
 30
0.0
 10
377.7551999246203
 20
472.1456572437428
 30
0.0
  0
ENDBLK
  5
167
330
164
100
AcDbEntity
  8
0
100
AcDbBlockEnd
  0
BLOCK
  5
16B
330
169
100
AcDbEntity
  8
0
100
AcDbBlockBegin
  2
block 53
 70
     0
 10
0.0
 20
0.0
 30
0.0
  3
block 53
  1

  0
SPLINE
  5
16D
330
169
100
AcDbEntity
  8
holes
 62
     7
420
 16777215
370
    70
100
AcDbSpline
210
0.0
220
0.0
230
1.0
 70
    11
 71
     3
 72
    20
 73
    16
 74
     0
 42
0.0000000001
 43
0.0000000001
 12
1.0
 22
0.0
 32
0.0
 13
1.0
 23
0.0
 33
0.0
 40
0.0
 40
0.0
 40
0.0
 40
0.0
 40
1.0
 40
1.0
 40
1.0
 40
2.0
 40
2.0
 40
2.0
 40
3.0
 40
3.0
 40
3.0
 40
4.0
 40
4.0
 40
4.0
 40
5.0
 40
5.0
 40
5.0
 40
5.0
 10
375.0991049970951
 20
321.2921736587988
 30
0.0
 10
375.0991049970951
 20
323.0594848582576
 30
0.0
 10
373.6664161965508
 20
324.4921736587986
 30
0.0
 10
371.899104997095
 20
324.4921736587986
 30
0.0
 10
370.1317937976353
 20
324.4921736587986
 30
0.0
 10
368.6991049970949
 20
323.0594848582576
 30
0.0
 10
368.6991049970949
 20
321.2921736587988
 30
0.0
 10
368.6991049970949
 20
319.5248624593401
 30
0.0
 10
370.1317937976353
 20
318.0921736587987
 30
0.0
 10
371.899104997095
 20
318.0921736587987
 30
0.0
 10
373.6664161965508
 20
318.0921736587987
 30
0.0
 10
375.0991049970951
 20
319.5248624593401
 30
0.0
 10
375.0991049970951
 20
321.2921736587988
 30
0.0
 10
375.0991049970951
 20
321.2921736587988
 30
0.0
 10
375.0991049970951
 20
321.2921736587988
 30
0.0
 10
375.0991049970951
 20
321.2921736587988
 30
0.0
  0
ENDBLK
  5
16C
330
169
100
AcDbEntity
  8
0
100
AcDbBlockEnd
  0
BLOCK
  5
170
330
16E
100
AcDbEntity
  8
0
100
AcDbBlockBegin
  2
block 54
 70
     0
 10
0.0
 20
0.0
 30
0.0
  3
block 54
  1

  0
SPLINE
  5
172
330
16E
100
AcDbEntity
  8
holes
 62
     7
420
 16777215
370
    70
100
AcDbSpline
210
0.0
220
0.0
230
1.0
 70
    11
 71
     3
 72
    20
 73
    16
 74
     0
 42
0.0000000001
 43
0.0000000001
 12
1.0
 22
0.0
 32
0.0
 13
1.0
 23
0.0
 33
0.0
 40
0.0
 40
0.0
 40
0.0
 40
0.0
 40
1.0
 40
1.0
 40
1.0
 40
2.0
 40
2.0
 40
2.0
 40
3.0
 40
3.0
 40
3.0
 40
4.0
 40
4.0
 40
4.0
 40
5.0
 40
5.0
 40
5.0
 40
5.0
 10
-29.90089500290669
 20
321.2921736587985
 30
0.0
 10
-29.90089500290669
 20
323.0594848582572
 30
0.0
 10
-31.33358380344806
 20
324.4921736587986
 30
0.0
 10
-33.10089500290648
 20
324.4921736587986
 30
0.0
 10
-34.86820620236522
 20
324.4921736587986
 30
0.0
 10
-36.30089500290659
 20
323.0594848582572
 30
0.0
 10
-36.30089500290659
 20
321.2921736587985
 30
0.0
 10
-36.30089500290659
 20
319.5248624593401
 30
0.0
 10
-34.86820620236522
 20
318.0921736587987
 30
0.0
 10
-33.10089500290648
 20
318.0921736587987
 30
0.0
 10
-31.33358380344806
 20
318.0921736587987
 30
0.0
 10
-29.90089500290669
 20
319.5248624593401
 30
0.0
 10
-29.90089500290669
 20
321.2921736587985
 30
0.0
 10
-29.90089500290669
 20
321.2921736587985
 30
0.0
 10
-29.90089500290669
 20
321.2921736587985
 30
0.0
 10
-29.90089500290669
 20
321.2921736587985
 30
0.0
  0
ENDBLK
  5
171
330
16E
100
AcDbEntity
  8
0
100
AcDbBlockEnd
  0
BLOCK
  5
175
330
173
100
AcDbEntity
  8
0
100
AcDbBlockBegin
  2
block 55
 70
     0
 10
0.0
 20
0.0
 30
0.0
  3
block 55
  1

  0
SPLINE
  5
177
330
173
100
AcDbEntity
  8
holes
 62
     7
420
 16777215
370
    70
100
AcDbSpline
210
0.0
220
0.0
230
1.0
 70
    11
 71
     3
 72
    20
 73
    16
 74
     0
 42
0.0000000001
 43
0.0000000001
 12
1.0
 22
0.0
 32
0.0
 13
1.0
 23
0.0
 33
0.0
 40
0.0
 40
0.0
 40
0.0
 40
0.0
 40
1.0
 40
1.0
 40
1.0
 40
2.0
 40
2.0
 40
2.0
 40
3.0
 40
3.0
 40
3.0
 40
4.0
 40
4.0
 40
4.0
 40
5.0
 40
5.0
 40
5.0
 40
5.0
 10
240.4963677678733
 20
488.8123239104095
 30
0.0
 10
240.4963677678733
 20
490.5796351098692
 30
0.0
 10
241.929056568415
 20
492.0123239104096
 30
0.0
 10
243.6963677678734
 20
492.0123239104096
 30
0.0
 10
245.4636789673318
 20
492.0123239104096
 30
0.0
 10
246.8963677678735
 20
490.5796351098692
 30
0.0
 10
246.8963677678735
 20
488.8123239104095
 30
0.0
 10
246.8963677678735
 20
487.0450127109504
 30
0.0
 10
245.4636789673318
 20
485.6123239104097
 30
0.0
 10
243.6963677678734
 20
485.6123239104097
 30
0.0
 10
241.929056568415
 20
485.6123239104097
 30
0.0
 10
240.4963677678733
 20
487.0450127109504
 30
0.0
 10
240.4963677678733
 20
488.8123239104095
 30
0.0
 10
240.4963677678733
 20
488.8123239104095
 30
0.0
 10
240.4963677678733
 20
488.8123239104095
 30
0.0
 10
240.4963677678733
 20
488.8123239104095
 30
0.0
  0
ENDBLK
  5
176
330
173
100
AcDbEntity
  8
0
100
AcDbBlockEnd
  0
BLOCK
  5
17A
330
178
100
AcDbEntity
  8
0
100
AcDbBlockBegin
  2
block 56
 70
     0
 10
0.0
 20
0.0
 30
0.0
  3
block 56
  1

  0
SPLINE
  5
17C
330
178
100
AcDbEntity
  8
holes
 62
     7
420
 16777215
370
    70
100
AcDbSpline
210
0.0
220
0.0
230
1.0
 70
    11
 71
     3
 72
    20
 73
    16
 74
     0
 42
0.0000000001
 43
0.0000000001
 12
1.0
 22
0.0
 32
0.0
 13
1.0
 23
0.0
 33
0.0
 40
0.0
 40
0.0
 40
0.0
 40
0.0
 40
1.0
 40
1.0
 40
1.0
 40
2.0
 40
2.0
 40
2.0
 40
3.0
 40
3.0
 40
3.0
 40
4.0
 40
4.0
 40
4.0
 40
5.0
 40
5.0
 40
5.0
 40
5.0
 10
249.2223259298754
 20
525.4789905770762
 30
0.0
 10
249.2223259298754
 20
527.2463017765358
 30
0.0
 10
250.6550147304171
 20
528.6789905770762
 30
0.0
 10
252.4223259298755
 20
528.6789905770762
 30
0.0
 10
254.1896371293346
 20
528.6789905770762
 30
0.0
 10
255.6223259298756
 20
527.2463017765358
 30
0.0
 10
255.6223259298756
 20
525.4789905770762
 30
0.0
 10
255.6223259298756
 20
523.7116793776203
 30
0.0
 10
254.1896371293346
 20
522.2789905770763
 30
0.0
 10
252.4223259298755
 20
522.2789905770763
 30
0.0
 10
250.6550147304171
 20
522.2789905770763
 30
0.0
 10
249.2223259298754
 20
523.7116793776203
 30
0.0
 10
249.2223259298754
 20
525.4789905770762
 30
0.0
 10
249.2223259298754
 20
525.4789905770762
 30
0.0
 10
249.2223259298754
 20
525.4789905770762
 30
0.0
 10
249.2223259298754
 20
525.4789905770762
 30
0.0
  0
ENDBLK
  5
17B
330
178
100
AcDbEntity
  8
0
100
AcDbBlockEnd
  0
BLOCK
  5
17F
330
17D
100
AcDbEntity
  8
0
100
AcDbBlockBegin
  2
block 57
 70
     0
 10
0.0
 20
0.0
 30
0.0
  3
block 57
  1

  0
SPLINE
  5
181
330
17D
100
AcDbEntity
  8
holes
 62
     7
420
 16777215
370
    70
100
AcDbSpline
210
0.0
220
0.0
230
1.0
 70
    11
 71
     3
 72
    20
 73
    16
 74
     0
 42
0.0000000001
 43
0.0000000001
 12
1.0
 22
0.0
 32
0.0
 13
1.0
 23
0.0
 33
0.0
 40
0.0
 40
0.0
 40
0.0
 40
0.0
 40
1.0
 40
1.0
 40
1.0
 40
2.0
 40
2.0
 40
2.0
 40
3.0
 40
3.0
 40
3.0
 40
4.0
 40
4.0
 40
4.0
 40
5.0
 40
5.0
 40
5.0
 40
5.0
 10
107.3579371538406
 20
337.9588403254673
 30
0.0
 10
107.3579371538406
 20
339.7261515249261
 30
0.0
 10
105.9252483532989
 20
341.1588403254675
 30
0.0
 10
104.1579371538405
 20
341.1588403254675
 30
0.0
 10
102.3906259543818
 20
341.1588403254675
 30
0.0
 10
100.9579371538404
 20
339.7261515249261
 30
0.0
 10
100.9579371538404
 20
337.9588403254673
 30
0.0
 10
100.9579371538404
 20
336.1915291260086
 30
0.0
 10
102.3906259543818
 20
334.7588403254672
 30
0.0
 10
104.1579371538405
 20
334.7588403254672
 30
0.0
 10
105.9252483532989
 20
334.7588403254672
 30
0.0
 10
107.3579371538406
 20
336.1915291260086
 30
0.0
 10
107.3579371538406
 20
337.9588403254673
 30
0.0
 10
107.3579371538406
 20
337.9588403254673
 30
0.0
 10
107.3579371538406
 20
337.9588403254673
 30
0.0
 10
107.3579371538406
 20
337.9588403254673
 30
0.0
  0
ENDBLK
  5
180
330
17D
100
AcDbEntity
  8
0
100
AcDbBlockEnd
  0
BLOCK
  5
184
330
182
100
AcDbEntity
  8
0
100
AcDbBlockBegin
  2
block 58
 70
     0
 10
0.0
 20
0.0
 30
0.0
  3
block 58
  1

  0
SPLINE
  5
186
330
182
100
AcDbEntity
  8
holes
 62
     7
420
 16777215
370
    70
100
AcDbSpline
210
0.0
220
0.0
230
1.0
 70
    11
 71
     3
 72
    20
 73
    16
 74
     0
 42
0.0000000001
 43
0.0000000001
 12
1.0
 22
0.0
 32
0.0
 13
1.0
 23
0.0
 33
0.0
 40
0.0
 40
0.0
 40
0.0
 40
0.0
 40
1.0
 40
1.0
 40
1.0
 40
2.0
 40
2.0
 40
2.0
 40
3.0
 40
3.0
 40
3.0
 40
4.0
 40
4.0
 40
4.0
 40
5.0
 40
5.0
 40
5.0
 40
5.0
 10
98.63197899183821
 20
374.625506992135
 30
0.0
 10
98.63197899183821
 20
376.3928181915944
 30
0.0
 10
97.19929019129651
 20
377.8255069921351
 30
0.0
 10
95.4319789918381
 20
377.8255069921351
 30
0.0
 10
93.66466779237936
 20
377.8255069921351
 30
0.0
 10
92.2319789918383
 20
376.3928181915944
 30
0.0
 10
92.2319789918383
 20
374.625506992135
 30
0.0
 10
92.2319789918383
 20
372.8581957926756
 30
0.0
 10
93.66466779237936
 20
371.4255069921349
 30
0.0
 10
95.4319789918381
 20
371.4255069921349
 30
0.0
 10
97.19929019129651
 20
371.4255069921349
 30
0.0
 10
98.63197899183821
 20
372.8581957926756
 30
0.0
 10
98.63197899183821
 20
374.625506992135
 30
0.0
 10
98.63197899183821
 20
374.625506992135
 30
0.0
 10
98.63197899183821
 20
374.625506992135
 30
0.0
 10
98.63197899183821
 20
374.625506992135
 30
0.0
  0
ENDBLK
  5
185
330
182
100
AcDbEntity
  8
0
100
AcDbBlockEnd
  0
BLOCK
  5
189
330
187
100
AcDbEntity
  8
0
100
AcDbBlockBegin
  2
block 59
 70
     0
 10
0.0
 20
0.0
 30
0.0
  3
block 59
  1

  0
SPLINE
  5
18B
330
187
100
AcDbEntity
  8
holes
 62
     7
420
 16777215
370
    70
100
AcDbSpline
210
0.0
220
0.0
230
1.0
 70
    11
 71
     3
 72
    20
 73
    16
 74
     0
 42
0.0000000001
 43
0.0000000001
 12
1.0
 22
0.0
 32
0.0
 13
1.0
 23
0.0
 33
0.0
 40
0.0
 40
0.0
 40
0.0
 40
0.0
 40
1.0
 40
1.0
 40
1.0
 40
2.0
 40
2.0
 40
2.0
 40
3.0
 40
3.0
 40
3.0
 40
4.0
 40
4.0
 40
4.0
 40
5.0
 40
5.0
 40
5.0
 40
5.0
 10
377.9474612391821
 20
-120.0772612167522
 30
0.0
 10
377.9474612391821
 20
-118.3099500172931
 30
0.0
 10
379.3801500397264
 20
-116.877261216752
 30
0.0
 10
381.1474612391822
 20
-116.877261216752
 30
0.0
 10
382.9147724386413
 20
-116.877261216752
 30
0.0
 10
384.3474612391817
 20
-118.3099500172931
 30
0.0
 10
384.3474612391817
 20
-120.0772612167522
 30
0.0
 10
384.3474612391817
 20
-121.8445724162106
 30
0.0
 10
382.9147724386413
 20
-123.2772612167523
 30
0.0
 10
381.1474612391822
 20
-123.2772612167523
 30
0.0
 10
379.3801500397264
 20
-123.2772612167523
 30
0.0
 10
377.9474612391821
 20
-121.8445724162106
 30
0.0
 10
377.9474612391821
 20
-120.0772612167522
 30
0.0
 10
377.9474612391821
 20
-120.0772612167522
 30
0.0
 10
377.9474612391821
 20
-120.0772612167522
 30
0.0
 10
377.9474612391821
 20
-120.0772612167522
 30
0.0
  0
ENDBLK
  5
18A
330
187
100
AcDbEntity
  8
0
100
AcDbBlockEnd
  0
BLOCK
  5
18E
330
18C
100
AcDbEntity
  8
0
100
AcDbBlockBegin
  2
block 60
 70
     0
 10
0.0
 20
0.0
 30
0.0
  3
block 60
  1

  0
SPLINE
  5
190
330
18C
100
AcDbEntity
  8
holes
 62
     7
420
 16777215
370
    70
100
AcDbSpline
210
0.0
220
0.0
230
1.0
 70
    11
 71
     3
 72
    20
 73
    16
 74
     0
 42
0.0000000001
 43
0.0000000001
 12
1.0
 22
0.0
 32
0.0
 13
1.0
 23
0.0
 33
0.0
 40
0.0
 40
0.0
 40
0.0
 40
0.0
 40
1.0
 40
1.0
 40
1.0
 40
2.0
 40
2.0
 40
2.0
 40
3.0
 40
3.0
 40
3.0
 40
4.0
 40
4.0
 40
4.0
 40
5.0
 40
5.0
 40
5.0
 40
5.0
 10
382.288481333669
 20
-157.5171107734574
 30
0.0
 10
382.288481333669
 20
-155.7497995739983
 30
0.0
 10
383.7211701342133
 20
-154.3171107734573
 30
0.0
 10
385.4884813336685
 20
-154.3171107734573
 30
0.0
 10
387.2557925331282
 20
-154.3171107734573
 30
0.0
 10
388.6884813336686
 20
-155.7497995739983
 30
0.0
 10
388.6884813336686
 20
-157.5171107734574
 30
0.0
 10
388.6884813336686
 20
-159.2844219729158
 30
0.0
 10
387.2557925331282
 20
-160.7171107734575
 30
0.0
 10
385.4884813336685
 20
-160.7171107734575
 30
0.0
 10
383.7211701342133
 20
-160.7171107734575
 30
0.0
 10
382.288481333669
 20
-159.2844219729158
 30
0.0
 10
382.288481333669
 20
-157.5171107734574
 30
0.0
 10
382.288481333669
 20
-157.5171107734574
 30
0.0
 10
382.288481333669
 20
-157.5171107734574
 30
0.0
 10
382.288481333669
 20
-157.5171107734574
 30
0.0
  0
ENDBLK
  5
18F
330
18C
100
AcDbEntity
  8
0
100
AcDbBlockEnd
  0
BLOCK
  5
193
330
191
100
AcDbEntity
  8
0
100
AcDbBlockBegin
  2
block 61
 70
     0
 10
0.0
 20
0.0
 30
0.0
  3
block 61
  1

  0
SPLINE
  5
195
330
191
100
AcDbEntity
  8
holes
 62
     7
420
 16777215
370
    70
100
AcDbSpline
210
0.0
220
0.0
230
1.0
 70
    11
 71
     3
 72
    20
 73
    16
 74
     0
 42
0.0000000001
 43
0.0000000001
 12
1.0
 22
0.0
 32
0.0
 13
1.0
 23
0.0
 33
0.0
 40
0.0
 40
0.0
 40
0.0
 40
0.0
 40
1.0
 40
1.0
 40
1.0
 40
2.0
 40
2.0
 40
2.0
 40
3.0
 40
3.0
 40
3.0
 40
4.0
 40
4.0
 40
4.0
 40
5.0
 40
5.0
 40
5.0
 40
5.0
 10
516.1031614847226
 20
-291.9712525065747
 30
0.0
 10
516.1031614847226
 20
-290.2039413071163
 30
0.0
 10
514.6704726841783
 20
-288.7712525065746
 30
0.0
 10
512.9031614847225
 20
-288.7712525065746
 30
0.0
 10
511.1358502852635
 20
-288.7712525065746
 30
0.0
 10
509.7031614847224
 20
-290.2039413071163
 30
0.0
 10
509.7031614847224
 20
-291.9712525065747
 30
0.0
 10
509.7031614847224
 20
-293.7385637060338
 30
0.0
 10
511.1358502852635
 20
-295.1712525065748
 30
0.0
 10
512.9031614847225
 20
-295.1712525065748
 30
0.0
 10
514.6704726841783
 20
-295.1712525065748
 30
0.0
 10
516.1031614847226
 20
-293.7385637060338
 30
0.0
 10
516.1031614847226
 20
-291.9712525065747
 30
0.0
 10
516.1031614847226
 20
-291.9712525065747
 30
0.0
 10
516.1031614847226
 20
-291.9712525065747
 30
0.0
 10
516.1031614847226
 20
-291.9712525065747
 30
0.0
  0
ENDBLK
  5
194
330
191
100
AcDbEntity
  8
0
100
AcDbBlockEnd
  0
BLOCK
  5
198
330
196
100
AcDbEntity
  8
0
100
AcDbBlockBegin
  2
block 62
 70
     0
 10
0.0
 20
0.0
 30
0.0
  3
block 62
  1

  0
SPLINE
  5
19A
330
196
100
AcDbEntity
  8
holes
 62
     7
420
 16777215
370
    70
100
AcDbSpline
210
0.0
220
0.0
230
1.0
 70
    11
 71
     3
 72
    20
 73
    16
 74
     0
 42
0.0000000001
 43
0.0000000001
 12
1.0
 22
0.0
 32
0.0
 13
1.0
 23
0.0
 33
0.0
 40
0.0
 40
0.0
 40
0.0
 40
0.0
 40
1.0
 40
1.0
 40
1.0
 40
2.0
 40
2.0
 40
2.0
 40
3.0
 40
3.0
 40
3.0
 40
4.0
 40
4.0
 40
4.0
 40
5.0
 40
5.0
 40
5.0
 40
5.0
 10
511.7621413902326
 20
-329.4111020632806
 30
0.0
 10
511.7621413902326
 20
-327.6437908638216
 30
0.0
 10
510.3294525896915
 20
-326.2111020632805
 30
0.0
 10
508.5621413902325
 20
-326.2111020632805
 30
0.0
 10
506.7948301907728
 20
-326.2111020632805
 30
0.0
 10
505.3621413902324
 20
-327.6437908638216
 30
0.0
 10
505.3621413902324
 20
-329.4111020632806
 30
0.0
 10
505.3621413902324
 20
-331.178413262739
 30
0.0
 10
506.7948301907728
 20
-332.6111020632801
 30
0.0
 10
508.5621413902325
 20
-332.6111020632801
 30
0.0
 10
510.3294525896915
 20
-332.6111020632801
 30
0.0
 10
511.7621413902326
 20
-331.178413262739
 30
0.0
 10
511.7621413902326
 20
-329.4111020632806
 30
0.0
 10
511.7621413902326
 20
-329.4111020632806
 30
0.0
 10
511.7621413902326
 20
-329.4111020632806
 30
0.0
 10
511.7621413902326
 20
-329.4111020632806
 30
0.0
  0
ENDBLK
  5
199
330
196
100
AcDbEntity
  8
0
100
AcDbBlockEnd
  0
BLOCK
  5
19D
330
19B
100
AcDbEntity
  8
0
100
AcDbBlockBegin
  2
block 63
 70
     0
 10
0.0
 20
0.0
 30
0.0
  3
block 63
  1

  0
SPLINE
  5
19F
330
19B
100
AcDbEntity
  8
holes
 62
     7
420
 16777215
370
    70
100
AcDbSpline
210
0.0
220
0.0
230
1.0
 70
    11
 71
     3
 72
    20
 73
    16
 74
     0
 42
0.0000000001
 43
0.0000000001
 12
1.0
 22
0.0
 32
0.0
 13
1.0
 23
0.0
 33
0.0
 40
0.0
 40
0.0
 40
0.0
 40
0.0
 40
1.0
 40
1.0
 40
1.0
 40
2.0
 40
2.0
 40
2.0
 40
3.0
 40
3.0
 40
3.0
 40
4.0
 40
4.0
 40
4.0
 40
5.0
 40
5.0
 40
5.0
 40
5.0
 10
6.894502852688514
 20
-469.7420182117369
 30
0.0
 10
6.894502852688514
 20
-467.9747070122804
 30
0.0
 10
8.32719165322989
 20
-466.5420182117368
 30
0.0
 10
10.09450285268863
 20
-466.5420182117368
 30
0.0
 10
11.86181405214704
 20
-466.5420182117368
 30
0.0
 10
13.29450285268842
 20
-467.9747070122804
 30
0.0
 10
13.29450285268842
 20
-469.7420182117369
 30
0.0
 10
13.29450285268842
 20
-471.5093294111959
 30
0.0
 10
11.86181405214704
 20
-472.9420182117402
 30
0.0
 10
10.09450285268863
 20
-472.9420182117402
 30
0.0
 10
8.32719165322989
 20
-472.9420182117402
 30
0.0
 10
6.894502852688514
 20
-471.5093294111959
 30
0.0
 10
6.894502852688514
 20
-469.7420182117369
 30
0.0
 10
6.894502852688514
 20
-469.7420182117369
 30
0.0
 10
6.894502852688514
 20
-469.7420182117369
 30
0.0
 10
6.894502852688514
 20
-469.7420182117369
 30
0.0
  0
ENDBLK
  5
19E
330
19B
100
AcDbEntity
  8
0
100
AcDbBlockEnd
  0
BLOCK
  5
1A2
330
1A0
100
AcDbEntity
  8
0
100
AcDbBlockBegin
  2
block 64
 70
     0
 10
0.0
 20
0.0
 30
0.0
  3
block 64
  1

  0
SPLINE
  5
1A4
330
1A0
100
AcDbEntity
  8
holes
 62
     7
420
 16777215
370
    70
100
AcDbSpline
210
0.0
220
0.0
230
1.0
 70
    11
 71
     3
 72
    20
 73
    16
 74
     0
 42
0.0000000001
 43
0.0000000001
 12
1.0
 22
0.0
 32
0.0
 13
1.0
 23
0.0
 33
0.0
 40
0.0
 40
0.0
 40
0.0
 40
0.0
 40
1.0
 40
1.0
 40
1.0
 40
2.0
 40
2.0
 40
2.0
 40
3.0
 40
3.0
 40
3.0
 40
4.0
 40
4.0
 40
4.0
 40
5.0
 40
5.0
 40
5.0
 40
5.0
 10
295.4022224926903
 20
-463.9888776251741
 30
0.0
 10
295.4022224926903
 20
-462.2215664257151
 30
0.0
 10
293.9695336921493
 20
-460.788877625174
 30
0.0
 10
292.2022224926909
 20
-460.788877625174
 30
0.0
 10
290.4349112932318
 20
-460.788877625174
 30
0.0
 10
289.0022224926907
 20
-462.2215664257151
 30
0.0
 10
289.0022224926907
 20
-463.9888776251741
 30
0.0
 10
289.0022224926907
 20
-465.7561888246338
 30
0.0
 10
290.4349112932318
 20
-467.1888776251742
 30
0.0
 10
292.2022224926909
 20
-467.1888776251742
 30
0.0
 10
293.9695336921493
 20
-467.1888776251742
 30
0.0
 10
295.4022224926903
 20
-465.7561888246338
 30
0.0
 10
295.4022224926903
 20
-463.9888776251741
 30
0.0
 10
295.4022224926903
 20
-463.9888776251741
 30
0.0
 10
295.4022224926903
 20
-463.9888776251741
 30
0.0
 10
295.4022224926903
 20
-463.9888776251741
 30
0.0
  0
ENDBLK
  5
1A3
330
1A0
100
AcDbEntity
  8
0
100
AcDbBlockEnd
  0
BLOCK
  5
1A7
330
1A5
100
AcDbEntity
  8
0
100
AcDbBlockBegin
  2
block 65
 70
     0
 10
0.0
 20
0.0
 30
0.0
  3
block 65
  1

  0
SPLINE
  5
1A9
330
1A5
100
AcDbEntity
  8
holes
 62
     7
420
 16777215
370
    70
100
AcDbSpline
210
0.0
220
0.0
230
1.0
 70
    11
 71
     3
 72
    20
 73
    16
 74
     0
 42
0.0000000001
 43
0.0000000001
 12
1.0
 22
0.0
 32
0.0
 13
1.0
 23
0.0
 33
0.0
 40
0.0
 40
0.0
 40
0.0
 40
0.0
 40
1.0
 40
1.0
 40
1.0
 40
2.0
 40
2.0
 40
2.0
 40
3.0
 40
3.0
 40
3.0
 40
4.0
 40
4.0
 40
4.0
 40
5.0
 40
5.0
 40
5.0
 40
5.0
 10
153.7977369924862
 20
-471.0747510967641
 30
0.0
 10
153.7977369924862
 20
-469.3074398973044
 30
0.0
 10
152.3650481919448
 20
-467.874751096764
 30
0.0
 10
150.5977369924864
 20
-467.874751096764
 30
0.0
 10
148.8304257930277
 20
-467.874751096764
 30
0.0
 10
147.3977369924863
 20
-469.3074398973044
 30
0.0
 10
147.3977369924863
 20
-471.0747510967641
 30
0.0
 10
147.3977369924863
 20
-472.8420622962232
 30
0.0
 10
148.8304257930277
 20
-474.2747510967643
 30
0.0
 10
150.5977369924864
 20
-474.2747510967643
 30
0.0
 10
152.3650481919448
 20
-474.2747510967643
 30
0.0
 10
153.7977369924862
 20
-472.8420622962232
 30
0.0
 10
153.7977369924862
 20
-471.0747510967641
 30
0.0
 10
153.7977369924862
 20
-471.0747510967641
 30
0.0
 10
153.7977369924862
 20
-471.0747510967641
 30
0.0
 10
153.7977369924862
 20
-471.0747510967641
 30
0.0
  0
ENDBLK
  5
1A8
330
1A5
100
AcDbEntity
  8
0
100
AcDbBlockEnd
  0
BLOCK
  5
1AC
330
1AA
100
AcDbEntity
  8
0
100
AcDbBlockBegin
  2
block 66
 70
     0
 10
0.0
 20
0.0
 30
0.0
  3
block 66
  1

  0
SPLINE
  5
1AE
330
1AA
100
AcDbEntity
  8
holes
 62
     7
420
 16777215
370
    70
100
AcDbSpline
210
0.0
220
0.0
230
1.0
 70
    11
 71
     3
 72
    20
 73
    16
 74
     0
 42
0.0000000001
 43
0.0000000001
 12
1.0
 22
0.0
 32
0.0
 13
1.0
 23
0.0
 33
0.0
 40
0.0
 40
0.0
 40
0.0
 40
0.0
 40
1.0
 40
1.0
 40
1.0
 40
2.0
 40
2.0
 40
2.0
 40
3.0
 40
3.0
 40
3.0
 40
4.0
 40
4.0
 40
4.0
 40
5.0
 40
5.0
 40
5.0
 40
5.0
 10
433.8309833263961
 20
-462.7048166883553
 30
0.0
 10
433.8309833263961
 20
-460.9375054888956
 30
0.0
 10
435.2636721269365
 20
-459.5048166883552
 30
0.0
 10
437.0309833263955
 20
-459.5048166883552
 30
0.0
 10
438.7982945258514
 20
-459.5048166883552
 30
0.0
 10
440.2309833263957
 20
-460.9375054888956
 30
0.0
 10
440.2309833263957
 20
-462.7048166883553
 30
0.0
 10
440.2309833263957
 20
-464.4721278878144
 30
0.0
 10
438.7982945258514
 20
-465.9048166883555
 30
0.0
 10
437.0309833263955
 20
-465.9048166883555
 30
0.0
 10
435.2636721269365
 20
-465.9048166883555
 30
0.0
 10
433.8309833263961
 20
-464.4721278878144
 30
0.0
 10
433.8309833263961
 20
-462.7048166883553
 30
0.0
 10
433.8309833263961
 20
-462.7048166883553
 30
0.0
 10
433.8309833263961
 20
-462.7048166883553
 30
0.0
 10
433.8309833263961
 20
-462.7048166883553
 30
0.0
  0
ENDBLK
  5
1AD
330
1AA
100
AcDbEntity
  8
0
100
AcDbBlockEnd
  0
ENDSEC
  0
SECTION
  2
ENTITIES
  0
INSERT
  5
43
330
1F
100
AcDbEntity
  8
4B-profileOutside-cut
100
AcDbBlockReference
  2
block 2
 10
0.0
 20
0.0
 30
0.0
  0
INSERT
  5
48
330
1F
100
AcDbEntity
  8
4B-profileOutside-cut
100
AcDbBlockReference
  2
block 3
 10
0.0
 20
0.0
 30
0.0
  0
INSERT
  5
4D
330
1F
100
AcDbEntity
  8
4B-profileOutside-cut
100
AcDbBlockReference
  2
block 4
 10
0.0
 20
0.0
 30
0.0
  0
INSERT
  5
58
330
1F
100
AcDbEntity
  8
4B-profileOutside-cut
100
AcDbBlockReference
  2
block 5
 10
0.0
 20
0.0
 30
0.0
  0
INSERT
  5
5D
330
1F
100
AcDbEntity
  8
4B-profileOutside-cut
100
AcDbBlockReference
  2
block 6
 10
0.0
 20
0.0
 30
0.0
  0
INSERT
  5
62
330
1F
100
AcDbEntity
  8
4B-profileOutside-cut
100
AcDbBlockReference
  2
block 7
 10
0.0
 20
0.0
 30
0.0
  0
INSERT
  5
67
330
1F
100
AcDbEntity
  8
4B-profileOutside-cut
100
AcDbBlockReference
  2
block 8
 10
0.0
 20
0.0
 30
0.0
  0
INSERT
  5
6C
330
1F
100
AcDbEntity
  8
4B-profileOutside-cut
100
AcDbBlockReference
  2
block 9
 10
0.0
 20
0.0
 30
0.0
  0
INSERT
  5
71
330
1F
100
AcDbEntity
  8
4B-profileOutside-cut
100
AcDbBlockReference
  2
block 10
 10
0.0
 20
0.0
 30
0.0
  0
INSERT
  5
76
330
1F
100
AcDbEntity
  8
4B-profileOutside-cut
100
AcDbBlockReference
  2
block 11
 10
0.0
 20
0.0
 30
0.0
  0
INSERT
  5
7B
330
1F
100
AcDbEntity
  8
4B-profileOutside-cut
100
AcDbBlockReference
  2
block 12
 10
0.0
 20
0.0
 30
0.0
  0
INSERT
  5
80
330
1F
100
AcDbEntity
  8
4B-profileOutside-cut
100
AcDbBlockReference
  2
block 13
 10
0.0
 20
0.0
 30
0.0
  0
INSERT
  5
85
330
1F
100
AcDbEntity
  8
4B-profileOutside-cut
100
AcDbBlockReference
  2
block 14
 10
0.0
 20
0.0
 30
0.0
  0
INSERT
  5
8A
330
1F
100
AcDbEntity
  8
4B-profileOutside-cut
100
AcDbBlockReference
  2
block 15
 10
0.0
 20
0.0
 30
0.0
  0
INSERT
  5
8F
330
1F
100
AcDbEntity
  8
4B-profileOutside-cut
100
AcDbBlockReference
  2
block 16
 10
0.0
 20
0.0
 30
0.0
  0
INSERT
  5
95
330
1F
100
AcDbEntity
  8
4A-profileInside-cut
100
AcDbBlockReference
  2
block 17
 10
0.0
 20
0.0
 30
0.0
  0
INSERT
  5
9A
330
1F
100
AcDbEntity
  8
4A-profileInside-cut
100
AcDbBlockReference
  2
block 18
 10
0.0
 20
0.0
 30
0.0
  0
INSERT
  5
A0
330
1F
100
AcDbEntity
  8
4-profileOutside-intw-7mm-profundidad
100
AcDbBlockReference
  2
block 19
 10
0.0
 20
0.0
 30
0.0
  0
INSERT
  5
A5
330
1F
100
AcDbEntity
  8
4-profileOutside-intw-7mm-profundidad
100
AcDbBlockReference
  2
block 20
 10
0.0
 20
0.0
 30
0.0
  0
INSERT
  5
AA
330
1F
100
AcDbEntity
  8
4-profileOutside-intw-7mm-profundidad
100
AcDbBlockReference
  2
block 21
 10
0.0
 20
0.0
 30
0.0
  0
INSERT
  5
AF
330
1F
100
AcDbEntity
  8
4-profileOutside-intw-7mm-profundidad
100
AcDbBlockReference
  2
block 22
 10
0.0
 20
0.0
 30
0.0
  0
INSERT
  5
B5
330
1F
100
AcDbEntity
  8
3-poket-extw-rest-9mm-profundidad
100
AcDbBlockReference
  2
block 23
 10
0.0
 20
0.0
 30
0.0
  0
INSERT
  5
BA
330
1F
100
AcDbEntity
  8
3-poket-extw-rest-9mm-profundidad
100
AcDbBlockReference
  2
block 24
 10
0.0
 20
0.0
 30
0.0
  0
INSERT
  5
BF
330
1F
100
AcDbEntity
  8
3-poket-extw-rest-9mm-profundidad
100
AcDbBlockReference
  2
block 25
 10
0.0
 20
0.0
 30
0.0
  0
INSERT
  5
C4
330
1F
100
AcDbEntity
  8
3-poket-extw-rest-9mm-profundidad
100
AcDbBlockReference
  2
block 26
 10
0.0
 20
0.0
 30
0.0
  0
INSERT
  5
CA
330
1F
100
AcDbEntity
  8
3-poket-extw-rest-7mm-profundidad
100
AcDbBlockReference
  2
block 27
 10
0.0
 20
0.0
 30
0.0
  0
INSERT
  5
CF
330
1F
100
AcDbEntity
  8
3-poket-extw-rest-7mm-profundidad
100
AcDbBlockReference
  2
block 28
 10
0.0
 20
0.0
 30
0.0
  0
INSERT
  5
D4
330
1F
100
AcDbEntity
  8
3-poket-extw-rest-7mm-profundidad
100
AcDbBlockReference
  2
block 29
 10
0.0
 20
0.0
 30
0.0
  0
INSERT
  5
D9
330
1F
100
AcDbEntity
  8
3-poket-extw-rest-7mm-profundidad
100
AcDbBlockReference
  2
block 30
 10
0.0
 20
0.0
 30
0.0
  0
INSERT
  5
DF
330
1F
100
AcDbEntity
  8
3-poket-extw-center
100
AcDbBlockReference
  2
block 31
 10
0.0
 20
0.0
 30
0.0
  0
INSERT
  5
E4
330
1F
100
AcDbEntity
  8
3-poket-extw-center
100
AcDbBlockReference
  2
block 32
 10
0.0
 20
0.0
 30
0.0
  0
INSERT
  5
E9
330
1F
100
AcDbEntity
  8
3-poket-extw-center
100
AcDbBlockReference
  2
block 33
 10
0.0
 20
0.0
 30
0.0
  0
INSERT
  5
EE
330
1F
100
AcDbEntity
  8
3-poket-extw-center
100
AcDbBlockReference
  2
block 34
 10
0.0
 20
0.0
 30
0.0
  0
INSERT
  5
F4
330
1F
100
AcDbEntity
  8
3-poket-9mm
100
AcDbBlockReference
  2
block 35
 10
0.0
 20
0.0
 30
0.0
  0
INSERT
  5
F9
330
1F
100
AcDbEntity
  8
3-poket-9mm
100
AcDbBlockReference
  2
block 36
 10
0.0
 20
0.0
 30
0.0
  0
INSERT
  5
FE
330
1F
100
AcDbEntity
  8
3-poket-9mm
100
AcDbBlockReference
  2
block 37
 10
0.0
 20
0.0
 30
0.0
  0
INSERT
  5
103
330
1F
100
AcDbEntity
  8
3-poket-9mm
100
AcDbBlockReference
  2
block 38
 10
0.0
 20
0.0
 30
0.0
  0
INSERT
  5
108
330
1F
100
AcDbEntity
  8
3-poket-9mm
100
AcDbBlockReference
  2
block 39
 10
0.0
 20
0.0
 30
0.0
  0
INSERT
  5
10D
330
1F
100
AcDbEntity
  8
3-poket-9mm
100
AcDbBlockReference
  2
block 40
 10
0.0
 20
0.0
 30
0.0
  0
POLYLINE
  5
111
330
1F
100
AcDbEntity
  8
3-poket-9mm
 62
     7
420
 16777215
370
    80
100
AcDb2dPolyline
 66
     1
 10
0.0
 20
0.0
 30
0.0
  0
VERTEX
  5
112
330
111
100
AcDbEntity
  8
3-poket-9mm
 62
     7
420
 16777215
370
    80
100
AcDbVertex
100
AcDb2dVertex
 10
-67.89969147422643
 20
10.41586775283036
 30
0.0
  0
VERTEX
  5
113
330
111
100
AcDbEntity
  8
3-poket-9mm
 62
     7
420
 16777215
370
    80
100
AcDbVertex
100
AcDb2dVertex
 10
301.1304816375263
 20
10.41586775283036
 30
0.0
  0
VERTEX
  5
114
330
111
100
AcDbEntity
  8
3-poket-9mm
 62
     7
420
 16777215
370
    80
100
AcDbVertex
100
AcDb2dVertex
 10
301.1304816375263
 20
20.42441335692167
 30
0.0
  0
VERTEX
  5
115
330
111
100
AcDbEntity
  8
3-poket-9mm
 62
     7
420
 16777215
370
    80
100
AcDbVertex
100
AcDb2dVertex
 10
-67.89969147422643
 20
20.42441335692167
 30
0.0
  0
VERTEX
  5
116
330
111
100
AcDbEntity
  8
3-poket-9mm
 62
     7
420
 16777215
370
    80
100
AcDbVertex
100
AcDb2dVertex
 10
-67.89969147422643
 20
10.41586775283036
 30
0.0
  0
SEQEND
  5
117
330
111
100
AcDbEntity
  8
3-poket-9mm
 62
     7
420
 16777215
370
    80
  0
INSERT
  5
119
330
1F
100
AcDbEntity
  8
3-poket-9mm
100
AcDbBlockReference
  2
block 41
 10
0.0
 20
0.0
 30
0.0
  0
POLYLINE
  5
123
330
1F
100
AcDbEntity
  8
3-poket-9mm
 62
     7
420
 16777215
370
    80
100
AcDb2dPolyline
 66
     1
 10
0.0
 20
0.0
 30
0.0
  0
VERTEX
  5
124
330
123
100
AcDbEntity
  8
3-poket-9mm
 62
     7
420
 16777215
370
    80
100
AcDbVertex
100
AcDb2dVertex
 10
-70.55112206442202
 20
161.2437552947453
 30
0.0
  0
VERTEX
  5
125
330
123
100
AcDbEntity
  8
3-poket-9mm
 62
     7
420
 16777215
370
    80
100
AcDbVertex
100
AcDb2dVertex
 10
301.1304816375263
 20
161.2437552947453
 30
0.0
  0
VERTEX
  5
126
330
123
100
AcDbEntity
  8
3-poket-9mm
 62
     7
420
 16777215
370
    80
100
AcDbVertex
100
AcDb2dVertex
 10
301.1304816375263
 20
171.3242109102986
 30
0.0
  0
VERTEX
  5
127
330
123
100
AcDbEntity
  8
3-poket-9mm
 62
     7
420
 16777215
370
    80
100
AcDbVertex
100
AcDb2dVertex
 10
-70.55112206442202
 20
171.3242109102986
 30
0.0
  0
VERTEX
  5
128
330
123
100
AcDbEntity
  8
3-poket-9mm
 62
     7
420
 16777215
370
    80
100
AcDbVertex
100
AcDb2dVertex
 10
-70.55112206442202
 20
161.2437552947453
 30
0.0
  0
SEQEND
  5
129
330
123
100
AcDbEntity
  8
3-poket-9mm
 62
     7
420
 16777215
370
    80
  0
INSERT
  5
12B
330
1F
100
AcDbEntity
  8
3-poket-9mm
100
AcDbBlockReference
  2
block 42
 10
0.0
 20
0.0
 30
0.0
  0
INSERT
  5
137
330
1F
100
AcDbEntity
  8
3-poket-5mm
100
AcDbBlockReference
  2
block 43
 10
0.0
 20
0.0
 30
0.0
  0
INSERT
  5
13C
330
1F
100
AcDbEntity
  8
3-poket-5mm
100
AcDbBlockReference
  2
block 44
 10
0.0
 20
0.0
 30
0.0
  0
INSERT
  5
141
330
1F
100
AcDbEntity
  8
3-poket-5mm
100
AcDbBlockReference
  2
block 45
 10
0.0
 20
0.0
 30
0.0
  0
INSERT
  5
146
330
1F
100
AcDbEntity
  8
3-poket-5mm
100
AcDbBlockReference
  2
block 46
 10
0.0
 20
0.0
 30
0.0
  0
INSERT
  5
14B
330
1F
100
AcDbEntity
  8
3-poket-5mm
100
AcDbBlockReference
  2
block 47
 10
0.0
 20
0.0
 30
0.0
  0
INSERT
  5
150
330
1F
100
AcDbEntity
  8
3-poket-5mm
100
AcDbBlockReference
  2
block 48
 10
0.0
 20
0.0
 30
0.0
  0
INSERT
  5
155
330
1F
100
AcDbEntity
  8
3-poket-5mm
100
AcDbBlockReference
  2
block 49
 10
0.0
 20
0.0
 30
0.0
  0
INSERT
  5
15A
330
1F
100
AcDbEntity
  8
3-poket-5mm
100
AcDbBlockReference
  2
block 50
 10
0.0
 20
0.0
 30
0.0
  0
INSERT
  5
160
330
1F
100
AcDbEntity
  8
holes
100
AcDbBlockReference
  2
block 51
 10
0.0
 20
0.0
 30
0.0
  0
INSERT
  5
165
330
1F
100
AcDbEntity
  8
holes
100
AcDbBlockReference
  2
block 52
 10
0.0
 20
0.0
 30
0.0
  0
INSERT
  5
16A
330
1F
100
AcDbEntity
  8
holes
100
AcDbBlockReference
  2
block 53
 10
0.0
 20
0.0
 30
0.0
  0
INSERT
  5
16F
330
1F
100
AcDbEntity
  8
holes
100
AcDbBlockReference
  2
block 54
 10
0.0
 20
0.0
 30
0.0
  0
INSERT
  5
174
330
1F
100
AcDbEntity
  8
holes
100
AcDbBlockReference
  2
block 55
 10
0.0
 20
0.0
 30
0.0
  0
INSERT
  5
179
330
1F
100
AcDbEntity
  8
holes
100
AcDbBlockReference
  2
block 56
 10
0.0
 20
0.0
 30
0.0
  0
INSERT
  5
17E
330
1F
100
AcDbEntity
  8
holes
100
AcDbBlockReference
  2
block 57
 10
0.0
 20
0.0
 30
0.0
  0
INSERT
  5
183
330
1F
100
AcDbEntity
  8
holes
100
AcDbBlockReference
  2
block 58
 10
0.0
 20
0.0
 30
0.0
  0
INSERT
  5
188
330
1F
100
AcDbEntity
  8
holes
100
AcDbBlockReference
  2
block 59
 10
0.0
 20
0.0
 30
0.0
  0
INSERT
  5
18D
330
1F
100
AcDbEntity
  8
holes
100
AcDbBlockReference
  2
block 60
 10
0.0
 20
0.0
 30
0.0
  0
INSERT
  5
192
330
1F
100
AcDbEntity
  8
holes
100
AcDbBlockReference
  2
block 61
 10
0.0
 20
0.0
 30
0.0
  0
INSERT
  5
197
330
1F
100
AcDbEntity
  8
holes
100
AcDbBlockReference
  2
block 62
 10
0.0
 20
0.0
 30
0.0
  0
INSERT
  5
19C
330
1F
100
AcDbEntity
  8
holes
100
AcDbBlockReference
  2
block 63
 10
0.0
 20
0.0
 30
0.0
  0
INSERT
  5
1A1
330
1F
100
AcDbEntity
  8
holes
100
AcDbBlockReference
  2
block 64
 10
0.0
 20
0.0
 30
0.0
  0
INSERT
  5
1A6
330
1F
100
AcDbEntity
  8
holes
100
AcDbBlockReference
  2
block 65
 10
0.0
 20
0.0
 30
0.0
  0
INSERT
  5
1AB
330
1F
100
AcDbEntity
  8
holes
100
AcDbBlockReference
  2
block 66
 10
0.0
 20
0.0
 30
0.0
  0
ENDSEC
  0
SECTION
  2
OBJECTS
  0
DICTIONARY
  5
C
330
0
100
AcDbDictionary
281
     1
  3
ACAD_GROUP
350
D
  3
ACAD_LAYOUT
350
1A
  3
ACAD_MATERIAL
350
3B
  3
ACAD_MLEADERSTYLE
350
1B0
  3
ACAD_MLINESTYLE
350
17
  3
ACAD_PLOTSETTINGS
350
19
  3
ACAD_PLOTSTYLENAME
350
E
  3
ACAD_TABLESTYLE
350
1AF
  3
ACAD_VISUALSTYLE
350
2A
  0
SUN
  5
3F
330
29
100
AcDbSun
 90
        1
290
     0
 63
     7
421
 16777215
 40
1.0
291
     1
 91
  2455826
 92
 54000000
292
     0
 70
     2
 71
   256
280
     1
  0
DICTIONARY
  5
D
102
{ACAD_REACTORS
330
C
102
}
330
C
100
AcDbDictionary
281
     1
  0
DICTIONARY
  5
1A
102
{ACAD_REACTORS
330
C
102
}
330
C
100
AcDbDictionary
281
     1
  3
Layout1
350
1E
  3
Layout2
350
26
  3
Model
350
22
  0
DICTIONARY
  5
3B
102
{ACAD_REACTORS
330
C
102
}
330
C
100
AcDbDictionary
281
     1
  3
ByBlock
350
3D
  3
ByLayer
350
3C
  3
Global
350
3E
  0
DICTIONARY
  5
1B0
102
{ACAD_REACTORS
330
C
102
}
330
C
100
AcDbDictionary
281
     1
  0
DICTIONARY
  5
17
102
{ACAD_REACTORS
330
C
102
}
330
C
100
AcDbDictionary
281
     1
  3
Standard
350
18
  0
DICTIONARY
  5
19
102
{ACAD_REACTORS
330
C
102
}
330
C
100
AcDbDictionary
281
     1
  0
ACDBDICTIONARYWDFLT
  5
E
102
{ACAD_REACTORS
330
C
102
}
330
C
100
AcDbDictionary
281
     1
  3
Normal
350
F
100
AcDbDictionaryWithDefault
340
F
  0
DICTIONARY
  5
1AF
102
{ACAD_REACTORS
330
C
102
}
330
C
100
AcDbDictionary
281
     1
  0
DICTIONARY
  5
2A
102
{ACAD_REACTORS
330
C
102
}
330
C
100
AcDbDictionary
281
     1
  3
2dWireframe
350
2F
  3
3D Hidden
350
31
  3
3dWireframe
350
30
  3
Basic
350
32
  3
Brighten
350
36
  3
ColorChange
350
3A
  3
Conceptual
350
34
  3
Dim
350
35
  3
Facepattern
350
39
  3
Flat
350
2B
  3
FlatWithEdges
350
2C
  3
Gouraud
350
2D
  3
GouraudWithEdges
350
2E
  3
Linepattern
350
38
  3
Realistic
350
33
  3
Thicken
350
37
  0
LAYOUT
  5
1E
102
{ACAD_REACTORS
330
1A
102
}
330
1A
100
AcDbPlotSettings
  1

  2
none_device
  4

  6

 40
0.0
 41
0.0
 42
0.0
 43
0.0
 44
0.0
 45
0.0
 46
0.0
 47
0.0
 48
0.0
 49
0.0
140
0.0
141
0.0
142
1.0
143
1.0
 70
   688
 72
     0
 73
     0
 74
     5
  7

 75
    16
 76
     0
 77
     2
 78
   300
147
1.0
148
0.0
149
0.0
100
AcDbLayout
  1
Layout1
 70
     1
 71
     1
 10
0.0
 20
0.0
 11
12.0
 21
9.0
 12
0.0
 22
0.0
 32
0.0
 14
1.000000000000000E+20
 24
1.000000000000000E+20
 34
1.000000000000000E+20
 15
-1.000000000000000E+20
 25
-1.000000000000000E+20
 35
-1.000000000000000E+20
146
0.0
 13
0.0
 23
0.0
 33
0.0
 16
1.0
 26
0.0
 36
0.0
 17
0.0
 27
1.0
 37
0.0
 76
     0
330
1B
  0
LAYOUT
  5
26
102
{ACAD_REACTORS
330
1A
102
}
330
1A
100
AcDbPlotSettings
  1

  2
none_device
  4

  6

 40
0.0
 41
0.0
 42
0.0
 43
0.0
 44
0.0
 45
0.0
 46
0.0
 47
0.0
 48
0.0
 49
0.0
140
0.0
141
0.0
142
1.0
143
1.0
 70
   688
 72
     0
 73
     0
 74
     5
  7

 75
    16
 76
     0
 77
     2
 78
   300
147
1.0
148
0.0
149
0.0
100
AcDbLayout
  1
Layout2
 70
     1
 71
     2
 10
0.0
 20
0.0
 11
0.0
 21
0.0
 12
0.0
 22
0.0
 32
0.0
 14
0.0
 24
0.0
 34
0.0
 15
0.0
 25
0.0
 35
0.0
146
0.0
 13
0.0
 23
0.0
 33
0.0
 16
1.0
 26
0.0
 36
0.0
 17
0.0
 27
1.0
 37
0.0
 76
     0
330
23
  0
LAYOUT
  5
22
102
{ACAD_REACTORS
330
1A
102
}
330
1A
100
AcDbPlotSettings
  1

  2
none_device
  4

  6

 40
0.0
 41
0.0
 42
0.0
 43
0.0
 44
0.0
 45
0.0
 46
0.0
 47
0.0
 48
0.0
 49
0.0
140
0.0
141
0.0
142
1.0
143
1.0
 70
  1712
 72
     0
 73
     0
 74
     0
  7

 75
     0
 76
     0
 77
     2
 78
   300
147
1.0
148
0.0
149
0.0
100
AcDbLayout
  1
Model
 70
     1
 71
     0
 10
0.0
 20
0.0
 11
12.0
 21
9.0
 12
0.0
 22
0.0
 32
0.0
 14
1.000000000000000E+20
 24
1.000000000000000E+20
 34
1.000000000000000E+20
 15
-1.000000000000000E+20
 25
-1.000000000000000E+20
 35
-1.000000000000000E+20
146
0.0
 13
0.0
 23
0.0
 33
0.0
 16
1.0
 26
0.0
 36
0.0
 17
0.0
 27
1.0
 37
0.0
 76
     0
330
1F
331
29
  0
MATERIAL
  5
3D
102
{ACAD_REACTORS
330
3B
102
}
330
3B
100
AcDbMaterial
  1
ByBlock
 72
     1
 94
      127
  0
MATERIAL
  5
3C
102
{ACAD_REACTORS
330
3B
102
}
330
3B
100
AcDbMaterial
  1
ByLayer
 72
     1
 94
      127
  0
MATERIAL
  5
3E
102
{ACAD_REACTORS
330
3B
102
}
330
3B
100
AcDbMaterial
  1
Global
 72
     1
 94
      127
  0
MLINESTYLE
  5
18
102
{ACAD_REACTORS
330
17
102
}
330
17
100
AcDbMlineStyle
  2
Standard
 70
     0
  3

 62
   256
 51
90.0
 52
90.0
 71
     2
 49
0.5
 62
   256
  6
BYLAYER
 49
-0.5
 62
   256
  6
BYLAYER
  0
ACDBPLACEHOLDER
  5
F
102
{ACAD_REACTORS
330
E
102
}
330
E
  0
VISUALSTYLE
  5
2F
102
{ACAD_REACTORS
330
2A
102
}
330
2A
100
AcDbVisualStyle
  2
2dWireframe
 70
     4
177
     2
291
     0
 71
     0
176
     1
 72
     2
176
     1
 73
     0
176
     1
 90
        0
176
     1
 40
-0.6
176
     1
 41
-30.0
176
     1
 62
     5
 63
     7
421
 16777215
176
     1
 74
     1
176
     1
 91
        4
176
     1
 64
     7
176
     1
 65
   257
176
     1
 75
     1
176
     1
175
     1
176
     1
 42
1.0
176
     1
 92
        0
176
     1
 66
   257
176
     1
 43
1.0
176
     1
 76
     1
176
     1
 77
     6
176
     1
 78
     2
176
     1
 67
     7
176
     1
 79
     5
176
     1
170
     0
176
     1
171
     0
176
     1
290
     0
176
     1
 93
        1
176
     1
 44
0.0
176
     1
173
     0
176
     1
  0
VISUALSTYLE
  5
31
102
{ACAD_REACTORS
330
2A
102
}
330
2A
100
AcDbVisualStyle
  2
3D Hidden
 70
     6
177
     2
291
     0
 71
     1
176
     1
 72
     2
176
     1
 73
     2
176
     1
 90
        0
176
     1
 40
-0.6
176
     1
 41
-30.0
176
     1
 62
     5
 63
     7
421
 16777215
176
     1
 74
     2
176
     1
 91
        2
176
     1
 64
     7
176
     1
 65
   257
176
     1
 75
     2
176
     1
175
     1
176
     1
 42
40.0
176
     1
 92
        0
176
     1
 66
   257
176
     1
 43
1.0
176
     1
 76
     1
176
     1
 77
     6
176
     1
 78
     2
176
     1
 67
     7
176
     1
 79
     3
176
     1
170
     0
176
     1
171
     0
176
     1
290
     0
176
     1
 93
        1
176
     1
 44
0.0
176
     1
173
     0
176
     1
  0
VISUALSTYLE
  5
30
102
{ACAD_REACTORS
330
2A
102
}
330
2A
100
AcDbVisualStyle
  2
3dWireframe
 70
     5
177
     2
291
     0
 71
     0
176
     1
 72
     2
176
     1
 73
     0
176
     1
 90
        0
176
     1
 40
-0.6
176
     1
 41
-30.0
176
     1
 62
     5
 63
     7
421
 16777215
176
     1
 74
     1
176
     1
 91
        4
176
     1
 64
     7
176
     1
 65
   257
176
     1
 75
     1
176
     1
175
     1
176
     1
 42
1.0
176
     1
 92
        0
176
     1
 66
   257
176
     1
 43
1.0
176
     1
 76
     1
176
     1
 77
     6
176
     1
 78
     2
176
     1
 67
     7
176
     1
 79
     5
176
     1
170
     0
176
     1
171
     0
176
     1
290
     0
176
     1
 93
        1
176
     1
 44
0.0
176
     1
173
     0
176
     1
  0
VISUALSTYLE
  5
32
102
{ACAD_REACTORS
330
2A
102
}
330
2A
100
AcDbVisualStyle
  2
Basic
 70
     7
177
     2
291
     1
 71
     1
176
     1
 72
     0
176
     1
 73
     1
176
     1
 90
        0
176
     1
 40
-0.6
176
     1
 41
-30.0
176
     1
 62
     5
 63
     7
421
 16777215
176
     1
 74
     0
176
     1
 91
        4
176
     1
 64
     7
176
     1
 65
   257
176
     1
 75
     1
176
     1
175
     1
176
     1
 42
1.0
176
     1
 92
        8
176
     1
 66
     7
176
     1
 43
1.0
176
     1
 76
     1
176
     1
 77
     6
176
     1
 78
     2
176
     1
 67
     7
176
     1
 79
     5
176
     1
170
     0
176
     1
171
     0
176
     1
290
     0
176
     1
 93
        1
176
     1
 44
0.0
176
     1
173
     0
176
     1
  0
VISUALSTYLE
  5
36
102
{ACAD_REACTORS
330
2A
102
}
330
2A
100
AcDbVisualStyle
  2
Brighten
 70
    12
177
     2
291
     1
 71
     2
176
     1
 72
     2
176
     1
 73
     0
176
     1
 90
        0
176
     1
 40
-0.6
176
     1
 41
-30.0
176
     1
 62
     5
 63
     7
421
 16777215
176
     1
 74
     1
176
     1
 91
        4
176
     1
 64
     7
176
     1
 65
   257
176
     1
 75
     1
176
     1
175
     1
176
     1
 42
1.0
176
     1
 92
        8
176
     1
 66
     7
176
     1
 43
1.0
176
     1
 76
     1
176
     1
 77
     6
176
     1
 78
     2
176
     1
 67
     7
176
     1
 79
     5
176
     1
170
     0
176
     1
171
     0
176
     1
290
     0
176
     1
 93
        1
176
     1
 44
50.0
176
     1
173
     0
176
     1
  0
VISUALSTYLE
  5
3A
102
{ACAD_REACTORS
330
2A
102
}
330
2A
100
AcDbVisualStyle
  2
ColorChange
 70
    16
177
     2
291
     1
 71
     2
176
     1
 72
     2
176
     1
 73
     3
176
     1
 90
        0
176
     1
 40
-0.6
176
     1
 41
-30.0
176
     1
 62
     5
 63
     8
421
  8421504
176
     1
 74
     1
176
     1
 91
        4
176
     1
 64
     7
176
     1
 65
   257
176
     1
 75
     1
176
     1
175
     1
176
     1
 42
1.0
176
     1
 92
        8
176
     1
 66
     8
424
  8421504
176
     1
 43
1.0
176
     1
 76
     1
176
     1
 77
     6
176
     1
 78
     2
176
     1
 67
     7
176
     1
 79
     5
176
     1
170
     0
176
     1
171
     0
176
     1
290
     0
176
     1
 93
        1
176
     1
 44
0.0
176
     1
173
     0
176
     1
  0
VISUALSTYLE
  5
34
102
{ACAD_REACTORS
330
2A
102
}
330
2A
100
AcDbVisualStyle
  2
Conceptual
 70
     9
177
     2
291
     0
 71
     3
176
     1
 72
     2
176
     1
 73
     0
176
     1
 90
        0
176
     1
 40
-0.6
176
     1
 41
-30.0
176
     1
 62
     5
 63
     7
421
 16777215
176
     1
 74
     2
176
     1
 91
        2
176
     1
 64
     7
176
     1
 65
   257
176
     1
 75
     1
176
     1
175
     1
176
     1
 42
40.0
176
     1
 92
        8
176
     1
 66
     7
176
     1
 43
1.0
176
     1
 76
     1
176
     1
 77
     6
176
     1
 78
     2
176
     1
 67
     7
176
     1
 79
     3
176
     1
170
     0
176
     1
171
     0
176
     1
290
     0
176
     1
 93
        1
176
     1
 44
0.0
176
     1
173
     0
176
     1
  0
VISUALSTYLE
  5
35
102
{ACAD_REACTORS
330
2A
102
}
330
2A
100
AcDbVisualStyle
  2
Dim
 70
    11
177
     2
291
     1
 71
     2
176
     1
 72
     2
176
     1
 73
     0
176
     1
 90
        0
176
     1
 40
-0.6
176
     1
 41
-30.0
176
     1
 62
     5
 63
     7
421
 16777215
176
     1
 74
     1
176
     1
 91
        4
176
     1
 64
     7
176
     1
 65
   257
176
     1
 75
     1
176
     1
175
     1
176
     1
 42
1.0
176
     1
 92
        8
176
     1
 66
     7
176
     1
 43
1.0
176
     1
 76
     1
176
     1
 77
     6
176
     1
 78
     2
176
     1
 67
     7
176
     1
 79
     5
176
     1
170
     0
176
     1
171
     0
176
     1
290
     0
176
     1
 93
        1
176
     1
 44
-50.0
176
     1
173
     0
176
     1
  0
VISUALSTYLE
  5
39
102
{ACAD_REACTORS
330
2A
102
}
330
2A
100
AcDbVisualStyle
  2
Facepattern
 70
    15
177
     2
291
     1
 71
     2
176
     1
 72
     2
176
     1
 73
     0
176
     1
 90
        0
176
     1
 40
-0.6
176
     1
 41
-30.0
176
     1
 62
     5
 63
     7
421
 16777215
176
     1
 74
     1
176
     1
 91
        4
176
     1
 64
     7
176
     1
 65
   257
176
     1
 75
     1
176
     1
175
     1
176
     1
 42
1.0
176
     1
 92
        8
176
     1
 66
     7
176
     1
 43
1.0
176
     1
 76
     1
176
     1
 77
     6
176
     1
 78
     2
176
     1
 67
     7
176
     1
 79
     5
176
     1
170
     0
176
     1
171
     0
176
     1
290
     0
176
     1
 93
        1
176
     1
 44
0.0
176
     1
173
     0
176
     1
  0
VISUALSTYLE
  5
2B
102
{ACAD_REACTORS
330
2A
102
}
330
2A
100
AcDbVisualStyle
  2
Flat
 70
     0
177
     2
291
     1
 71
     2
176
     1
 72
     1
176
     1
 73
     1
176
     1
 90
        2
176
     1
 40
-0.6
176
     1
 41
30.0
176
     1
 62
     5
 63
     7
421
 16777215
176
     1
 74
     0
176
     1
 91
        4
176
     1
 64
     7
176
     1
 65
   257
176
     1
 75
     1
176
     1
175
     1
176
     1
 42
1.0
176
     1
 92
        8
176
     1
 66
     7
176
     1
 43
1.0
176
     1
 76
     1
176
     1
 77
     6
176
     1
 78
     2
176
     1
 67
     7
176
     1
 79
     5
176
     1
170
     0
176
     1
171
     0
176
     1
290
     0
176
     1
 93
       13
176
     1
 44
0.0
176
     1
173
     0
176
     1
  0
VISUALSTYLE
  5
2C
102
{ACAD_REACTORS
330
2A
102
}
330
2A
100
AcDbVisualStyle
  2
FlatWithEdges
 70
     1
177
     2
291
     1
 71
     2
176
     1
 72
     1
176
     1
 73
     1
176
     1
 90
        2
176
     1
 40
-0.6
176
     1
 41
30.0
176
     1
 62
     5
 63
     7
421
 16777215
176
     1
 74
     1
176
     1
 91
        4
176
     1
 64
     7
176
     1
 65
   257
176
     1
 75
     1
176
     1
175
     1
176
     1
 42
1.0
176
     1
 92
        0
176
     1
 66
   257
176
     1
 43
1.0
176
     1
 76
     1
176
     1
 77
     6
176
     1
 78
     2
176
     1
 67
     7
176
     1
 79
     5
176
     1
170
     0
176
     1
171
     0
176
     1
290
     0
176
     1
 93
       13
176
     1
 44
0.0
176
     1
173
     0
176
     1
  0
VISUALSTYLE
  5
2D
102
{ACAD_REACTORS
330
2A
102
}
330
2A
100
AcDbVisualStyle
  2
Gouraud
 70
     2
177
     2
291
     1
 71
     2
176
     1
 72
     2
176
     1
 73
     1
176
     1
 90
        2
176
     1
 40
-0.6
176
     1
 41
30.0
176
     1
 62
     5
 63
     7
421
 16777215
176
     1
 74
     0
176
     1
 91
        4
176
     1
 64
     7
176
     1
 65
   257
176
     1
 75
     1
176
     1
175
     1
176
     1
 42
1.0
176
     1
 92
        0
176
     1
 66
     7
176
     1
 43
1.0
176
     1
 76
     1
176
     1
 77
     6
176
     1
 78
     2
176
     1
 67
     7
176
     1
 79
     5
176
     1
170
     0
176
     1
171
     0
176
     1
290
     0
176
     1
 93
       13
176
     1
 44
0.0
176
     1
173
     0
176
     1
  0
VISUALSTYLE
  5
2E
102
{ACAD_REACTORS
330
2A
102
}
330
2A
100
AcDbVisualStyle
  2
GouraudWithEdges
 70
     3
177
     2
291
     1
 71
     2
176
     1
 72
     2
176
     1
 73
     1
176
     1
 90
        2
176
     1
 40
-0.6
176
     1
 41
30.0
176
     1
 62
     5
 63
     7
421
 16777215
176
     1
 74
     1
176
     1
 91
        4
176
     1
 64
     7
176
     1
 65
   257
176
     1
 75
     1
176
     1
175
     1
176
     1
 42
1.0
176
     1
 92
        0
176
     1
 66
   257
176
     1
 43
1.0
176
     1
 76
     1
176
     1
 77
     6
176
     1
 78
     2
176
     1
 67
     7
176
     1
 79
     5
176
     1
170
     0
176
     1
171
     0
176
     1
290
     0
176
     1
 93
       13
176
     1
 44
0.0
176
     1
173
     0
176
     1
  0
VISUALSTYLE
  5
38
102
{ACAD_REACTORS
330
2A
102
}
330
2A
100
AcDbVisualStyle
  2
Linepattern
 70
    14
177
     2
291
     1
 71
     2
176
     1
 72
     2
176
     1
 73
     0
176
     1
 90
        0
176
     1
 40
-0.6
176
     1
 41
-30.0
176
     1
 62
     5
 63
     7
421
 16777215
176
     1
 74
     1
176
     1
 91
        4
176
     1
 64
     7
176
     1
 65
   257
176
     1
 75
     7
176
     1
175
     7
176
     1
 42
1.0
176
     1
 92
        8
176
     1
 66
     7
176
     1
 43
1.0
176
     1
 76
     1
176
     1
 77
     6
176
     1
 78
     2
176
     1
 67
     7
176
     1
 79
     5
176
     1
170
     0
176
     1
171
     0
176
     1
290
     0
176
     1
 93
        1
176
     1
 44
0.0
176
     1
173
     0
176
     1
  0
VISUALSTYLE
  5
33
102
{ACAD_REACTORS
330
2A
102
}
330
2A
100
AcDbVisualStyle
  2
Realistic
 70
     8
177
     2
291
     0
 71
     2
176
     1
 72
     2
176
     1
 73
     0
176
     1
 90
        0
176
     1
 40
-0.6
176
     1
 41
-30.0
176
     1
 62
     5
 63
     7
421
 16777215
176
     1
 74
     1
176
     1
 91
        0
176
     1
 64
     7
176
     1
 65
   257
176
     1
 75
     1
176
     1
175
     1
176
     1
 42
1.0
176
     1
 92
        8
176
     1
 66
     8
424
  7895160
176
     1
 43
1.0
176
     1
 76
     1
176
     1
 77
     6
176
     1
 78
     2
176
     1
 67
     7
176
     1
 79
     5
176
     1
170
     0
176
     1
171
     0
176
     1
290
     0
176
     1
 93
       13
176
     1
 44
0.0
176
     1
173
     0
176
     1
  0
VISUALSTYLE
  5
37
102
{ACAD_REACTORS
330
2A
102
}
330
2A
100
AcDbVisualStyle
  2
Thicken
 70
    13
177
     2
291
     1
 71
     2
176
     1
 72
     2
176
     1
 73
     0
176
     1
 90
        0
176
     1
 40
-0.6
176
     1
 41
-30.0
176
     1
 62
     5
 63
     7
421
 16777215
176
     1
 74
     1
176
     1
 91
        4
176
     1
 64
     7
176
     1
 65
   257
176
     1
 75
     1
176
     1
175
     1
176
     1
 42
1.0
176
     1
 92
       12
176
     1
 66
     7
176
     1
 43
1.0
176
     1
 76
     1
176
     1
 77
     6
176
     1
 78
     2
176
     1
 67
     7
176
     1
 79
     5
176
     1
170
     0
176
     1
171
     0
176
     1
290
     0
176
     1
 93
        1
176
     1
 44
0.0
176
     1
173
     0
176
     1
  0
ENDSEC
  0
EOF
