  0
SECTION
  2
HEADER
  9
$ACADVER
  1
AC1009
  9
$DWGCODEPAGE
  3
ansi_1252
  9
$INSBASE
 10
0.0
 20
0.0
 30
0.0
  9
$EXTMIN
 10
131.6666666666678
 20
36.16666666666606
 30
0.0
  9
$EXTMAX
 10
2422.0
 20
1202.0
 30
0.0
  9
$LIMMIN
 10
0.0
 20
0.0
  9
$LIMMAX
 10
12.0
 20
9.0
  9
$ORTHOMODE
 70
     0
  9
$REGENMODE
 70
     1
  9
$FILLMODE
 70
     1
  9
$QTEXTMODE
 70
     0
  9
$MIRRTEXT
 70
     1
  9
$DRAGMODE
 70
     2
  9
$LTSCALE
 40
1.0
  9
$OSMODE
 70
    37
  9
$ATTMODE
 70
     1
  9
$TEXTSIZE
 40
0.2
  9
$TRACEWID
 40
0.05
  9
$TEXTSTYLE
  7
STANDARD
  9
$CLAYER
  8
0
  9
$CELTYPE
  6
BYLAYER
  9
$CECOLOR
 62
   256
  9
$DIMSCALE
 40
1.0
  9
$DIMASZ
 40
0.18
  9
$DIMEXO
 40
0.0625
  9
$DIMDLI
 40
0.38
  9
$DIMRND
 40
0.0
  9
$DIMDLE
 40
0.0
  9
$DIMEXE
 40
0.18
  9
$DIMTP
 40
0.0
  9
$DIMTM
 40
0.0
  9
$DIMTXT
 40
0.18
  9
$DIMCEN
 40
0.09
  9
$DIMTSZ
 40
0.0
  9
$DIMTOL
 70
     0
  9
$DIMLIM
 70
     0
  9
$DIMTIH
 70
     1
  9
$DIMTOH
 70
     1
  9
$DIMSE1
 70
     0
  9
$DIMSE2
 70
     0
  9
$DIMTAD
 70
     0
  9
$DIMZIN
 70
     0
  9
$DIMBLK
  1

  9
$DIMASO
 70
     1
  9
$DIMSHO
 70
     1
  9
$DIMPOST
  1

  9
$DIMAPOST
  1

  9
$DIMALT
 70
     0
  9
$DIMALTD
 70
     2
  9
$DIMALTF
 40
25.4
  9
$DIMLFAC
 40
1.0
  9
$DIMTOFL
 70
     0
  9
$DIMTVP
 40
0.0
  9
$DIMTIX
 70
     0
  9
$DIMSOXD
 70
     0
  9
$DIMSAH
 70
     0
  9
$DIMBLK1
  1

  9
$DIMBLK2
  1

  9
$DIMSTYLE
  2
STANDARD
  9
$DIMCLRD
 70
     0
  9
$DIMCLRE
 70
     0
  9
$DIMCLRT
 70
     0
  9
$DIMTFAC
 40
1.0
  9
$DIMGAP
 40
0.09
  9
$LUNITS
 70
     2
  9
$LUPREC
 70
     4
  9
$SKETCHINC
 40
0.1
  9
$FILLETRAD
 40
0.5
  9
$AUNITS
 70
     0
  9
$AUPREC
 70
     0
  9
$MENU
  1
.
  9
$ELEVATION
 40
0.0
  9
$PELEVATION
 40
0.0
  9
$THICKNESS
 40
0.0
  9
$LIMCHECK
 70
     0
  9
$CHAMFERA
 40
0.0
  9
$CHAMFERB
 40
0.0
  9
$SKPOLY
 70
     0
  9
$TDCREATE
 40
2454910.5
  9
$TDUPDATE
 40
2457914.536576701
  9
$TDINDWG
 40
0.0000000116
  9
$TDUSRTIMER
 40
0.0000000116
  9
$USRTIMER
 70
     1
  9
$ANGBASE
 50
0.0
  9
$ANGDIR
 70
     0
  9
$PDMODE
 70
     0
  9
$PDSIZE
 40
0.0
  9
$PLINEWID
 40
0.0
  9
$COORDS
 70
     1
  9
$SPLFRAME
 70
     0
  9
$SPLINETYPE
 70
     6
  9
$SPLINESEGS
 70
     8
  9
$ATTDIA
 70
     0
  9
$ATTREQ
 70
     1
  9
$HANDLING
 70
     1
  9
$HANDSEED
  5
4C2
  9
$SURFTAB1
 70
     6
  9
$SURFTAB2
 70
     6
  9
$SURFTYPE
 70
     6
  9
$SURFU
 70
     6
  9
$SURFV
 70
     6
  9
$UCSNAME
  2

  9
$UCSORG
 10
0.0
 20
0.0
 30
0.0
  9
$UCSXDIR
 10
1.0
 20
0.0
 30
0.0
  9
$UCSYDIR
 10
0.0
 20
1.0
 30
0.0
  9
$PUCSNAME
  2

  9
$PUCSORG
 10
0.0
 20
0.0
 30
0.0
  9
$PUCSXDIR
 10
1.0
 20
0.0
 30
0.0
  9
$PUCSYDIR
 10
0.0
 20
1.0
 30
0.0
  9
$USERI1
 70
     0
  9
$USERI2
 70
     0
  9
$USERI3
 70
     0
  9
$USERI4
 70
     0
  9
$USERI5
 70
     0
  9
$USERR1
 40
0.0
  9
$USERR2
 40
0.0
  9
$USERR3
 40
0.0
  9
$USERR4
 40
0.0
  9
$USERR5
 40
0.0
  9
$WORLDVIEW
 70
     1
  9
$SHADEDGE
 70
     3
  9
$SHADEDIF
 70
    70
  9
$TILEMODE
 70
     1
  9
$MAXACTVP
 70
    64
  9
$PLIMCHECK
 70
     0
  9
$PEXTMIN
 10
1.000000000000000E+20
 20
1.000000000000000E+20
 30
1.000000000000000E+20
  9
$PEXTMAX
 10
-1.000000000000000E+20
 20
-1.000000000000000E+20
 30
-1.000000000000000E+20
  9
$PLIMMIN
 10
0.0
 20
0.0
  9
$PLIMMAX
 10
12.0
 20
9.0
  9
$UNITMODE
 70
     0
  9
$VISRETAIN
 70
     1
  9
$PLINEGEN
 70
     0
  9
$PSLTSCALE
 70
     1
  0
ENDSEC
  0
SECTION
  2
TABLES
  0
TABLE
  2
VPORT
 70
     1
  0
VPORT
  2
*ACTIVE
 70
     0
 10
0.0
 20
0.0
 11
1.0
 21
1.0
 12
10.42990654205607
 22
4.5
 13
0.0
 23
0.0
 14
0.5
 24
0.5
 15
0.5
 25
0.5
 16
0.0
 26
0.0
 36
1.0
 17
0.0
 27
0.0
 37
0.0
 40
9.0
 41
1.972972972850329
 42
50.0
 43
0.0
 44
0.0
 50
0.0
 51
0.0
 71
     0
 72
   100
 73
     1
 74
     3
 75
     0
 76
     0
 77
     0
 78
     0
  0
ENDTAB
  0
TABLE
  2
LTYPE
 70
     2
  0
LTYPE
  2
CONTINUOUS
 70
     0
  3
Solid line
 72
    65
 73
     0
 40
0.0
  0
LTYPE
  2
CONTINUOUS2
 70
     0
  3
Solid Line
 72
    65
 73
     0
 40
0.0
  0
ENDTAB
  0
TABLE
  2
LAYER
 70
    13
  0
LAYER
  2
0
 70
     0
 62
     7
  6
CONTINUOUS
  0
LAYER
  2
00_POCKET_HOLES_10_25MM_FR
 70
     0
 62
     1
  6
CONTINUOUS
  0
LAYER
  2
01_PROFILE_HOLES_INSIDE_21
 70
     0
 62
     2
  6
CONTINUOUS
  0
LAYER
  2
02_POCKET_1_6_83MM_FROM_BO
 70
     0
 62
     3
  6
CONTINUOUS
  0
LAYER
  2
03_POCKET_2_8MM_FROM_BOTTO
 70
     0
 62
     4
  6
CONTINUOUS
  0
LAYER
  2
04_POCKET_3_10_25_FROM_BOT
 70
     0
 62
     5
  6
CONTINUOUS
  0
LAYER
  2
05_POCKET_4_16_25_FROM_BOT
 70
     0
 62
     6
  6
CONTINUOUS
  0
LAYER
  2
06_POCKET_5_14_5_FROM_BOT0
 70
     0
 62
   123
  6
CONTINUOUS
  0
LAYER
  2
07_POCKET_6_19_5_FROM_BOTT
 70
     0
 62
    53
  6
CONTINUOUS
  0
LAYER
  2
08_PROFILE_OUTSIDE_20_5M0
 70
     0
 62
    18
  6
CONTINUOUS
  0
LAYER
  2
01_PROFILE_HOLES_INSIDE_20
 70
     0
 62
     2
  6
CONTINUOUS
  0
LAYER
  2
06_POCKET_5_14_5_FROM_BOTT
 70
     0
 62
   123
  6
CONTINUOUS
  0
LAYER
  2
08_PROFILE_OUTSIDE_20_5MM
 70
     0
 62
    18
  6
CONTINUOUS
  0
ENDTAB
  0
TABLE
  2
STYLE
 70
     1
  0
STYLE
  2
STANDARD
 70
     0
 40
0.0
 41
1.0
 50
0.0
 71
     0
 42
0.2
  3
txt
  4

  0
ENDTAB
  0
TABLE
  2
VIEW
 70
     0
  0
ENDTAB
  0
TABLE
  2
UCS
 70
     0
  0
ENDTAB
  0
TABLE
  2
APPID
 70
     1
  0
APPID
  2
ACAD
 70
     0
  0
ENDTAB
  0
TABLE
  2
DIMSTYLE
 70
     1
  0
DIMSTYLE
  2
STANDARD
 70
     0
  3

  4

  5

  6

  7

 40
1.0
 41
0.18
 42
0.0625
 43
0.38
 44
0.18
 45
0.0
 46
0.0
 47
0.0
 48
0.0
140
0.18
141
0.09
142
0.0
143
25.4
144
1.0
145
0.0
146
1.0
147
0.09
 71
     0
 72
     0
 73
     1
 74
     1
 75
     0
 76
     0
 77
     0
 78
     0
170
     0
171
     2
172
     0
173
     0
174
     0
175
     0
176
     0
177
     0
178
     0
  0
ENDTAB
  0
ENDSEC
  0
SECTION
  2
BLOCKS
  0
BLOCK
  8
0
  2
$MODEL_SPACE
 70
     0
 10
0.0
 20
0.0
 30
0.0
  3
$MODEL_SPACE
  1

  0
ENDBLK
  5
21
  8
0
  0
BLOCK
 67
     1
  8
0
  2
$PAPER_SPACE
 70
     0
 10
0.0
 20
0.0
 30
0.0
  3
$PAPER_SPACE
  1

  0
ENDBLK
  5
1D
 67
     1
  8
0
  0
ENDSEC
  0
SECTION
  2
ENTITIES
  0
POLYLINE
  5
70
  8
00_POCKET_HOLES_10_25MM_FR
 66
     1
 10
0.0
 20
0.0
 30
0.0
 70
     1
  0
VERTEX
  5
11D
  8
00_POCKET_HOLES_10_25MM_FR
 10
1622.999999999999
 20
1185.0
 30
0.0
 42
0.4142135623730951
  0
VERTEX
  5
11E
  8
00_POCKET_HOLES_10_25MM_FR
 10
1618.999999999999
 20
1189.0
 30
0.0
 42
0.4142135623730951
  0
VERTEX
  5
11F
  8
00_POCKET_HOLES_10_25MM_FR
 10
1614.999999999999
 20
1185.0
 30
0.0
 42
0.4142135623730951
  0
VERTEX
  5
120
  8
00_POCKET_HOLES_10_25MM_FR
 10
1618.999999999999
 20
1181.0
 30
0.0
 42
0.4142135623730951
  0
SEQEND
  5
427
  8
00_POCKET_HOLES_10_25MM_FR
  0
POLYLINE
  5
71
  8
00_POCKET_HOLES_10_25MM_FR
 66
     1
 10
0.0
 20
0.0
 30
0.0
 70
     1
  0
VERTEX
  5
121
  8
00_POCKET_HOLES_10_25MM_FR
 10
1922.0
 20
1185.0
 30
0.0
 42
0.4142135623730951
  0
VERTEX
  5
122
  8
00_POCKET_HOLES_10_25MM_FR
 10
1918.0
 20
1189.0
 30
0.0
 42
0.4142135623730951
  0
VERTEX
  5
123
  8
00_POCKET_HOLES_10_25MM_FR
 10
1914.0
 20
1185.0
 30
0.0
 42
0.4142135623730951
  0
VERTEX
  5
124
  8
00_POCKET_HOLES_10_25MM_FR
 10
1918.0
 20
1181.0
 30
0.0
 42
0.4142135623730951
  0
SEQEND
  5
428
  8
00_POCKET_HOLES_10_25MM_FR
  0
POLYLINE
  5
72
  8
00_POCKET_HOLES_10_25MM_FR
 66
     1
 10
0.0
 20
0.0
 30
0.0
 70
     1
  0
VERTEX
  5
125
  8
00_POCKET_HOLES_10_25MM_FR
 10
2221.0
 20
1165.0
 30
0.0
 42
0.4142135623730951
  0
VERTEX
  5
126
  8
00_POCKET_HOLES_10_25MM_FR
 10
2217.0
 20
1169.0
 30
0.0
 42
0.4142135623730951
  0
VERTEX
  5
127
  8
00_POCKET_HOLES_10_25MM_FR
 10
2213.0
 20
1165.0
 30
0.0
 42
0.4142135623730951
  0
VERTEX
  5
128
  8
00_POCKET_HOLES_10_25MM_FR
 10
2217.0
 20
1161.0
 30
0.0
 42
0.4142135623730951
  0
SEQEND
  5
429
  8
00_POCKET_HOLES_10_25MM_FR
  0
POLYLINE
  5
73
  8
00_POCKET_HOLES_10_25MM_FR
 66
     1
 10
0.0
 20
0.0
 30
0.0
 70
     1
  0
VERTEX
  5
129
  8
00_POCKET_HOLES_10_25MM_FR
 10
1622.993116683842
 20
954.6666619286607
 30
0.0
 42
0.4142135623730951
  0
VERTEX
  5
12A
  8
00_POCKET_HOLES_10_25MM_FR
 10
1618.993116683842
 20
958.6666619286607
 30
0.0
 42
0.4142135623730951
  0
VERTEX
  5
12B
  8
00_POCKET_HOLES_10_25MM_FR
 10
1614.993116683842
 20
954.6666619286607
 30
0.0
 42
0.4142135623730951
  0
VERTEX
  5
12C
  8
00_POCKET_HOLES_10_25MM_FR
 10
1618.993116683842
 20
950.6666619286607
 30
0.0
 42
0.4142135623730951
  0
SEQEND
  5
42A
  8
00_POCKET_HOLES_10_25MM_FR
  0
POLYLINE
  5
74
  8
00_POCKET_HOLES_10_25MM_FR
 66
     1
 10
0.0
 20
0.0
 30
0.0
 70
     1
  0
VERTEX
  5
12D
  8
00_POCKET_HOLES_10_25MM_FR
 10
2220.993116683842
 20
944.6666619286607
 30
0.0
 42
0.4142135623730951
  0
VERTEX
  5
12E
  8
00_POCKET_HOLES_10_25MM_FR
 10
2216.993116683842
 20
948.6666619286607
 30
0.0
 42
0.4142135623730951
  0
VERTEX
  5
12F
  8
00_POCKET_HOLES_10_25MM_FR
 10
2212.993116683842
 20
944.6666619286607
 30
0.0
 42
0.4142135623730951
  0
VERTEX
  5
130
  8
00_POCKET_HOLES_10_25MM_FR
 10
2216.993116683842
 20
940.6666619286607
 30
0.0
 42
0.4142135623730951
  0
SEQEND
  5
42B
  8
00_POCKET_HOLES_10_25MM_FR
  0
POLYLINE
  5
75
  8
00_POCKET_HOLES_10_25MM_FR
 66
     1
 10
0.0
 20
0.0
 30
0.0
 70
     1
  0
VERTEX
  5
131
  8
00_POCKET_HOLES_10_25MM_FR
 10
1921.993116683843
 20
954.6666619286607
 30
0.0
 42
0.4142135623730951
  0
VERTEX
  5
132
  8
00_POCKET_HOLES_10_25MM_FR
 10
1917.993116683843
 20
958.6666619286607
 30
0.0
 42
0.4142135623730951
  0
VERTEX
  5
133
  8
00_POCKET_HOLES_10_25MM_FR
 10
1913.993116683843
 20
954.6666619286607
 30
0.0
 42
0.4142135623730951
  0
VERTEX
  5
134
  8
00_POCKET_HOLES_10_25MM_FR
 10
1917.993116683843
 20
950.6666619286607
 30
0.0
 42
0.4142135623730951
  0
SEQEND
  5
42C
  8
00_POCKET_HOLES_10_25MM_FR
  0
POLYLINE
  5
76
  8
00_POCKET_HOLES_10_25MM_FR
 66
     1
 10
0.0
 20
0.0
 30
0.0
 70
     1
  0
VERTEX
  5
135
  8
00_POCKET_HOLES_10_25MM_FR
 10
1623.000000000001
 20
1035.0
 30
0.0
 42
0.4142135623730951
  0
VERTEX
  5
136
  8
00_POCKET_HOLES_10_25MM_FR
 10
1619.000000000001
 20
1039.0
 30
0.0
 42
0.4142135623730951
  0
VERTEX
  5
137
  8
00_POCKET_HOLES_10_25MM_FR
 10
1615.000000000001
 20
1035.0
 30
0.0
 42
0.4142135623730951
  0
VERTEX
  5
138
  8
00_POCKET_HOLES_10_25MM_FR
 10
1619.000000000001
 20
1031.0
 30
0.0
 42
0.4142135623730951
  0
SEQEND
  5
42D
  8
00_POCKET_HOLES_10_25MM_FR
  0
POLYLINE
  5
77
  8
00_POCKET_HOLES_10_25MM_FR
 66
     1
 10
0.0
 20
0.0
 30
0.0
 70
     1
  0
VERTEX
  5
139
  8
00_POCKET_HOLES_10_25MM_FR
 10
2221.0
 20
1025.0
 30
0.0
 42
0.4142135623730951
  0
VERTEX
  5
13A
  8
00_POCKET_HOLES_10_25MM_FR
 10
2217.0
 20
1029.0
 30
0.0
 42
0.4142135623730951
  0
VERTEX
  5
13B
  8
00_POCKET_HOLES_10_25MM_FR
 10
2213.0
 20
1025.0
 30
0.0
 42
0.4142135623730951
  0
VERTEX
  5
13C
  8
00_POCKET_HOLES_10_25MM_FR
 10
2217.0
 20
1021.0
 30
0.0
 42
0.4142135623730951
  0
SEQEND
  5
42E
  8
00_POCKET_HOLES_10_25MM_FR
  0
POLYLINE
  5
78
  8
00_POCKET_HOLES_10_25MM_FR
 66
     1
 10
0.0
 20
0.0
 30
0.0
 70
     1
  0
VERTEX
  5
13D
  8
00_POCKET_HOLES_10_25MM_FR
 10
1922.000000000001
 20
1035.0
 30
0.0
 42
0.4142135623730951
  0
VERTEX
  5
13E
  8
00_POCKET_HOLES_10_25MM_FR
 10
1918.000000000001
 20
1039.0
 30
0.0
 42
0.4142135623730951
  0
VERTEX
  5
13F
  8
00_POCKET_HOLES_10_25MM_FR
 10
1914.000000000001
 20
1035.0
 30
0.0
 42
0.4142135623730951
  0
VERTEX
  5
140
  8
00_POCKET_HOLES_10_25MM_FR
 10
1918.000000000001
 20
1031.0
 30
0.0
 42
0.4142135623730951
  0
SEQEND
  5
42F
  8
00_POCKET_HOLES_10_25MM_FR
  0
POLYLINE
  5
79
  8
00_POCKET_HOLES_10_25MM_FR
 66
     1
 10
0.0
 20
0.0
 30
0.0
 70
     1
  0
VERTEX
  5
141
  8
00_POCKET_HOLES_10_25MM_FR
 10
2298.253333333333
 20
779.6224999999977
 30
0.0
 42
0.4142135623730951
  0
VERTEX
  5
142
  8
00_POCKET_HOLES_10_25MM_FR
 10
2294.253333333333
 20
783.6224999999977
 30
0.0
 42
0.4142135623730951
  0
VERTEX
  5
143
  8
00_POCKET_HOLES_10_25MM_FR
 10
2290.253333333333
 20
779.6224999999977
 30
0.0
 42
0.4142135623730951
  0
VERTEX
  5
144
  8
00_POCKET_HOLES_10_25MM_FR
 10
2294.253333333333
 20
775.6224999999977
 30
0.0
 42
0.4142135623730951
  0
SEQEND
  5
430
  8
00_POCKET_HOLES_10_25MM_FR
  0
POLYLINE
  5
7A
  8
00_POCKET_HOLES_10_25MM_FR
 66
     1
 10
0.0
 20
0.0
 30
0.0
 70
     1
  0
VERTEX
  5
145
  8
00_POCKET_HOLES_10_25MM_FR
 10
1999.003333333333
 20
779.6224999999977
 30
0.0
 42
0.4142135623730951
  0
VERTEX
  5
146
  8
00_POCKET_HOLES_10_25MM_FR
 10
1995.003333333333
 20
783.6224999999977
 30
0.0
 42
0.4142135623730951
  0
VERTEX
  5
147
  8
00_POCKET_HOLES_10_25MM_FR
 10
1991.003333333333
 20
779.6224999999977
 30
0.0
 42
0.4142135623730951
  0
VERTEX
  5
148
  8
00_POCKET_HOLES_10_25MM_FR
 10
1995.003333333333
 20
775.6224999999977
 30
0.0
 42
0.4142135623730951
  0
SEQEND
  5
431
  8
00_POCKET_HOLES_10_25MM_FR
  0
POLYLINE
  5
7B
  8
00_POCKET_HOLES_10_25MM_FR
 66
     1
 10
0.0
 20
0.0
 30
0.0
 70
     1
  0
VERTEX
  5
149
  8
00_POCKET_HOLES_10_25MM_FR
 10
1699.753333333333
 20
779.6224999999977
 30
0.0
 42
0.4142135623730951
  0
VERTEX
  5
14A
  8
00_POCKET_HOLES_10_25MM_FR
 10
1695.753333333333
 20
783.6224999999977
 30
0.0
 42
0.4142135623730951
  0
VERTEX
  5
14B
  8
00_POCKET_HOLES_10_25MM_FR
 10
1691.753333333333
 20
779.6224999999977
 30
0.0
 42
0.4142135623730951
  0
VERTEX
  5
14C
  8
00_POCKET_HOLES_10_25MM_FR
 10
1695.753333333333
 20
775.6224999999977
 30
0.0
 42
0.4142135623730951
  0
SEQEND
  5
432
  8
00_POCKET_HOLES_10_25MM_FR
  0
POLYLINE
  5
7C
  8
00_POCKET_HOLES_10_25MM_FR
 66
     1
 10
0.0
 20
0.0
 30
0.0
 70
     1
  0
VERTEX
  5
14D
  8
00_POCKET_HOLES_10_25MM_FR
 10
1366.753333333333
 20
812.3741666666679
 30
0.0
 42
0.4142135623730951
  0
VERTEX
  5
14E
  8
00_POCKET_HOLES_10_25MM_FR
 10
1362.753333333333
 20
816.3741666666679
 30
0.0
 42
0.4142135623730951
  0
VERTEX
  5
14F
  8
00_POCKET_HOLES_10_25MM_FR
 10
1358.753333333333
 20
812.3741666666679
 30
0.0
 42
0.4142135623730951
  0
VERTEX
  5
150
  8
00_POCKET_HOLES_10_25MM_FR
 10
1362.753333333333
 20
808.3741666666679
 30
0.0
 42
0.4142135623730951
  0
SEQEND
  5
433
  8
00_POCKET_HOLES_10_25MM_FR
  0
POLYLINE
  5
7D
  8
00_POCKET_HOLES_10_25MM_FR
 66
     1
 10
0.0
 20
0.0
 30
0.0
 70
     1
  0
VERTEX
  5
151
  8
00_POCKET_HOLES_10_25MM_FR
 10
1067.503333333333
 20
812.3741666666679
 30
0.0
 42
0.4142135623730951
  0
VERTEX
  5
152
  8
00_POCKET_HOLES_10_25MM_FR
 10
1063.503333333333
 20
816.3741666666679
 30
0.0
 42
0.4142135623730951
  0
VERTEX
  5
153
  8
00_POCKET_HOLES_10_25MM_FR
 10
1059.503333333333
 20
812.3741666666679
 30
0.0
 42
0.4142135623730951
  0
VERTEX
  5
154
  8
00_POCKET_HOLES_10_25MM_FR
 10
1063.503333333333
 20
808.3741666666679
 30
0.0
 42
0.4142135623730951
  0
SEQEND
  5
434
  8
00_POCKET_HOLES_10_25MM_FR
  0
POLYLINE
  5
7E
  8
00_POCKET_HOLES_10_25MM_FR
 66
     1
 10
0.0
 20
0.0
 30
0.0
 70
     1
  0
VERTEX
  5
155
  8
00_POCKET_HOLES_10_25MM_FR
 10
768.2533333333329
 20
812.3741666666679
 30
0.0
 42
0.4142135623730951
  0
VERTEX
  5
156
  8
00_POCKET_HOLES_10_25MM_FR
 10
764.2533333333329
 20
816.3741666666679
 30
0.0
 42
0.4142135623730951
  0
VERTEX
  5
157
  8
00_POCKET_HOLES_10_25MM_FR
 10
760.2533333333329
 20
812.3741666666679
 30
0.0
 42
0.4142135623730951
  0
VERTEX
  5
158
  8
00_POCKET_HOLES_10_25MM_FR
 10
764.2533333333329
 20
808.3741666666679
 30
0.0
 42
0.4142135623730951
  0
SEQEND
  5
435
  8
00_POCKET_HOLES_10_25MM_FR
  0
POLYLINE
  5
7F
  8
00_POCKET_HOLES_10_25MM_FR
 66
     1
 10
0.0
 20
0.0
 30
0.0
 70
     1
  0
VERTEX
  5
159
  8
00_POCKET_HOLES_10_25MM_FR
 10
253.0000000000002
 20
474.2499999999991
 30
0.0
 42
0.4142135623730951
  0
VERTEX
  5
15A
  8
00_POCKET_HOLES_10_25MM_FR
 10
257.0000000000002
 20
478.2499999999991
 30
0.0
 42
0.4142135623730951
  0
VERTEX
  5
15B
  8
00_POCKET_HOLES_10_25MM_FR
 10
253.0000000000002
 20
482.2499999999991
 30
0.0
 42
0.4142135623730951
  0
VERTEX
  5
15C
  8
00_POCKET_HOLES_10_25MM_FR
 10
249.0000000000002
 20
478.2499999999991
 30
0.0
 42
0.4142135623730951
  0
SEQEND
  5
436
  8
00_POCKET_HOLES_10_25MM_FR
  0
POLYLINE
  5
80
  8
00_POCKET_HOLES_10_25MM_FR
 66
     1
 10
0.0
 20
0.0
 30
0.0
 70
     1
  0
VERTEX
  5
15D
  8
00_POCKET_HOLES_10_25MM_FR
 10
253.0000000000002
 20
773.4999999999982
 30
0.0
 42
0.4142135623730951
  0
VERTEX
  5
15E
  8
00_POCKET_HOLES_10_25MM_FR
 10
257.0000000000002
 20
777.4999999999982
 30
0.0
 42
0.4142135623730951
  0
VERTEX
  5
15F
  8
00_POCKET_HOLES_10_25MM_FR
 10
253.0000000000002
 20
781.4999999999982
 30
0.0
 42
0.4142135623730951
  0
VERTEX
  5
160
  8
00_POCKET_HOLES_10_25MM_FR
 10
249.0000000000002
 20
777.4999999999982
 30
0.0
 42
0.4142135623730951
  0
SEQEND
  5
437
  8
00_POCKET_HOLES_10_25MM_FR
  0
POLYLINE
  5
81
  8
00_POCKET_HOLES_10_25MM_FR
 66
     1
 10
0.0
 20
0.0
 30
0.0
 70
     1
  0
VERTEX
  5
161
  8
00_POCKET_HOLES_10_25MM_FR
 10
253.0000000000002
 20
1072.749999999999
 30
0.0
 42
0.4142135623730951
  0
VERTEX
  5
162
  8
00_POCKET_HOLES_10_25MM_FR
 10
257.0000000000002
 20
1076.749999999999
 30
0.0
 42
0.4142135623730951
  0
VERTEX
  5
163
  8
00_POCKET_HOLES_10_25MM_FR
 10
253.0000000000002
 20
1080.749999999999
 30
0.0
 42
0.4142135623730951
  0
VERTEX
  5
164
  8
00_POCKET_HOLES_10_25MM_FR
 10
249.0000000000002
 20
1076.749999999999
 30
0.0
 42
0.4142135623730951
  0
SEQEND
  5
438
  8
00_POCKET_HOLES_10_25MM_FR
  0
POLYLINE
  5
82
  8
00_POCKET_HOLES_10_25MM_FR
 66
     1
 10
0.0
 20
0.0
 30
0.0
 70
     1
  0
VERTEX
  5
165
  8
00_POCKET_HOLES_10_25MM_FR
 10
1623.000000000001
 20
684.6666666666677
 30
0.0
 42
0.4142135623730951
  0
VERTEX
  5
166
  8
00_POCKET_HOLES_10_25MM_FR
 10
1619.000000000001
 20
688.6666666666677
 30
0.0
 42
0.4142135623730951
  0
VERTEX
  5
167
  8
00_POCKET_HOLES_10_25MM_FR
 10
1615.000000000001
 20
684.6666666666677
 30
0.0
 42
0.4142135623730951
  0
VERTEX
  5
168
  8
00_POCKET_HOLES_10_25MM_FR
 10
1619.000000000001
 20
680.6666666666677
 30
0.0
 42
0.4142135623730951
  0
SEQEND
  5
439
  8
00_POCKET_HOLES_10_25MM_FR
  0
POLYLINE
  5
83
  8
00_POCKET_HOLES_10_25MM_FR
 66
     1
 10
0.0
 20
0.0
 30
0.0
 70
     1
  0
VERTEX
  5
169
  8
00_POCKET_HOLES_10_25MM_FR
 10
1922.000000000001
 20
684.6666666666678
 30
0.0
 42
0.4142135623730951
  0
VERTEX
  5
16A
  8
00_POCKET_HOLES_10_25MM_FR
 10
1918.000000000001
 20
688.6666666666678
 30
0.0
 42
0.4142135623730951
  0
VERTEX
  5
16B
  8
00_POCKET_HOLES_10_25MM_FR
 10
1914.000000000001
 20
684.6666666666677
 30
0.0
 42
0.4142135623730951
  0
VERTEX
  5
16C
  8
00_POCKET_HOLES_10_25MM_FR
 10
1918.000000000001
 20
680.6666666666678
 30
0.0
 42
0.4142135623730951
  0
SEQEND
  5
43A
  8
00_POCKET_HOLES_10_25MM_FR
  0
POLYLINE
  5
84
  8
00_POCKET_HOLES_10_25MM_FR
 66
     1
 10
0.0
 20
0.0
 30
0.0
 70
     1
  0
VERTEX
  5
16D
  8
00_POCKET_HOLES_10_25MM_FR
 10
2221.000000000001
 20
684.6666666666678
 30
0.0
 42
0.4142135623730951
  0
VERTEX
  5
16E
  8
00_POCKET_HOLES_10_25MM_FR
 10
2217.000000000001
 20
688.6666666666678
 30
0.0
 42
0.4142135623730951
  0
VERTEX
  5
16F
  8
00_POCKET_HOLES_10_25MM_FR
 10
2213.000000000001
 20
684.6666666666678
 30
0.0
 42
0.4142135623730951
  0
VERTEX
  5
170
  8
00_POCKET_HOLES_10_25MM_FR
 10
2217.000000000001
 20
680.6666666666678
 30
0.0
 42
0.4142135623730951
  0
SEQEND
  5
43B
  8
00_POCKET_HOLES_10_25MM_FR
  0
POLYLINE
  5
85
  8
00_POCKET_HOLES_10_25MM_FR
 66
     1
 10
0.0
 20
0.0
 30
0.0
 70
     1
  0
VERTEX
  5
171
  8
00_POCKET_HOLES_10_25MM_FR
 10
723.7500000000006
 20
716.416666666667
 30
0.0
 42
0.4142135623730951
  0
VERTEX
  5
172
  8
00_POCKET_HOLES_10_25MM_FR
 10
719.7500000000006
 20
720.416666666667
 30
0.0
 42
0.4142135623730951
  0
VERTEX
  5
173
  8
00_POCKET_HOLES_10_25MM_FR
 10
715.7500000000006
 20
716.416666666667
 30
0.0
 42
0.4142135623730951
  0
VERTEX
  5
174
  8
00_POCKET_HOLES_10_25MM_FR
 10
719.7500000000006
 20
712.416666666667
 30
0.0
 42
0.4142135623730951
  0
SEQEND
  5
43C
  8
00_POCKET_HOLES_10_25MM_FR
  0
POLYLINE
  5
86
  8
00_POCKET_HOLES_10_25MM_FR
 66
     1
 10
0.0
 20
0.0
 30
0.0
 70
     1
  0
VERTEX
  5
175
  8
00_POCKET_HOLES_10_25MM_FR
 10
1322.25
 20
706.416666666667
 30
0.0
 42
0.4142135623730951
  0
VERTEX
  5
176
  8
00_POCKET_HOLES_10_25MM_FR
 10
1318.25
 20
710.416666666667
 30
0.0
 42
0.4142135623730951
  0
VERTEX
  5
177
  8
00_POCKET_HOLES_10_25MM_FR
 10
1314.25
 20
706.416666666667
 30
0.0
 42
0.4142135623730951
  0
VERTEX
  5
178
  8
00_POCKET_HOLES_10_25MM_FR
 10
1318.25
 20
702.416666666667
 30
0.0
 42
0.4142135623730951
  0
SEQEND
  5
43D
  8
00_POCKET_HOLES_10_25MM_FR
  0
POLYLINE
  5
87
  8
00_POCKET_HOLES_10_25MM_FR
 66
     1
 10
0.0
 20
0.0
 30
0.0
 70
     1
  0
VERTEX
  5
179
  8
00_POCKET_HOLES_10_25MM_FR
 10
1023.000000000001
 20
716.416666666667
 30
0.0
 42
0.4142135623730951
  0
VERTEX
  5
17A
  8
00_POCKET_HOLES_10_25MM_FR
 10
1019.000000000001
 20
720.416666666667
 30
0.0
 42
0.4142135623730951
  0
VERTEX
  5
17B
  8
00_POCKET_HOLES_10_25MM_FR
 10
1015.000000000001
 20
716.416666666667
 30
0.0
 42
0.4142135623730951
  0
VERTEX
  5
17C
  8
00_POCKET_HOLES_10_25MM_FR
 10
1019.000000000001
 20
712.416666666667
 30
0.0
 42
0.4142135623730951
  0
SEQEND
  5
43E
  8
00_POCKET_HOLES_10_25MM_FR
  0
POLYLINE
  5
88
  8
00_POCKET_HOLES_10_25MM_FR
 66
     1
 10
0.0
 20
0.0
 30
0.0
 70
     1
  0
VERTEX
  5
17D
  8
00_POCKET_HOLES_10_25MM_FR
 10
2340.25
 20
532.0000000000007
 30
0.0
 42
0.4142135623730951
  0
VERTEX
  5
17E
  8
00_POCKET_HOLES_10_25MM_FR
 10
2336.25
 20
536.0000000000007
 30
0.0
 42
0.4142135623730951
  0
VERTEX
  5
17F
  8
00_POCKET_HOLES_10_25MM_FR
 10
2332.25
 20
532.0000000000007
 30
0.0
 42
0.4142135623730951
  0
VERTEX
  5
180
  8
00_POCKET_HOLES_10_25MM_FR
 10
2336.25
 20
528.0000000000007
 30
0.0
 42
0.4142135623730951
  0
SEQEND
  5
43F
  8
00_POCKET_HOLES_10_25MM_FR
  0
POLYLINE
  5
89
  8
00_POCKET_HOLES_10_25MM_FR
 66
     1
 10
0.0
 20
0.0
 30
0.0
 70
     1
  0
VERTEX
  5
181
  8
00_POCKET_HOLES_10_25MM_FR
 10
2040.999999999999
 20
532.0000000000006
 30
0.0
 42
0.4142135623730951
  0
VERTEX
  5
182
  8
00_POCKET_HOLES_10_25MM_FR
 10
2036.999999999999
 20
536.0000000000006
 30
0.0
 42
0.4142135623730951
  0
VERTEX
  5
183
  8
00_POCKET_HOLES_10_25MM_FR
 10
2032.999999999999
 20
532.0000000000006
 30
0.0
 42
0.4142135623730951
  0
VERTEX
  5
184
  8
00_POCKET_HOLES_10_25MM_FR
 10
2036.999999999999
 20
528.0000000000006
 30
0.0
 42
0.4142135623730951
  0
SEQEND
  5
440
  8
00_POCKET_HOLES_10_25MM_FR
  0
POLYLINE
  5
8A
  8
00_POCKET_HOLES_10_25MM_FR
 66
     1
 10
0.0
 20
0.0
 30
0.0
 70
     1
  0
VERTEX
  5
185
  8
00_POCKET_HOLES_10_25MM_FR
 10
1741.749999999999
 20
532.0000000000006
 30
0.0
 42
0.4142135623730951
  0
VERTEX
  5
186
  8
00_POCKET_HOLES_10_25MM_FR
 10
1737.749999999999
 20
536.0000000000006
 30
0.0
 42
0.4142135623730951
  0
VERTEX
  5
187
  8
00_POCKET_HOLES_10_25MM_FR
 10
1733.749999999999
 20
532.0000000000006
 30
0.0
 42
0.4142135623730951
  0
VERTEX
  5
188
  8
00_POCKET_HOLES_10_25MM_FR
 10
1737.749999999999
 20
528.0000000000006
 30
0.0
 42
0.4142135623730951
  0
SEQEND
  5
441
  8
00_POCKET_HOLES_10_25MM_FR
  0
POLYLINE
  5
8B
  8
00_POCKET_HOLES_10_25MM_FR
 66
     1
 10
0.0
 20
0.0
 30
0.0
 70
     1
  0
VERTEX
  5
189
  8
00_POCKET_HOLES_10_25MM_FR
 10
1505.25
 20
554.0000000000007
 30
0.0
 42
0.4142135623730951
  0
VERTEX
  5
18A
  8
00_POCKET_HOLES_10_25MM_FR
 10
1501.25
 20
558.0000000000007
 30
0.0
 42
0.4142135623730951
  0
VERTEX
  5
18B
  8
00_POCKET_HOLES_10_25MM_FR
 10
1497.25
 20
554.0000000000007
 30
0.0
 42
0.4142135623730951
  0
VERTEX
  5
18C
  8
00_POCKET_HOLES_10_25MM_FR
 10
1501.25
 20
550.0000000000007
 30
0.0
 42
0.4142135623730951
  0
SEQEND
  5
442
  8
00_POCKET_HOLES_10_25MM_FR
  0
POLYLINE
  5
8C
  8
00_POCKET_HOLES_10_25MM_FR
 66
     1
 10
0.0
 20
0.0
 30
0.0
 70
     1
  0
VERTEX
  5
18D
  8
00_POCKET_HOLES_10_25MM_FR
 10
1206.0
 20
554.0000000000007
 30
0.0
 42
0.4142135623730951
  0
VERTEX
  5
18E
  8
00_POCKET_HOLES_10_25MM_FR
 10
1202.0
 20
558.0000000000007
 30
0.0
 42
0.4142135623730951
  0
VERTEX
  5
18F
  8
00_POCKET_HOLES_10_25MM_FR
 10
1198.0
 20
554.0000000000007
 30
0.0
 42
0.4142135623730951
  0
VERTEX
  5
190
  8
00_POCKET_HOLES_10_25MM_FR
 10
1202.0
 20
550.0000000000007
 30
0.0
 42
0.4142135623730951
  0
SEQEND
  5
443
  8
00_POCKET_HOLES_10_25MM_FR
  0
POLYLINE
  5
8D
  8
00_POCKET_HOLES_10_25MM_FR
 66
     1
 10
0.0
 20
0.0
 30
0.0
 70
     1
  0
VERTEX
  5
191
  8
00_POCKET_HOLES_10_25MM_FR
 10
906.7500000000002
 20
554.0000000000007
 30
0.0
 42
0.4142135623730951
  0
VERTEX
  5
192
  8
00_POCKET_HOLES_10_25MM_FR
 10
902.7500000000002
 20
558.0000000000007
 30
0.0
 42
0.4142135623730951
  0
VERTEX
  5
193
  8
00_POCKET_HOLES_10_25MM_FR
 10
898.7500000000002
 20
554.0000000000007
 30
0.0
 42
0.4142135623730951
  0
VERTEX
  5
194
  8
00_POCKET_HOLES_10_25MM_FR
 10
902.7500000000002
 20
550.0000000000007
 30
0.0
 42
0.4142135623730951
  0
SEQEND
  5
444
  8
00_POCKET_HOLES_10_25MM_FR
  0
POLYLINE
  5
8E
  8
00_POCKET_HOLES_10_25MM_FR
 66
     1
 10
0.0
 20
0.0
 30
0.0
 70
     1
  0
VERTEX
  5
195
  8
00_POCKET_HOLES_10_25MM_FR
 10
1623.0
 20
407.0000000000002
 30
0.0
 42
0.4142135623730951
  0
VERTEX
  5
196
  8
00_POCKET_HOLES_10_25MM_FR
 10
1619.0
 20
411.0000000000002
 30
0.0
 42
0.4142135623730951
  0
VERTEX
  5
197
  8
00_POCKET_HOLES_10_25MM_FR
 10
1615.0
 20
407.0000000000002
 30
0.0
 42
0.4142135623730951
  0
VERTEX
  5
198
  8
00_POCKET_HOLES_10_25MM_FR
 10
1619.0
 20
403.0000000000002
 30
0.0
 42
0.4142135623730951
  0
SEQEND
  5
445
  8
00_POCKET_HOLES_10_25MM_FR
  0
POLYLINE
  5
8F
  8
00_POCKET_HOLES_10_25MM_FR
 66
     1
 10
0.0
 20
0.0
 30
0.0
 70
     1
  0
VERTEX
  5
199
  8
00_POCKET_HOLES_10_25MM_FR
 10
1922.0
 20
407.0000000000002
 30
0.0
 42
0.4142135623730951
  0
VERTEX
  5
19A
  8
00_POCKET_HOLES_10_25MM_FR
 10
1918.0
 20
411.0000000000002
 30
0.0
 42
0.4142135623730951
  0
VERTEX
  5
19B
  8
00_POCKET_HOLES_10_25MM_FR
 10
1914.0
 20
407.0000000000002
 30
0.0
 42
0.4142135623730951
  0
VERTEX
  5
19C
  8
00_POCKET_HOLES_10_25MM_FR
 10
1918.0
 20
403.0000000000002
 30
0.0
 42
0.4142135623730951
  0
SEQEND
  5
446
  8
00_POCKET_HOLES_10_25MM_FR
  0
POLYLINE
  5
90
  8
00_POCKET_HOLES_10_25MM_FR
 66
     1
 10
0.0
 20
0.0
 30
0.0
 70
     1
  0
VERTEX
  5
19D
  8
00_POCKET_HOLES_10_25MM_FR
 10
2221.0
 20
407.0000000000002
 30
0.0
 42
0.4142135623730951
  0
VERTEX
  5
19E
  8
00_POCKET_HOLES_10_25MM_FR
 10
2217.0
 20
411.0000000000002
 30
0.0
 42
0.4142135623730951
  0
VERTEX
  5
19F
  8
00_POCKET_HOLES_10_25MM_FR
 10
2213.0
 20
407.0000000000002
 30
0.0
 42
0.4142135623730951
  0
VERTEX
  5
1A0
  8
00_POCKET_HOLES_10_25MM_FR
 10
2217.0
 20
403.0000000000002
 30
0.0
 42
0.4142135623730951
  0
SEQEND
  5
447
  8
00_POCKET_HOLES_10_25MM_FR
  0
POLYLINE
  5
91
  8
00_POCKET_HOLES_10_25MM_FR
 66
     1
 10
0.0
 20
0.0
 30
0.0
 70
     1
  0
VERTEX
  5
1A1
  8
00_POCKET_HOLES_10_25MM_FR
 10
740.2499999999987
 20
468.4166666666665
 30
0.0
 42
0.4142135623730951
  0
VERTEX
  5
1A2
  8
00_POCKET_HOLES_10_25MM_FR
 10
736.2499999999987
 20
472.4166666666665
 30
0.0
 42
0.4142135623730951
  0
VERTEX
  5
1A3
  8
00_POCKET_HOLES_10_25MM_FR
 10
732.2499999999987
 20
468.4166666666665
 30
0.0
 42
0.4142135623730951
  0
VERTEX
  5
1A4
  8
00_POCKET_HOLES_10_25MM_FR
 10
736.2499999999987
 20
464.4166666666665
 30
0.0
 42
0.4142135623730951
  0
SEQEND
  5
448
  8
00_POCKET_HOLES_10_25MM_FR
  0
POLYLINE
  5
92
  8
00_POCKET_HOLES_10_25MM_FR
 66
     1
 10
0.0
 20
0.0
 30
0.0
 70
     1
  0
VERTEX
  5
1A5
  8
00_POCKET_HOLES_10_25MM_FR
 10
1338.749999999999
 20
468.4166666666665
 30
0.0
 42
0.4142135623730951
  0
VERTEX
  5
1A6
  8
00_POCKET_HOLES_10_25MM_FR
 10
1334.749999999999
 20
472.4166666666665
 30
0.0
 42
0.4142135623730951
  0
VERTEX
  5
1A7
  8
00_POCKET_HOLES_10_25MM_FR
 10
1330.749999999999
 20
468.4166666666665
 30
0.0
 42
0.4142135623730951
  0
VERTEX
  5
1A8
  8
00_POCKET_HOLES_10_25MM_FR
 10
1334.749999999999
 20
464.4166666666665
 30
0.0
 42
0.4142135623730951
  0
SEQEND
  5
449
  8
00_POCKET_HOLES_10_25MM_FR
  0
POLYLINE
  5
93
  8
00_POCKET_HOLES_10_25MM_FR
 66
     1
 10
0.0
 20
0.0
 30
0.0
 70
     1
  0
VERTEX
  5
1A9
  8
00_POCKET_HOLES_10_25MM_FR
 10
1039.499999999999
 20
468.4166666666665
 30
0.0
 42
0.4142135623730951
  0
VERTEX
  5
1AA
  8
00_POCKET_HOLES_10_25MM_FR
 10
1035.499999999999
 20
472.4166666666665
 30
0.0
 42
0.4142135623730951
  0
VERTEX
  5
1AB
  8
00_POCKET_HOLES_10_25MM_FR
 10
1031.499999999999
 20
468.4166666666665
 30
0.0
 42
0.4142135623730951
  0
VERTEX
  5
1AC
  8
00_POCKET_HOLES_10_25MM_FR
 10
1035.499999999999
 20
464.4166666666665
 30
0.0
 42
0.4142135623730951
  0
SEQEND
  5
44A
  8
00_POCKET_HOLES_10_25MM_FR
  0
POLYLINE
  5
94
  8
00_POCKET_HOLES_10_25MM_FR
 66
     1
 10
0.0
 20
0.0
 30
0.0
 70
     1
  0
VERTEX
  5
1AD
  8
00_POCKET_HOLES_10_25MM_FR
 10
1337.75
 20
376.9166666666674
 30
0.0
 42
0.4142135623730951
  0
VERTEX
  5
1AE
  8
00_POCKET_HOLES_10_25MM_FR
 10
1333.75
 20
380.9166666666674
 30
0.0
 42
0.4142135623730951
  0
VERTEX
  5
1AF
  8
00_POCKET_HOLES_10_25MM_FR
 10
1329.75
 20
376.9166666666674
 30
0.0
 42
0.4142135623730951
  0
VERTEX
  5
1B0
  8
00_POCKET_HOLES_10_25MM_FR
 10
1333.75
 20
372.9166666666674
 30
0.0
 42
0.4142135623730951
  0
SEQEND
  5
44B
  8
00_POCKET_HOLES_10_25MM_FR
  0
POLYLINE
  5
95
  8
00_POCKET_HOLES_10_25MM_FR
 66
     1
 10
0.0
 20
0.0
 30
0.0
 70
     1
  0
VERTEX
  5
1B1
  8
00_POCKET_HOLES_10_25MM_FR
 10
1038.5
 20
376.9166666666674
 30
0.0
 42
0.4142135623730951
  0
VERTEX
  5
1B2
  8
00_POCKET_HOLES_10_25MM_FR
 10
1034.5
 20
380.9166666666674
 30
0.0
 42
0.4142135623730951
  0
VERTEX
  5
1B3
  8
00_POCKET_HOLES_10_25MM_FR
 10
1030.5
 20
376.9166666666674
 30
0.0
 42
0.4142135623730951
  0
VERTEX
  5
1B4
  8
00_POCKET_HOLES_10_25MM_FR
 10
1034.5
 20
372.9166666666674
 30
0.0
 42
0.4142135623730951
  0
SEQEND
  5
44C
  8
00_POCKET_HOLES_10_25MM_FR
  0
POLYLINE
  5
96
  8
00_POCKET_HOLES_10_25MM_FR
 66
     1
 10
0.0
 20
0.0
 30
0.0
 70
     1
  0
VERTEX
  5
1B5
  8
00_POCKET_HOLES_10_25MM_FR
 10
739.2500000000006
 20
376.9166666666674
 30
0.0
 42
0.4142135623730951
  0
VERTEX
  5
1B6
  8
00_POCKET_HOLES_10_25MM_FR
 10
735.2500000000006
 20
380.9166666666674
 30
0.0
 42
0.4142135623730951
  0
VERTEX
  5
1B7
  8
00_POCKET_HOLES_10_25MM_FR
 10
731.2500000000006
 20
376.9166666666674
 30
0.0
 42
0.4142135623730951
  0
VERTEX
  5
1B8
  8
00_POCKET_HOLES_10_25MM_FR
 10
735.2500000000006
 20
372.9166666666674
 30
0.0
 42
0.4142135623730951
  0
SEQEND
  5
44D
  8
00_POCKET_HOLES_10_25MM_FR
  0
POLYLINE
  5
97
  8
00_POCKET_HOLES_10_25MM_FR
 66
     1
 10
0.0
 20
0.0
 30
0.0
 70
     1
  0
VERTEX
  5
1B9
  8
00_POCKET_HOLES_10_25MM_FR
 10
2269.083333333333
 20
332.874166666667
 30
0.0
 42
0.4142135623730951
  0
VERTEX
  5
1BA
  8
00_POCKET_HOLES_10_25MM_FR
 10
2265.083333333333
 20
336.874166666667
 30
0.0
 42
0.4142135623730951
  0
VERTEX
  5
1BB
  8
00_POCKET_HOLES_10_25MM_FR
 10
2261.083333333333
 20
332.874166666667
 30
0.0
 42
0.4142135623730951
  0
VERTEX
  5
1BC
  8
00_POCKET_HOLES_10_25MM_FR
 10
2265.083333333333
 20
328.874166666667
 30
0.0
 42
0.4142135623730951
  0
SEQEND
  5
44E
  8
00_POCKET_HOLES_10_25MM_FR
  0
POLYLINE
  5
98
  8
00_POCKET_HOLES_10_25MM_FR
 66
     1
 10
0.0
 20
0.0
 30
0.0
 70
     1
  0
VERTEX
  5
1BD
  8
00_POCKET_HOLES_10_25MM_FR
 10
1969.833333333333
 20
332.874166666667
 30
0.0
 42
0.4142135623730951
  0
VERTEX
  5
1BE
  8
00_POCKET_HOLES_10_25MM_FR
 10
1965.833333333333
 20
336.874166666667
 30
0.0
 42
0.4142135623730951
  0
VERTEX
  5
1BF
  8
00_POCKET_HOLES_10_25MM_FR
 10
1961.833333333333
 20
332.874166666667
 30
0.0
 42
0.4142135623730951
  0
VERTEX
  5
1C0
  8
00_POCKET_HOLES_10_25MM_FR
 10
1965.833333333333
 20
328.874166666667
 30
0.0
 42
0.4142135623730951
  0
SEQEND
  5
44F
  8
00_POCKET_HOLES_10_25MM_FR
  0
POLYLINE
  5
99
  8
00_POCKET_HOLES_10_25MM_FR
 66
     1
 10
0.0
 20
0.0
 30
0.0
 70
     1
  0
VERTEX
  5
1C1
  8
00_POCKET_HOLES_10_25MM_FR
 10
1670.583333333333
 20
332.874166666667
 30
0.0
 42
0.4142135623730951
  0
VERTEX
  5
1C2
  8
00_POCKET_HOLES_10_25MM_FR
 10
1666.583333333333
 20
336.874166666667
 30
0.0
 42
0.4142135623730951
  0
VERTEX
  5
1C3
  8
00_POCKET_HOLES_10_25MM_FR
 10
1662.583333333333
 20
332.874166666667
 30
0.0
 42
0.4142135623730951
  0
VERTEX
  5
1C4
  8
00_POCKET_HOLES_10_25MM_FR
 10
1666.583333333333
 20
328.874166666667
 30
0.0
 42
0.4142135623730951
  0
SEQEND
  5
450
  8
00_POCKET_HOLES_10_25MM_FR
  0
POLYLINE
  5
9A
  8
00_POCKET_HOLES_10_25MM_FR
 66
     1
 10
0.0
 20
0.0
 30
0.0
 70
     1
  0
VERTEX
  5
1C5
  8
00_POCKET_HOLES_10_25MM_FR
 10
1297.083333333333
 20
261.2924999999999
 30
0.0
 42
0.4142135623730951
  0
VERTEX
  5
1C6
  8
00_POCKET_HOLES_10_25MM_FR
 10
1293.083333333333
 20
265.2924999999999
 30
0.0
 42
0.4142135623730951
  0
VERTEX
  5
1C7
  8
00_POCKET_HOLES_10_25MM_FR
 10
1289.083333333333
 20
261.2924999999999
 30
0.0
 42
0.4142135623730951
  0
VERTEX
  5
1C8
  8
00_POCKET_HOLES_10_25MM_FR
 10
1293.083333333333
 20
257.2924999999999
 30
0.0
 42
0.4142135623730951
  0
SEQEND
  5
451
  8
00_POCKET_HOLES_10_25MM_FR
  0
POLYLINE
  5
9B
  8
00_POCKET_HOLES_10_25MM_FR
 66
     1
 10
0.0
 20
0.0
 30
0.0
 70
     1
  0
VERTEX
  5
1C9
  8
00_POCKET_HOLES_10_25MM_FR
 10
997.8333333333328
 20
261.2924999999999
 30
0.0
 42
0.4142135623730951
  0
VERTEX
  5
1CA
  8
00_POCKET_HOLES_10_25MM_FR
 10
993.8333333333328
 20
265.2924999999999
 30
0.0
 42
0.4142135623730951
  0
VERTEX
  5
1CB
  8
00_POCKET_HOLES_10_25MM_FR
 10
989.8333333333328
 20
261.2924999999999
 30
0.0
 42
0.4142135623730951
  0
VERTEX
  5
1CC
  8
00_POCKET_HOLES_10_25MM_FR
 10
993.8333333333328
 20
257.2924999999999
 30
0.0
 42
0.4142135623730951
  0
SEQEND
  5
452
  8
00_POCKET_HOLES_10_25MM_FR
  0
POLYLINE
  5
9C
  8
00_POCKET_HOLES_10_25MM_FR
 66
     1
 10
0.0
 20
0.0
 30
0.0
 70
     1
  0
VERTEX
  5
1CD
  8
00_POCKET_HOLES_10_25MM_FR
 10
698.5833333333328
 20
261.2924999999999
 30
0.0
 42
0.4142135623730951
  0
VERTEX
  5
1CE
  8
00_POCKET_HOLES_10_25MM_FR
 10
694.5833333333328
 20
265.2924999999999
 30
0.0
 42
0.4142135623730951
  0
VERTEX
  5
1CF
  8
00_POCKET_HOLES_10_25MM_FR
 10
690.5833333333328
 20
261.2924999999999
 30
0.0
 42
0.4142135623730951
  0
VERTEX
  5
1D0
  8
00_POCKET_HOLES_10_25MM_FR
 10
694.5833333333328
 20
257.2924999999999
 30
0.0
 42
0.4142135623730951
  0
SEQEND
  5
453
  8
00_POCKET_HOLES_10_25MM_FR
  0
POLYLINE
  5
9D
  8
00_POCKET_HOLES_10_25MM_FR
 66
     1
 10
0.0
 20
0.0
 30
0.0
 70
     1
  0
VERTEX
  5
1D1
  8
00_POCKET_HOLES_10_25MM_FR
 10
1418.25
 20
204.5000000000007
 30
0.0
 42
0.4142135623730951
  0
VERTEX
  5
1D2
  8
00_POCKET_HOLES_10_25MM_FR
 10
1414.25
 20
208.5000000000007
 30
0.0
 42
0.4142135623730951
  0
VERTEX
  5
1D3
  8
00_POCKET_HOLES_10_25MM_FR
 10
1410.25
 20
204.5000000000007
 30
0.0
 42
0.4142135623730951
  0
VERTEX
  5
1D4
  8
00_POCKET_HOLES_10_25MM_FR
 10
1414.25
 20
200.5000000000007
 30
0.0
 42
0.4142135623730951
  0
SEQEND
  5
454
  8
00_POCKET_HOLES_10_25MM_FR
  0
POLYLINE
  5
9E
  8
00_POCKET_HOLES_10_25MM_FR
 66
     1
 10
0.0
 20
0.0
 30
0.0
 70
     1
  0
VERTEX
  5
1D5
  8
00_POCKET_HOLES_10_25MM_FR
 10
1119.000000000001
 20
204.5000000000007
 30
0.0
 42
0.4142135623730951
  0
VERTEX
  5
1D6
  8
00_POCKET_HOLES_10_25MM_FR
 10
1115.000000000001
 20
208.5000000000007
 30
0.0
 42
0.4142135623730951
  0
VERTEX
  5
1D7
  8
00_POCKET_HOLES_10_25MM_FR
 10
1111.000000000001
 20
204.5000000000007
 30
0.0
 42
0.4142135623730951
  0
VERTEX
  5
1D8
  8
00_POCKET_HOLES_10_25MM_FR
 10
1115.000000000001
 20
200.5000000000007
 30
0.0
 42
0.4142135623730951
  0
SEQEND
  5
455
  8
00_POCKET_HOLES_10_25MM_FR
  0
POLYLINE
  5
9F
  8
00_POCKET_HOLES_10_25MM_FR
 66
     1
 10
0.0
 20
0.0
 30
0.0
 70
     1
  0
VERTEX
  5
1D9
  8
00_POCKET_HOLES_10_25MM_FR
 10
819.7500000000002
 20
204.5000000000007
 30
0.0
 42
0.4142135623730951
  0
VERTEX
  5
1DA
  8
00_POCKET_HOLES_10_25MM_FR
 10
815.7500000000002
 20
208.5000000000007
 30
0.0
 42
0.4142135623730951
  0
VERTEX
  5
1DB
  8
00_POCKET_HOLES_10_25MM_FR
 10
811.7500000000002
 20
204.5000000000007
 30
0.0
 42
0.4142135623730951
  0
VERTEX
  5
1DC
  8
00_POCKET_HOLES_10_25MM_FR
 10
815.7500000000002
 20
200.5000000000007
 30
0.0
 42
0.4142135623730951
  0
SEQEND
  5
456
  8
00_POCKET_HOLES_10_25MM_FR
  0
POLYLINE
  5
A0
  8
00_POCKET_HOLES_10_25MM_FR
 66
     1
 10
0.0
 20
0.0
 30
0.0
 70
     1
  0
VERTEX
  5
1DD
  8
00_POCKET_HOLES_10_25MM_FR
 10
2340.25
 20
204.000000000002
 30
0.0
 42
0.4142135623730951
  0
VERTEX
  5
1DE
  8
00_POCKET_HOLES_10_25MM_FR
 10
2336.25
 20
208.000000000002
 30
0.0
 42
0.4142135623730951
  0
VERTEX
  5
1DF
  8
00_POCKET_HOLES_10_25MM_FR
 10
2332.25
 20
204.000000000002
 30
0.0
 42
0.4142135623730951
  0
VERTEX
  5
1E0
  8
00_POCKET_HOLES_10_25MM_FR
 10
2336.25
 20
200.000000000002
 30
0.0
 42
0.4142135623730951
  0
SEQEND
  5
457
  8
00_POCKET_HOLES_10_25MM_FR
  0
POLYLINE
  5
A1
  8
00_POCKET_HOLES_10_25MM_FR
 66
     1
 10
0.0
 20
0.0
 30
0.0
 70
     1
  0
VERTEX
  5
1E1
  8
00_POCKET_HOLES_10_25MM_FR
 10
2041.0
 20
204.000000000002
 30
0.0
 42
0.4142135623730951
  0
VERTEX
  5
1E2
  8
00_POCKET_HOLES_10_25MM_FR
 10
2037.0
 20
208.000000000002
 30
0.0
 42
0.4142135623730951
  0
VERTEX
  5
1E3
  8
00_POCKET_HOLES_10_25MM_FR
 10
2033.0
 20
204.000000000002
 30
0.0
 42
0.4142135623730951
  0
VERTEX
  5
1E4
  8
00_POCKET_HOLES_10_25MM_FR
 10
2037.0
 20
200.000000000002
 30
0.0
 42
0.4142135623730951
  0
SEQEND
  5
458
  8
00_POCKET_HOLES_10_25MM_FR
  0
POLYLINE
  5
A2
  8
00_POCKET_HOLES_10_25MM_FR
 66
     1
 10
0.0
 20
0.0
 30
0.0
 70
     1
  0
VERTEX
  5
1E5
  8
00_POCKET_HOLES_10_25MM_FR
 10
1741.75
 20
204.000000000002
 30
0.0
 42
0.4142135623730951
  0
VERTEX
  5
1E6
  8
00_POCKET_HOLES_10_25MM_FR
 10
1737.75
 20
208.000000000002
 30
0.0
 42
0.4142135623730951
  0
VERTEX
  5
1E7
  8
00_POCKET_HOLES_10_25MM_FR
 10
1733.75
 20
204.000000000002
 30
0.0
 42
0.4142135623730951
  0
VERTEX
  5
1E8
  8
00_POCKET_HOLES_10_25MM_FR
 10
1737.75
 20
200.000000000002
 30
0.0
 42
0.4142135623730951
  0
SEQEND
  5
459
  8
00_POCKET_HOLES_10_25MM_FR
  0
POLYLINE
  5
A4
  8
01_PROFILE_HOLES_INSIDE_21
 66
     1
 10
0.0
 20
0.0
 30
0.0
 70
     1
  0
VERTEX
  5
1E9
  8
01_PROFILE_HOLES_INSIDE_21
 10
605.0000000000005
 20
1185.000000000001
 30
0.0
 42
0.4142135623730951
  0
VERTEX
  5
1EA
  8
01_PROFILE_HOLES_INSIDE_21
 10
601.0000000000005
 20
1189.000000000001
 30
0.0
 42
0.4142135623730951
  0
VERTEX
  5
1EB
  8
01_PROFILE_HOLES_INSIDE_21
 10
597.0000000000005
 20
1185.000000000001
 30
0.0
 42
0.4142135623730951
  0
VERTEX
  5
1EC
  8
01_PROFILE_HOLES_INSIDE_21
 10
601.0000000000005
 20
1181.000000000001
 30
0.0
 42
0.4142135623730951
  0
SEQEND
  5
45A
  8
01_PROFILE_HOLES_INSIDE_21
  0
POLYLINE
  5
A5
  8
01_PROFILE_HOLES_INSIDE_21
 66
     1
 10
0.0
 20
0.0
 30
0.0
 70
     1
  0
VERTEX
  5
1ED
  8
01_PROFILE_HOLES_INSIDE_21
 10
903.9931166838418
 20
1104.666661928663
 30
0.0
 42
0.4142135623730951
  0
VERTEX
  5
1EE
  8
01_PROFILE_HOLES_INSIDE_21
 10
899.9931166838418
 20
1108.666661928663
 30
0.0
 42
0.4142135623730951
  0
VERTEX
  5
1EF
  8
01_PROFILE_HOLES_INSIDE_21
 10
895.9931166838418
 20
1104.666661928663
 30
0.0
 42
0.4142135623730951
  0
VERTEX
  5
1F0
  8
01_PROFILE_HOLES_INSIDE_21
 10
899.9931166838418
 20
1100.666661928663
 30
0.0
 42
0.4142135623730951
  0
SEQEND
  5
45B
  8
01_PROFILE_HOLES_INSIDE_21
  0
POLYLINE
  5
A6
  8
01_PROFILE_HOLES_INSIDE_21
 66
     1
 10
0.0
 20
0.0
 30
0.0
 70
     1
  0
VERTEX
  5
1F1
  8
01_PROFILE_HOLES_INSIDE_21
 10
904.0000000000005
 20
1185.000000000001
 30
0.0
 42
0.4142135623730951
  0
VERTEX
  5
1F2
  8
01_PROFILE_HOLES_INSIDE_21
 10
900.0000000000005
 20
1189.000000000001
 30
0.0
 42
0.4142135623730951
  0
VERTEX
  5
1F3
  8
01_PROFILE_HOLES_INSIDE_21
 10
896.0000000000005
 20
1185.000000000001
 30
0.0
 42
0.4142135623730951
  0
VERTEX
  5
1F4
  8
01_PROFILE_HOLES_INSIDE_21
 10
900.0000000000005
 20
1181.000000000001
 30
0.0
 42
0.4142135623730951
  0
SEQEND
  5
45C
  8
01_PROFILE_HOLES_INSIDE_21
  0
POLYLINE
  5
A7
  8
01_PROFILE_HOLES_INSIDE_21
 66
     1
 10
0.0
 20
0.0
 30
0.0
 70
     1
  0
VERTEX
  5
1F5
  8
01_PROFILE_HOLES_INSIDE_21
 10
1202.993116683842
 20
1094.666661928663
 30
0.0
 42
0.4142135623730951
  0
VERTEX
  5
1F6
  8
01_PROFILE_HOLES_INSIDE_21
 10
1198.993116683842
 20
1098.666661928663
 30
0.0
 42
0.4142135623730951
  0
VERTEX
  5
1F7
  8
01_PROFILE_HOLES_INSIDE_21
 10
1194.993116683842
 20
1094.666661928663
 30
0.0
 42
0.4142135623730951
  0
VERTEX
  5
1F8
  8
01_PROFILE_HOLES_INSIDE_21
 10
1198.993116683842
 20
1090.666661928663
 30
0.0
 42
0.4142135623730951
  0
SEQEND
  5
45D
  8
01_PROFILE_HOLES_INSIDE_21
  0
POLYLINE
  5
A8
  8
01_PROFILE_HOLES_INSIDE_21
 66
     1
 10
0.0
 20
0.0
 30
0.0
 70
     1
  0
VERTEX
  5
1F9
  8
01_PROFILE_HOLES_INSIDE_21
 10
604.9931166838419
 20
1104.666661928663
 30
0.0
 42
0.4142135623730951
  0
VERTEX
  5
1FA
  8
01_PROFILE_HOLES_INSIDE_21
 10
600.9931166838419
 20
1108.666661928663
 30
0.0
 42
0.4142135623730951
  0
VERTEX
  5
1FB
  8
01_PROFILE_HOLES_INSIDE_21
 10
596.9931166838419
 20
1104.666661928663
 30
0.0
 42
0.4142135623730951
  0
VERTEX
  5
1FC
  8
01_PROFILE_HOLES_INSIDE_21
 10
600.9931166838419
 20
1100.666661928663
 30
0.0
 42
0.4142135623730951
  0
SEQEND
  5
45E
  8
01_PROFILE_HOLES_INSIDE_21
  0
POLYLINE
  5
A9
  8
01_PROFILE_HOLES_INSIDE_21
 66
     1
 10
0.0
 20
0.0
 30
0.0
 70
     1
  0
VERTEX
  5
1FD
  8
01_PROFILE_HOLES_INSIDE_21
 10
1203.0
 20
1175.000000000001
 30
0.0
 42
0.4142135623730951
  0
VERTEX
  5
1FE
  8
01_PROFILE_HOLES_INSIDE_21
 10
1199.0
 20
1179.000000000001
 30
0.0
 42
0.4142135623730951
  0
VERTEX
  5
1FF
  8
01_PROFILE_HOLES_INSIDE_21
 10
1195.0
 20
1175.000000000001
 30
0.0
 42
0.4142135623730951
  0
VERTEX
  5
200
  8
01_PROFILE_HOLES_INSIDE_21
 10
1199.0
 20
1171.000000000001
 30
0.0
 42
0.4142135623730951
  0
SEQEND
  5
45F
  8
01_PROFILE_HOLES_INSIDE_21
  0
POLYLINE
  5
AA
  8
01_PROFILE_HOLES_INSIDE_21
 66
     1
 10
0.0
 20
0.0
 30
0.0
 70
     1
  0
VERTEX
  5
201
  8
01_PROFILE_HOLES_INSIDE_21
 10
2220.999999999999
 20
865.666666666667
 30
0.0
 42
0.4142135623730951
  0
VERTEX
  5
202
  8
01_PROFILE_HOLES_INSIDE_21
 10
2216.999999999999
 20
869.666666666667
 30
0.0
 42
0.4142135623730951
  0
VERTEX
  5
203
  8
01_PROFILE_HOLES_INSIDE_21
 10
2212.999999999999
 20
865.666666666667
 30
0.0
 42
0.4142135623730951
  0
VERTEX
  5
204
  8
01_PROFILE_HOLES_INSIDE_21
 10
2216.999999999999
 20
861.666666666667
 30
0.0
 42
0.4142135623730951
  0
SEQEND
  5
460
  8
01_PROFILE_HOLES_INSIDE_21
  0
POLYLINE
  5
AB
  8
01_PROFILE_HOLES_INSIDE_21
 66
     1
 10
0.0
 20
0.0
 30
0.0
 70
     1
  0
VERTEX
  5
205
  8
01_PROFILE_HOLES_INSIDE_21
 10
1922.0
 20
865.666666666667
 30
0.0
 42
0.4142135623730951
  0
VERTEX
  5
206
  8
01_PROFILE_HOLES_INSIDE_21
 10
1918.0
 20
869.666666666667
 30
0.0
 42
0.4142135623730951
  0
VERTEX
  5
207
  8
01_PROFILE_HOLES_INSIDE_21
 10
1914.0
 20
865.666666666667
 30
0.0
 42
0.4142135623730951
  0
VERTEX
  5
208
  8
01_PROFILE_HOLES_INSIDE_21
 10
1918.0
 20
861.666666666667
 30
0.0
 42
0.4142135623730951
  0
SEQEND
  5
461
  8
01_PROFILE_HOLES_INSIDE_21
  0
POLYLINE
  5
AC
  8
01_PROFILE_HOLES_INSIDE_21
 66
     1
 10
0.0
 20
0.0
 30
0.0
 70
     1
  0
VERTEX
  5
209
  8
01_PROFILE_HOLES_INSIDE_21
 10
1623.0
 20
865.6666666666661
 30
0.0
 42
0.4142135623730951
  0
VERTEX
  5
20A
  8
01_PROFILE_HOLES_INSIDE_21
 10
1619.0
 20
869.6666666666661
 30
0.0
 42
0.4142135623730951
  0
VERTEX
  5
20B
  8
01_PROFILE_HOLES_INSIDE_21
 10
1615.0
 20
865.6666666666661
 30
0.0
 42
0.4142135623730951
  0
VERTEX
  5
20C
  8
01_PROFILE_HOLES_INSIDE_21
 10
1619.0
 20
861.6666666666661
 30
0.0
 42
0.4142135623730951
  0
SEQEND
  5
462
  8
01_PROFILE_HOLES_INSIDE_21
  0
POLYLINE
  5
AD
  8
01_PROFILE_HOLES_INSIDE_21
 66
     1
 10
0.0
 20
0.0
 30
0.0
 70
     1
  0
VERTEX
  5
20D
  8
01_PROFILE_HOLES_INSIDE_21
 10
1280.253333333333
 20
907.3741666666679
 30
0.0
 42
0.4142135623730951
  0
VERTEX
  5
20E
  8
01_PROFILE_HOLES_INSIDE_21
 10
1276.253333333333
 20
911.3741666666679
 30
0.0
 42
0.4142135623730951
  0
VERTEX
  5
20F
  8
01_PROFILE_HOLES_INSIDE_21
 10
1272.253333333333
 20
907.3741666666679
 30
0.0
 42
0.4142135623730951
  0
VERTEX
  5
210
  8
01_PROFILE_HOLES_INSIDE_21
 10
1276.253333333333
 20
903.3741666666679
 30
0.0
 42
0.4142135623730951
  0
SEQEND
  5
463
  8
01_PROFILE_HOLES_INSIDE_21
  0
POLYLINE
  5
AE
  8
01_PROFILE_HOLES_INSIDE_21
 66
     1
 10
0.0
 20
0.0
 30
0.0
 70
     1
  0
VERTEX
  5
211
  8
01_PROFILE_HOLES_INSIDE_21
 10
981.0033333333333
 20
907.3741666666679
 30
0.0
 42
0.4142135623730951
  0
VERTEX
  5
212
  8
01_PROFILE_HOLES_INSIDE_21
 10
977.0033333333333
 20
911.3741666666679
 30
0.0
 42
0.4142135623730951
  0
VERTEX
  5
213
  8
01_PROFILE_HOLES_INSIDE_21
 10
973.0033333333333
 20
907.3741666666679
 30
0.0
 42
0.4142135623730951
  0
VERTEX
  5
214
  8
01_PROFILE_HOLES_INSIDE_21
 10
977.0033333333333
 20
903.3741666666679
 30
0.0
 42
0.4142135623730951
  0
SEQEND
  5
464
  8
01_PROFILE_HOLES_INSIDE_21
  0
POLYLINE
  5
AF
  8
01_PROFILE_HOLES_INSIDE_21
 66
     1
 10
0.0
 20
0.0
 30
0.0
 70
     1
  0
VERTEX
  5
215
  8
01_PROFILE_HOLES_INSIDE_21
 10
681.7533333333333
 20
907.3741666666679
 30
0.0
 42
0.4142135623730951
  0
VERTEX
  5
216
  8
01_PROFILE_HOLES_INSIDE_21
 10
677.7533333333333
 20
911.3741666666679
 30
0.0
 42
0.4142135623730951
  0
VERTEX
  5
217
  8
01_PROFILE_HOLES_INSIDE_21
 10
673.7533333333333
 20
907.3741666666679
 30
0.0
 42
0.4142135623730951
  0
VERTEX
  5
218
  8
01_PROFILE_HOLES_INSIDE_21
 10
677.7533333333333
 20
903.3741666666679
 30
0.0
 42
0.4142135623730951
  0
SEQEND
  5
465
  8
01_PROFILE_HOLES_INSIDE_21
  0
POLYLINE
  5
B0
  8
01_PROFILE_HOLES_INSIDE_21
 66
     1
 10
0.0
 20
0.0
 30
0.0
 70
     1
  0
VERTEX
  5
219
  8
01_PROFILE_HOLES_INSIDE_21
 10
325.6225000000011
 20
404.5833333333317
 30
0.0
 42
0.4142135623730951
  0
VERTEX
  5
21A
  8
01_PROFILE_HOLES_INSIDE_21
 10
329.6225000000011
 20
408.5833333333317
 30
0.0
 42
0.4142135623730951
  0
VERTEX
  5
21B
  8
01_PROFILE_HOLES_INSIDE_21
 10
325.6225000000011
 20
412.5833333333317
 30
0.0
 42
0.4142135623730951
  0
VERTEX
  5
21C
  8
01_PROFILE_HOLES_INSIDE_21
 10
321.6225000000011
 20
408.5833333333317
 30
0.0
 42
0.4142135623730951
  0
SEQEND
  5
466
  8
01_PROFILE_HOLES_INSIDE_21
  0
POLYLINE
  5
B1
  8
01_PROFILE_HOLES_INSIDE_21
 66
     1
 10
0.0
 20
0.0
 30
0.0
 70
     1
  0
VERTEX
  5
21D
  8
01_PROFILE_HOLES_INSIDE_21
 10
325.6225000000011
 20
703.8333333333317
 30
0.0
 42
0.4142135623730951
  0
VERTEX
  5
21E
  8
01_PROFILE_HOLES_INSIDE_21
 10
329.6225000000011
 20
707.8333333333317
 30
0.0
 42
0.4142135623730951
  0
VERTEX
  5
21F
  8
01_PROFILE_HOLES_INSIDE_21
 10
325.6225000000011
 20
711.8333333333317
 30
0.0
 42
0.4142135623730951
  0
VERTEX
  5
220
  8
01_PROFILE_HOLES_INSIDE_21
 10
321.6225000000011
 20
707.8333333333317
 30
0.0
 42
0.4142135623730951
  0
SEQEND
  5
467
  8
01_PROFILE_HOLES_INSIDE_21
  0
POLYLINE
  5
B2
  8
01_PROFILE_HOLES_INSIDE_21
 66
     1
 10
0.0
 20
0.0
 30
0.0
 70
     1
  0
VERTEX
  5
221
  8
01_PROFILE_HOLES_INSIDE_21
 10
325.6225000000011
 20
1003.083333333332
 30
0.0
 42
0.4142135623730951
  0
VERTEX
  5
222
  8
01_PROFILE_HOLES_INSIDE_21
 10
329.6225000000011
 20
1007.083333333332
 30
0.0
 42
0.4142135623730951
  0
VERTEX
  5
223
  8
01_PROFILE_HOLES_INSIDE_21
 10
325.6225000000011
 20
1011.083333333332
 30
0.0
 42
0.4142135623730951
  0
VERTEX
  5
224
  8
01_PROFILE_HOLES_INSIDE_21
 10
321.6225000000011
 20
1007.083333333332
 30
0.0
 42
0.4142135623730951
  0
SEQEND
  5
468
  8
01_PROFILE_HOLES_INSIDE_21
  0
POLYLINE
  5
B3
  8
01_PROFILE_HOLES_INSIDE_21
 66
     1
 10
0.0
 20
0.0
 30
0.0
 70
     1
  0
VERTEX
  5
225
  8
01_PROFILE_HOLES_INSIDE_21
 10
166.8741666666679
 20
344.2499999999991
 30
0.0
 42
0.4142135623730951
  0
VERTEX
  5
226
  8
01_PROFILE_HOLES_INSIDE_21
 10
170.8741666666679
 20
348.2499999999991
 30
0.0
 42
0.4142135623730951
  0
VERTEX
  5
227
  8
01_PROFILE_HOLES_INSIDE_21
 10
166.8741666666679
 20
352.2499999999991
 30
0.0
 42
0.4142135623730951
  0
VERTEX
  5
228
  8
01_PROFILE_HOLES_INSIDE_21
 10
162.8741666666679
 20
348.2499999999991
 30
0.0
 42
0.4142135623730951
  0
SEQEND
  5
469
  8
01_PROFILE_HOLES_INSIDE_21
  0
POLYLINE
  5
B4
  8
01_PROFILE_HOLES_INSIDE_21
 66
     1
 10
0.0
 20
0.0
 30
0.0
 70
     1
  0
VERTEX
  5
229
  8
01_PROFILE_HOLES_INSIDE_21
 10
166.8741666666677
 20
643.5
 30
0.0
 42
0.4142135623730951
  0
VERTEX
  5
22A
  8
01_PROFILE_HOLES_INSIDE_21
 10
170.8741666666677
 20
647.5
 30
0.0
 42
0.4142135623730951
  0
VERTEX
  5
22B
  8
01_PROFILE_HOLES_INSIDE_21
 10
166.8741666666677
 20
651.5
 30
0.0
 42
0.4142135623730951
  0
VERTEX
  5
22C
  8
01_PROFILE_HOLES_INSIDE_21
 10
162.8741666666677
 20
647.5
 30
0.0
 42
0.4142135623730951
  0
SEQEND
  5
46A
  8
01_PROFILE_HOLES_INSIDE_21
  0
POLYLINE
  5
B5
  8
01_PROFILE_HOLES_INSIDE_21
 66
     1
 10
0.0
 20
0.0
 30
0.0
 70
     1
  0
VERTEX
  5
22D
  8
01_PROFILE_HOLES_INSIDE_21
 10
166.8741666666677
 20
942.7499999999991
 30
0.0
 42
0.4142135623730951
  0
VERTEX
  5
22E
  8
01_PROFILE_HOLES_INSIDE_21
 10
170.8741666666677
 20
946.7499999999991
 30
0.0
 42
0.4142135623730951
  0
VERTEX
  5
22F
  8
01_PROFILE_HOLES_INSIDE_21
 10
166.8741666666677
 20
950.7499999999991
 30
0.0
 42
0.4142135623730951
  0
VERTEX
  5
230
  8
01_PROFILE_HOLES_INSIDE_21
 10
162.8741666666677
 20
946.7499999999991
 30
0.0
 42
0.4142135623730951
  0
SEQEND
  5
46B
  8
01_PROFILE_HOLES_INSIDE_21
  0
POLYLINE
  5
B6
  8
01_PROFILE_HOLES_INSIDE_21
 66
     1
 10
0.0
 20
0.0
 30
0.0
 70
     1
  0
VERTEX
  5
231
  8
01_PROFILE_HOLES_INSIDE_21
 10
2286.083333333332
 20
617.9166666666665
 30
0.0
 42
0.4142135623730951
  0
VERTEX
  5
232
  8
01_PROFILE_HOLES_INSIDE_21
 10
2282.083333333332
 20
621.9166666666665
 30
0.0
 42
0.4142135623730951
  0
VERTEX
  5
233
  8
01_PROFILE_HOLES_INSIDE_21
 10
2278.083333333332
 20
617.9166666666665
 30
0.0
 42
0.4142135623730951
  0
VERTEX
  5
234
  8
01_PROFILE_HOLES_INSIDE_21
 10
2282.083333333332
 20
613.9166666666665
 30
0.0
 42
0.4142135623730951
  0
SEQEND
  5
46C
  8
01_PROFILE_HOLES_INSIDE_21
  0
POLYLINE
  5
B7
  8
01_PROFILE_HOLES_INSIDE_21
 66
     1
 10
0.0
 20
0.0
 30
0.0
 70
     1
  0
VERTEX
  5
235
  8
01_PROFILE_HOLES_INSIDE_21
 10
1986.833333333332
 20
617.9166666666665
 30
0.0
 42
0.4142135623730951
  0
VERTEX
  5
236
  8
01_PROFILE_HOLES_INSIDE_21
 10
1982.833333333332
 20
621.9166666666665
 30
0.0
 42
0.4142135623730951
  0
VERTEX
  5
237
  8
01_PROFILE_HOLES_INSIDE_21
 10
1978.833333333332
 20
617.9166666666665
 30
0.0
 42
0.4142135623730951
  0
VERTEX
  5
238
  8
01_PROFILE_HOLES_INSIDE_21
 10
1982.833333333332
 20
613.9166666666665
 30
0.0
 42
0.4142135623730951
  0
SEQEND
  5
46D
  8
01_PROFILE_HOLES_INSIDE_21
  0
POLYLINE
  5
B8
  8
01_PROFILE_HOLES_INSIDE_21
 66
     1
 10
0.0
 20
0.0
 30
0.0
 70
     1
  0
VERTEX
  5
239
  8
01_PROFILE_HOLES_INSIDE_21
 10
1687.583333333332
 20
617.9166666666665
 30
0.0
 42
0.4142135623730951
  0
VERTEX
  5
23A
  8
01_PROFILE_HOLES_INSIDE_21
 10
1683.583333333332
 20
621.9166666666665
 30
0.0
 42
0.4142135623730951
  0
VERTEX
  5
23B
  8
01_PROFILE_HOLES_INSIDE_21
 10
1679.583333333332
 20
617.9166666666665
 30
0.0
 42
0.4142135623730951
  0
VERTEX
  5
23C
  8
01_PROFILE_HOLES_INSIDE_21
 10
1683.583333333332
 20
613.9166666666665
 30
0.0
 42
0.4142135623730951
  0
SEQEND
  5
46E
  8
01_PROFILE_HOLES_INSIDE_21
  0
POLYLINE
  5
B9
  8
01_PROFILE_HOLES_INSIDE_21
 66
     1
 10
0.0
 20
0.0
 30
0.0
 70
     1
  0
VERTEX
  5
23D
  8
01_PROFILE_HOLES_INSIDE_21
 10
744.0833333333336
 20
627.916666666667
 30
0.0
 42
0.4142135623730951
  0
VERTEX
  5
23E
  8
01_PROFILE_HOLES_INSIDE_21
 10
740.0833333333336
 20
631.916666666667
 30
0.0
 42
0.4142135623730951
  0
VERTEX
  5
23F
  8
01_PROFILE_HOLES_INSIDE_21
 10
736.0833333333336
 20
627.916666666667
 30
0.0
 42
0.4142135623730951
  0
VERTEX
  5
240
  8
01_PROFILE_HOLES_INSIDE_21
 10
740.0833333333336
 20
623.916666666667
 30
0.0
 42
0.4142135623730951
  0
SEQEND
  5
46F
  8
01_PROFILE_HOLES_INSIDE_21
  0
POLYLINE
  5
BA
  8
01_PROFILE_HOLES_INSIDE_21
 66
     1
 10
0.0
 20
0.0
 30
0.0
 70
     1
  0
VERTEX
  5
241
  8
01_PROFILE_HOLES_INSIDE_21
 10
1342.583333333333
 20
627.916666666667
 30
0.0
 42
0.4142135623730951
  0
VERTEX
  5
242
  8
01_PROFILE_HOLES_INSIDE_21
 10
1338.583333333333
 20
631.916666666667
 30
0.0
 42
0.4142135623730951
  0
VERTEX
  5
243
  8
01_PROFILE_HOLES_INSIDE_21
 10
1334.583333333333
 20
627.916666666667
 30
0.0
 42
0.4142135623730951
  0
VERTEX
  5
244
  8
01_PROFILE_HOLES_INSIDE_21
 10
1338.583333333333
 20
623.916666666667
 30
0.0
 42
0.4142135623730951
  0
SEQEND
  5
470
  8
01_PROFILE_HOLES_INSIDE_21
  0
POLYLINE
  5
BB
  8
01_PROFILE_HOLES_INSIDE_21
 66
     1
 10
0.0
 20
0.0
 30
0.0
 70
     1
  0
VERTEX
  5
245
  8
01_PROFILE_HOLES_INSIDE_21
 10
1043.333333333333
 20
627.916666666667
 30
0.0
 42
0.4142135623730951
  0
VERTEX
  5
246
  8
01_PROFILE_HOLES_INSIDE_21
 10
1039.333333333333
 20
631.916666666667
 30
0.0
 42
0.4142135623730951
  0
VERTEX
  5
247
  8
01_PROFILE_HOLES_INSIDE_21
 10
1035.333333333333
 20
627.916666666667
 30
0.0
 42
0.4142135623730951
  0
VERTEX
  5
248
  8
01_PROFILE_HOLES_INSIDE_21
 10
1039.333333333333
 20
623.916666666667
 30
0.0
 42
0.4142135623730951
  0
SEQEND
  5
471
  8
01_PROFILE_HOLES_INSIDE_21
  0
POLYLINE
  5
BC
  8
01_PROFILE_HOLES_INSIDE_21
 66
     1
 10
0.0
 20
0.0
 30
0.0
 70
     1
  0
VERTEX
  5
249
  8
01_PROFILE_HOLES_INSIDE_21
 10
422.666666666667
 20
177.833333333333
 30
0.0
 42
0.4142135623730951
  0
VERTEX
  5
24A
  8
01_PROFILE_HOLES_INSIDE_21
 10
426.666666666667
 20
181.833333333333
 30
0.0
 42
0.4142135623730951
  0
VERTEX
  5
24B
  8
01_PROFILE_HOLES_INSIDE_21
 10
422.666666666667
 20
185.833333333333
 30
0.0
 42
0.4142135623730951
  0
VERTEX
  5
24C
  8
01_PROFILE_HOLES_INSIDE_21
 10
418.666666666667
 20
181.833333333333
 30
0.0
 42
0.4142135623730951
  0
SEQEND
  5
472
  8
01_PROFILE_HOLES_INSIDE_21
  0
POLYLINE
  5
BD
  8
01_PROFILE_HOLES_INSIDE_21
 66
     1
 10
0.0
 20
0.0
 30
0.0
 70
     1
  0
VERTEX
  5
24D
  8
01_PROFILE_HOLES_INSIDE_21
 10
422.666666666667
 20
476.8333333333326
 30
0.0
 42
0.4142135623730951
  0
VERTEX
  5
24E
  8
01_PROFILE_HOLES_INSIDE_21
 10
426.666666666667
 20
480.8333333333326
 30
0.0
 42
0.4142135623730951
  0
VERTEX
  5
24F
  8
01_PROFILE_HOLES_INSIDE_21
 10
422.666666666667
 20
484.8333333333326
 30
0.0
 42
0.4142135623730951
  0
VERTEX
  5
250
  8
01_PROFILE_HOLES_INSIDE_21
 10
418.666666666667
 20
480.8333333333326
 30
0.0
 42
0.4142135623730951
  0
SEQEND
  5
473
  8
01_PROFILE_HOLES_INSIDE_21
  0
POLYLINE
  5
BE
  8
01_PROFILE_HOLES_INSIDE_21
 66
     1
 10
0.0
 20
0.0
 30
0.0
 70
     1
  0
VERTEX
  5
251
  8
01_PROFILE_HOLES_INSIDE_21
 10
422.6666666666667
 20
775.8333333333326
 30
0.0
 42
0.4142135623730951
  0
VERTEX
  5
252
  8
01_PROFILE_HOLES_INSIDE_21
 10
426.6666666666667
 20
779.8333333333326
 30
0.0
 42
0.4142135623730951
  0
VERTEX
  5
253
  8
01_PROFILE_HOLES_INSIDE_21
 10
422.6666666666667
 20
783.8333333333326
 30
0.0
 42
0.4142135623730951
  0
VERTEX
  5
254
  8
01_PROFILE_HOLES_INSIDE_21
 10
418.6666666666667
 20
779.8333333333326
 30
0.0
 42
0.4142135623730951
  0
SEQEND
  5
474
  8
01_PROFILE_HOLES_INSIDE_21
  0
POLYLINE
  5
BF
  8
01_PROFILE_HOLES_INSIDE_21
 66
     1
 10
0.0
 20
0.0
 30
0.0
 70
     1
  0
VERTEX
  5
255
  8
01_PROFILE_HOLES_INSIDE_21
 10
2286.083333333333
 20
471.0000000000001
 30
0.0
 42
0.4142135623730951
  0
VERTEX
  5
256
  8
01_PROFILE_HOLES_INSIDE_21
 10
2282.083333333333
 20
475.0000000000001
 30
0.0
 42
0.4142135623730951
  0
VERTEX
  5
257
  8
01_PROFILE_HOLES_INSIDE_21
 10
2278.083333333333
 20
471.0000000000001
 30
0.0
 42
0.4142135623730951
  0
VERTEX
  5
258
  8
01_PROFILE_HOLES_INSIDE_21
 10
2282.083333333333
 20
467.0000000000001
 30
0.0
 42
0.4142135623730951
  0
SEQEND
  5
475
  8
01_PROFILE_HOLES_INSIDE_21
  0
POLYLINE
  5
C0
  8
01_PROFILE_HOLES_INSIDE_21
 66
     1
 10
0.0
 20
0.0
 30
0.0
 70
     1
  0
VERTEX
  5
259
  8
01_PROFILE_HOLES_INSIDE_21
 10
1986.833333333333
 20
471.0000000000001
 30
0.0
 42
0.4142135623730951
  0
VERTEX
  5
25A
  8
01_PROFILE_HOLES_INSIDE_21
 10
1982.833333333333
 20
475.0000000000001
 30
0.0
 42
0.4142135623730951
  0
VERTEX
  5
25B
  8
01_PROFILE_HOLES_INSIDE_21
 10
1978.833333333333
 20
471.0000000000001
 30
0.0
 42
0.4142135623730951
  0
VERTEX
  5
25C
  8
01_PROFILE_HOLES_INSIDE_21
 10
1982.833333333333
 20
467.0000000000001
 30
0.0
 42
0.4142135623730951
  0
SEQEND
  5
476
  8
01_PROFILE_HOLES_INSIDE_21
  0
POLYLINE
  5
C1
  8
01_PROFILE_HOLES_INSIDE_21
 66
     1
 10
0.0
 20
0.0
 30
0.0
 70
     1
  0
VERTEX
  5
25D
  8
01_PROFILE_HOLES_INSIDE_21
 10
1687.583333333333
 20
471.0000000000001
 30
0.0
 42
0.4142135623730951
  0
VERTEX
  5
25E
  8
01_PROFILE_HOLES_INSIDE_21
 10
1683.583333333333
 20
475.0000000000001
 30
0.0
 42
0.4142135623730951
  0
VERTEX
  5
25F
  8
01_PROFILE_HOLES_INSIDE_21
 10
1679.583333333333
 20
471.0000000000001
 30
0.0
 42
0.4142135623730951
  0
VERTEX
  5
260
  8
01_PROFILE_HOLES_INSIDE_21
 10
1683.583333333333
 20
467.0000000000001
 30
0.0
 42
0.4142135623730951
  0
SEQEND
  5
477
  8
01_PROFILE_HOLES_INSIDE_21
  0
POLYLINE
  5
C2
  8
01_PROFILE_HOLES_INSIDE_21
 66
     1
 10
0.0
 20
0.0
 30
0.0
 70
     1
  0
VERTEX
  5
261
  8
01_PROFILE_HOLES_INSIDE_21
 10
2286.083333333333
 20
258.9999999999999
 30
0.0
 42
0.4142135623730951
  0
VERTEX
  5
262
  8
01_PROFILE_HOLES_INSIDE_21
 10
2282.083333333333
 20
262.9999999999999
 30
0.0
 42
0.4142135623730951
  0
VERTEX
  5
263
  8
01_PROFILE_HOLES_INSIDE_21
 10
2278.083333333333
 20
258.9999999999999
 30
0.0
 42
0.4142135623730951
  0
VERTEX
  5
264
  8
01_PROFILE_HOLES_INSIDE_21
 10
2282.083333333333
 20
254.9999999999999
 30
0.0
 42
0.4142135623730951
  0
SEQEND
  5
478
  8
01_PROFILE_HOLES_INSIDE_21
  0
POLYLINE
  5
C3
  8
01_PROFILE_HOLES_INSIDE_21
 66
     1
 10
0.0
 20
0.0
 30
0.0
 70
     1
  0
VERTEX
  5
265
  8
01_PROFILE_HOLES_INSIDE_21
 10
1986.833333333333
 20
258.9999999999999
 30
0.0
 42
0.4142135623730951
  0
VERTEX
  5
266
  8
01_PROFILE_HOLES_INSIDE_21
 10
1982.833333333333
 20
262.9999999999999
 30
0.0
 42
0.4142135623730951
  0
VERTEX
  5
267
  8
01_PROFILE_HOLES_INSIDE_21
 10
1978.833333333333
 20
258.9999999999999
 30
0.0
 42
0.4142135623730951
  0
VERTEX
  5
268
  8
01_PROFILE_HOLES_INSIDE_21
 10
1982.833333333333
 20
254.9999999999999
 30
0.0
 42
0.4142135623730951
  0
SEQEND
  5
479
  8
01_PROFILE_HOLES_INSIDE_21
  0
POLYLINE
  5
C4
  8
01_PROFILE_HOLES_INSIDE_21
 66
     1
 10
0.0
 20
0.0
 30
0.0
 70
     1
  0
VERTEX
  5
269
  8
01_PROFILE_HOLES_INSIDE_21
 10
1687.583333333333
 20
258.9999999999999
 30
0.0
 42
0.4142135623730951
  0
VERTEX
  5
26A
  8
01_PROFILE_HOLES_INSIDE_21
 10
1683.583333333333
 20
262.9999999999999
 30
0.0
 42
0.4142135623730951
  0
VERTEX
  5
26B
  8
01_PROFILE_HOLES_INSIDE_21
 10
1679.583333333333
 20
258.9999999999999
 30
0.0
 42
0.4142135623730951
  0
VERTEX
  5
26C
  8
01_PROFILE_HOLES_INSIDE_21
 10
1683.583333333333
 20
254.9999999999999
 30
0.0
 42
0.4142135623730951
  0
SEQEND
  5
47A
  8
01_PROFILE_HOLES_INSIDE_21
  0
POLYLINE
  5
C5
  8
01_PROFILE_HOLES_INSIDE_21
 66
     1
 10
0.0
 20
0.0
 30
0.0
 70
     1
  0
VERTEX
  5
26D
  8
01_PROFILE_HOLES_INSIDE_21
 10
1296.826450017174
 20
316.5
 30
0.0
 42
0.4142135623730951
  0
VERTEX
  5
26E
  8
01_PROFILE_HOLES_INSIDE_21
 10
1292.826450017174
 20
320.5
 30
0.0
 42
0.4142135623730951
  0
VERTEX
  5
26F
  8
01_PROFILE_HOLES_INSIDE_21
 10
1288.826450017174
 20
316.5
 30
0.0
 42
0.4142135623730951
  0
VERTEX
  5
270
  8
01_PROFILE_HOLES_INSIDE_21
 10
1292.826450017174
 20
312.5
 30
0.0
 42
0.4142135623730951
  0
SEQEND
  5
47B
  8
01_PROFILE_HOLES_INSIDE_21
  0
POLYLINE
  5
C6
  8
01_PROFILE_HOLES_INSIDE_21
 66
     1
 10
0.0
 20
0.0
 30
0.0
 70
     1
  0
VERTEX
  5
271
  8
01_PROFILE_HOLES_INSIDE_21
 10
997.8264500171748
 20
326.5
 30
0.0
 42
0.4142135623730951
  0
VERTEX
  5
272
  8
01_PROFILE_HOLES_INSIDE_21
 10
993.8264500171748
 20
330.5
 30
0.0
 42
0.4142135623730951
  0
VERTEX
  5
273
  8
01_PROFILE_HOLES_INSIDE_21
 10
989.8264500171748
 20
326.5
 30
0.0
 42
0.4142135623730951
  0
VERTEX
  5
274
  8
01_PROFILE_HOLES_INSIDE_21
 10
993.8264500171748
 20
322.5
 30
0.0
 42
0.4142135623730951
  0
SEQEND
  5
47C
  8
01_PROFILE_HOLES_INSIDE_21
  0
POLYLINE
  5
C7
  8
01_PROFILE_HOLES_INSIDE_21
 66
     1
 10
0.0
 20
0.0
 30
0.0
 70
     1
  0
VERTEX
  5
275
  8
01_PROFILE_HOLES_INSIDE_21
 10
698.8264500171748
 20
326.5
 30
0.0
 42
0.4142135623730951
  0
VERTEX
  5
276
  8
01_PROFILE_HOLES_INSIDE_21
 10
694.8264500171748
 20
330.5
 30
0.0
 42
0.4142135623730951
  0
VERTEX
  5
277
  8
01_PROFILE_HOLES_INSIDE_21
 10
690.8264500171748
 20
326.5
 30
0.0
 42
0.4142135623730951
  0
VERTEX
  5
278
  8
01_PROFILE_HOLES_INSIDE_21
 10
694.8264500171748
 20
322.5
 30
0.0
 42
0.4142135623730951
  0
SEQEND
  5
47D
  8
01_PROFILE_HOLES_INSIDE_21
  0
POLYLINE
  5
C8
  8
01_PROFILE_HOLES_INSIDE_21
 66
     1
 10
0.0
 20
0.0
 30
0.0
 70
     1
  0
VERTEX
  5
279
  8
01_PROFILE_HOLES_INSIDE_21
 10
1619.333333333333
 20
140.166666666667
 30
0.0
 42
0.4142135623730951
  0
VERTEX
  5
27A
  8
01_PROFILE_HOLES_INSIDE_21
 10
1615.333333333333
 20
144.166666666667
 30
0.0
 42
0.4142135623730951
  0
VERTEX
  5
27B
  8
01_PROFILE_HOLES_INSIDE_21
 10
1611.333333333333
 20
140.166666666667
 30
0.0
 42
0.4142135623730951
  0
VERTEX
  5
27C
  8
01_PROFILE_HOLES_INSIDE_21
 10
1615.333333333333
 20
136.166666666667
 30
0.0
 42
0.4142135623730951
  0
SEQEND
  5
47E
  8
01_PROFILE_HOLES_INSIDE_21
  0
POLYLINE
  5
C9
  8
01_PROFILE_HOLES_INSIDE_21
 66
     1
 10
0.0
 20
0.0
 30
0.0
 70
     1
  0
VERTEX
  5
27D
  8
01_PROFILE_HOLES_INSIDE_21
 10
1320.333333333333
 20
140.166666666667
 30
0.0
 42
0.4142135623730951
  0
VERTEX
  5
27E
  8
01_PROFILE_HOLES_INSIDE_21
 10
1316.333333333333
 20
144.166666666667
 30
0.0
 42
0.4142135623730951
  0
VERTEX
  5
27F
  8
01_PROFILE_HOLES_INSIDE_21
 10
1312.333333333333
 20
140.166666666667
 30
0.0
 42
0.4142135623730951
  0
VERTEX
  5
280
  8
01_PROFILE_HOLES_INSIDE_21
 10
1316.333333333333
 20
136.166666666667
 30
0.0
 42
0.4142135623730951
  0
SEQEND
  5
47F
  8
01_PROFILE_HOLES_INSIDE_21
  0
POLYLINE
  5
CA
  8
01_PROFILE_HOLES_INSIDE_21
 66
     1
 10
0.0
 20
0.0
 30
0.0
 70
     1
  0
VERTEX
  5
281
  8
01_PROFILE_HOLES_INSIDE_21
 10
1918.333333333333
 20
140.166666666667
 30
0.0
 42
0.4142135623730951
  0
VERTEX
  5
282
  8
01_PROFILE_HOLES_INSIDE_21
 10
1914.333333333333
 20
144.166666666667
 30
0.0
 42
0.4142135623730951
  0
VERTEX
  5
283
  8
01_PROFILE_HOLES_INSIDE_21
 10
1910.333333333333
 20
140.166666666667
 30
0.0
 42
0.4142135623730951
  0
VERTEX
  5
284
  8
01_PROFILE_HOLES_INSIDE_21
 10
1914.333333333333
 20
136.166666666667
 30
0.0
 42
0.4142135623730951
  0
SEQEND
  5
480
  8
01_PROFILE_HOLES_INSIDE_21
  0
POLYLINE
  5
CC
  8
02_POCKET_1_6_83MM_FROM_BO
 66
     1
 10
0.0
 20
0.0
 30
0.0
 70
     1
  0
VERTEX
  5
285
  8
02_POCKET_1_6_83MM_FROM_BO
 10
2379.748333333333
 20
1068.496666666668
 30
0.0
  0
VERTEX
  5
286
  8
02_POCKET_1_6_83MM_FROM_BO
 10
2379.748333333333
 20
1176.000000000001
 30
0.0
  0
VERTEX
  5
287
  8
02_POCKET_1_6_83MM_FROM_BO
 10
1456.251666666667
 20
1176.000000000001
 30
0.0
  0
VERTEX
  5
288
  8
02_POCKET_1_6_83MM_FROM_BO
 10
1456.251666666667
 20
1068.496666666668
 30
0.0
  0
VERTEX
  5
289
  8
02_POCKET_1_6_83MM_FROM_BO
 10
1456.251666666667
 20
1062.496666666668
 30
0.0
  0
VERTEX
  5
28A
  8
02_POCKET_1_6_83MM_FROM_BO
 10
2379.748333333333
 20
1062.496666666668
 30
0.0
  0
SEQEND
  5
481
  8
02_POCKET_1_6_83MM_FROM_BO
  0
POLYLINE
  5
CD
  8
02_POCKET_1_6_83MM_FROM_BO
 66
     1
 10
0.0
 20
0.0
 30
0.0
 70
     1
  0
VERTEX
  5
28B
  8
02_POCKET_1_6_83MM_FROM_BO
 10
1506.836666666666
 20
797.7483333333328
 30
0.0
  0
VERTEX
  5
28C
  8
02_POCKET_1_6_83MM_FROM_BO
 10
2416.0
 20
797.7483333333328
 30
0.0
  0
VERTEX
  5
28D
  8
02_POCKET_1_6_83MM_FROM_BO
 10
2422.0
 20
797.7483333333328
 30
0.0
  0
VERTEX
  5
28E
  8
02_POCKET_1_6_83MM_FROM_BO
 10
2422.0
 20
761.4966666666676
 30
0.0
  0
VERTEX
  5
28F
  8
02_POCKET_1_6_83MM_FROM_BO
 10
2422.0
 20
755.4966666666676
 30
0.0
  0
VERTEX
  5
290
  8
02_POCKET_1_6_83MM_FROM_BO
 10
1506.836666666666
 20
755.4966666666676
 30
0.0
  0
VERTEX
  5
291
  8
02_POCKET_1_6_83MM_FROM_BO
 10
1500.836666666666
 20
755.4966666666676
 30
0.0
  0
VERTEX
  5
292
  8
02_POCKET_1_6_83MM_FROM_BO
 10
1500.836666666666
 20
797.7483333333328
 30
0.0
  0
SEQEND
  5
482
  8
02_POCKET_1_6_83MM_FROM_BO
  0
POLYLINE
  5
CE
  8
02_POCKET_1_6_83MM_FROM_BO
 66
     1
 10
0.0
 20
0.0
 30
0.0
 70
     1
  0
VERTEX
  5
293
  8
02_POCKET_1_6_83MM_FROM_BO
 10
575.3366666666648
 20
794.2483333333319
 30
0.0
  0
VERTEX
  5
294
  8
02_POCKET_1_6_83MM_FROM_BO
 10
1484.5
 20
794.2483333333319
 30
0.0
  0
VERTEX
  5
295
  8
02_POCKET_1_6_83MM_FROM_BO
 10
1490.5
 20
794.2483333333319
 30
0.0
  0
VERTEX
  5
296
  8
02_POCKET_1_6_83MM_FROM_BO
 10
1490.5
 20
830.5000000000007
 30
0.0
  0
VERTEX
  5
297
  8
02_POCKET_1_6_83MM_FROM_BO
 10
1490.5
 20
836.5000000000007
 30
0.0
  0
VERTEX
  5
298
  8
02_POCKET_1_6_83MM_FROM_BO
 10
575.3366666666648
 20
836.5000000000007
 30
0.0
  0
VERTEX
  5
299
  8
02_POCKET_1_6_83MM_FROM_BO
 10
569.3366666666648
 20
836.5000000000007
 30
0.0
  0
VERTEX
  5
29A
  8
02_POCKET_1_6_83MM_FROM_BO
 10
569.3366666666648
 20
794.2483333333319
 30
0.0
  0
SEQEND
  5
483
  8
02_POCKET_1_6_83MM_FROM_BO
  0
POLYLINE
  5
CF
  8
02_POCKET_1_6_83MM_FROM_BO
 66
     1
 10
0.0
 20
0.0
 30
0.0
 70
     1
  0
VERTEX
  5
29B
  8
02_POCKET_1_6_83MM_FROM_BO
 10
2379.748333333334
 20
735.5000000000006
 30
0.0
  0
VERTEX
  5
29C
  8
02_POCKET_1_6_83MM_FROM_BO
 10
2379.748333333334
 20
727.1666666666675
 30
0.0
  0
VERTEX
  5
29D
  8
02_POCKET_1_6_83MM_FROM_BO
 10
1456.251666666668
 20
727.1666666666674
 30
0.0
  0
VERTEX
  5
29E
  8
02_POCKET_1_6_83MM_FROM_BO
 10
1456.251666666668
 20
735.5000000000005
 30
0.0
  0
VERTEX
  5
29F
  8
02_POCKET_1_6_83MM_FROM_BO
 10
1456.251666666668
 20
741.5000000000005
 30
0.0
  0
VERTEX
  5
2A0
  8
02_POCKET_1_6_83MM_FROM_BO
 10
2379.748333333334
 20
741.5000000000008
 30
0.0
  0
SEQEND
  5
484
  8
02_POCKET_1_6_83MM_FROM_BO
  0
POLYLINE
  5
D0
  8
02_POCKET_1_6_83MM_FROM_BO
 66
     1
 10
0.0
 20
0.0
 30
0.0
 70
     1
  0
VERTEX
  5
2A1
  8
02_POCKET_1_6_83MM_FROM_BO
 10
1456.251666666668
 20
694.1666666666679
 30
0.0
  0
VERTEX
  5
2A2
  8
02_POCKET_1_6_83MM_FROM_BO
 10
2379.748333333334
 20
694.166666666668
 30
0.0
  0
VERTEX
  5
2A3
  8
02_POCKET_1_6_83MM_FROM_BO
 10
2379.748333333334
 20
716.1666666666677
 30
0.0
  0
VERTEX
  5
2A4
  8
02_POCKET_1_6_83MM_FROM_BO
 10
1456.251666666668
 20
716.1666666666675
 30
0.0
  0
SEQEND
  5
485
  8
02_POCKET_1_6_83MM_FROM_BO
  0
POLYLINE
  5
D2
  8
03_POCKET_2_8MM_FROM_BOTTO
 66
     1
 10
0.0
 20
0.0
 30
0.0
 70
     1
  0
VERTEX
  5
2A5
  8
03_POCKET_2_8MM_FROM_BOTTO
 10
1398.0
 20
947.666666666667
 30
0.0
  0
VERTEX
  5
2A6
  8
03_POCKET_2_8MM_FROM_BOTTO
 10
1398.0
 20
1046.0
 30
0.0
  0
VERTEX
  5
2A7
  8
03_POCKET_2_8MM_FROM_BOTTO
 10
402.0000000000013
 20
1046.0
 30
0.0
  0
VERTEX
  5
2A8
  8
03_POCKET_2_8MM_FROM_BOTTO
 10
402.0000000000013
 20
947.666666666667
 30
0.0
  0
SEQEND
  5
486
  8
03_POCKET_2_8MM_FROM_BOTTO
  0
POLYLINE
  5
D4
  8
04_POCKET_3_10_25_FROM_BOT
 66
     1
 10
0.0
 20
0.0
 30
0.0
 70
     1
  0
VERTEX
  5
2A9
  8
04_POCKET_3_10_25_FROM_BOT
 10
1420.000000000001
 20
916.5
 30
0.0
  0
VERTEX
  5
2AA
  8
04_POCKET_3_10_25_FROM_BOT
 10
1414.0
 20
916.5
 30
0.0
  0
VERTEX
  5
2AB
  8
04_POCKET_3_10_25_FROM_BOT
 10
1414.0
 20
925.5
 30
0.0
  0
VERTEX
  5
2AC
  8
04_POCKET_3_10_25_FROM_BOT
 10
1414.0
 20
931.5
 30
0.0
  0
VERTEX
  5
2AD
  8
04_POCKET_3_10_25_FROM_BOT
 10
2416.0
 20
931.5
 30
0.0
  0
VERTEX
  5
2AE
  8
04_POCKET_3_10_25_FROM_BOT
 10
2422.0
 20
931.5
 30
0.0
  0
VERTEX
  5
2AF
  8
04_POCKET_3_10_25_FROM_BOT
 10
2422.0
 20
916.5
 30
0.0
  0
VERTEX
  5
2B0
  8
04_POCKET_3_10_25_FROM_BOT
 10
2416.0
 20
916.5
 30
0.0
  0
SEQEND
  5
487
  8
04_POCKET_3_10_25_FROM_BOT
  0
POLYLINE
  5
D5
  8
04_POCKET_3_10_25_FROM_BOT
 66
     1
 10
0.0
 20
0.0
 30
0.0
 70
     1
  0
VERTEX
  5
2B1
  8
04_POCKET_3_10_25_FROM_BOT
 10
497.8366666666664
 20
925.5000000000007
 30
0.0
  0
VERTEX
  5
2B2
  8
04_POCKET_3_10_25_FROM_BOT
 10
497.8366666666664
 20
856.1666666666667
 30
0.0
  0
VERTEX
  5
2B3
  8
04_POCKET_3_10_25_FROM_BOT
 10
1398.0
 20
856.1666666666667
 30
0.0
  0
VERTEX
  5
2B4
  8
04_POCKET_3_10_25_FROM_BOT
 10
1404.0
 20
856.1666666666667
 30
0.0
  0
VERTEX
  5
2B5
  8
04_POCKET_3_10_25_FROM_BOT
 10
1404.0
 20
852.9966666666667
 30
0.0
  0
VERTEX
  5
2B6
  8
04_POCKET_3_10_25_FROM_BOT
 10
1404.0
 20
846.9966666666678
 30
0.0
  0
VERTEX
  5
2B7
  8
04_POCKET_3_10_25_FROM_BOT
 10
488.8366666666664
 20
846.9966666666678
 30
0.0
  0
VERTEX
  5
2B8
  8
04_POCKET_3_10_25_FROM_BOT
 10
482.8366666666664
 20
846.9966666666678
 30
0.0
  0
VERTEX
  5
2B9
  8
04_POCKET_3_10_25_FROM_BOT
 10
482.8366666666664
 20
925.5000000000007
 30
0.0
  0
VERTEX
  5
2BA
  8
04_POCKET_3_10_25_FROM_BOT
 10
482.8366666666664
 20
931.5000000000007
 30
0.0
  0
VERTEX
  5
2BB
  8
04_POCKET_3_10_25_FROM_BOT
 10
497.8366666666664
 20
931.4999999999998
 30
0.0
  0
SEQEND
  5
488
  8
04_POCKET_3_10_25_FROM_BOT
  0
POLYLINE
  5
D6
  8
04_POCKET_3_10_25_FROM_BOT
 66
     1
 10
0.0
 20
0.0
 30
0.0
 70
     1
  0
VERTEX
  5
2BC
  8
04_POCKET_3_10_25_FROM_BOT
 10
307.496666666668
 20
1186.999999999998
 30
0.0
  0
VERTEX
  5
2BD
  8
04_POCKET_3_10_25_FROM_BOT
 10
301.496666666668
 20
1186.999999999998
 30
0.0
  0
VERTEX
  5
2BE
  8
04_POCKET_3_10_25_FROM_BOT
 10
301.496666666668
 20
1196.0
 30
0.0
  0
VERTEX
  5
2BF
  8
04_POCKET_3_10_25_FROM_BOT
 10
301.496666666668
 20
1202.0
 30
0.0
  0
VERTEX
  5
2C0
  8
04_POCKET_3_10_25_FROM_BOT
 10
380.0000000000002
 20
1202.0
 30
0.0
  0
VERTEX
  5
2C1
  8
04_POCKET_3_10_25_FROM_BOT
 10
385.9999999999991
 20
1202.0
 30
0.0
  0
VERTEX
  5
2C2
  8
04_POCKET_3_10_25_FROM_BOT
 10
386.0000000000005
 20
286.8366666666648
 30
0.0
  0
VERTEX
  5
2C3
  8
04_POCKET_3_10_25_FROM_BOT
 10
386.0000000000005
 20
280.8366666666648
 30
0.0
  0
VERTEX
  5
2C4
  8
04_POCKET_3_10_25_FROM_BOT
 10
376.8300000000004
 20
280.8366666666648
 30
0.0
  0
VERTEX
  5
2C5
  8
04_POCKET_3_10_25_FROM_BOT
 10
376.8300000000004
 20
286.8366666666648
 30
0.0
  0
VERTEX
  5
2C6
  8
04_POCKET_3_10_25_FROM_BOT
 10
376.8300000000002
 20
1186.999999999998
 30
0.0
  0
SEQEND
  5
489
  8
04_POCKET_3_10_25_FROM_BOT
  0
POLYLINE
  5
D7
  8
04_POCKET_3_10_25_FROM_BOT
 66
     1
 10
0.0
 20
0.0
 30
0.0
 70
     1
  0
VERTEX
  5
2C7
  8
04_POCKET_3_10_25_FROM_BOT
 10
210.5000000000002
 20
1195.999999999999
 30
0.0
  0
VERTEX
  5
2C8
  8
04_POCKET_3_10_25_FROM_BOT
 10
210.5000000000002
 20
413.9999999999991
 30
0.0
  0
VERTEX
  5
2C9
  8
04_POCKET_3_10_25_FROM_BOT
 10
210.5000000000002
 20
407.9999999999991
 30
0.0
  0
VERTEX
  5
2CA
  8
04_POCKET_3_10_25_FROM_BOT
 10
207.3300000000002
 20
407.9999999999991
 30
0.0
  0
VERTEX
  5
2CB
  8
04_POCKET_3_10_25_FROM_BOT
 10
201.3300000000002
 20
407.9999999999991
 30
0.0
  0
VERTEX
  5
2CC
  8
04_POCKET_3_10_25_FROM_BOT
 10
201.3300000000002
 20
1195.999999999999
 30
0.0
  0
VERTEX
  5
2CD
  8
04_POCKET_3_10_25_FROM_BOT
 10
201.3300000000002
 20
1201.999999999999
 30
0.0
  0
VERTEX
  5
2CE
  8
04_POCKET_3_10_25_FROM_BOT
 10
210.5000000000002
 20
1201.999999999999
 30
0.0
  0
SEQEND
  5
48A
  8
04_POCKET_3_10_25_FROM_BOT
  0
POLYLINE
  5
D9
  8
05_POCKET_4_16_25_FROM_BOT
 66
     1
 10
0.0
 20
0.0
 30
0.0
 70
     1
  0
VERTEX
  5
2CF
  8
05_POCKET_4_16_25_FROM_BOT
 10
269.5000000000014
 20
1195.999999999999
 30
0.0
  0
VERTEX
  5
2D0
  8
05_POCKET_4_16_25_FROM_BOT
 10
269.5000000000014
 20
413.9999999999991
 30
0.0
  0
VERTEX
  5
2D1
  8
05_POCKET_4_16_25_FROM_BOT
 10
269.5000000000014
 20
407.9999999999991
 30
0.0
  0
VERTEX
  5
2D2
  8
05_POCKET_4_16_25_FROM_BOT
 10
285.0000000000002
 20
407.9999999999991
 30
0.0
  0
VERTEX
  5
2D3
  8
05_POCKET_4_16_25_FROM_BOT
 10
291.0000000000002
 20
407.9999999999991
 30
0.0
  0
VERTEX
  5
2D4
  8
05_POCKET_4_16_25_FROM_BOT
 10
291.0000000000002
 20
1195.999999999999
 30
0.0
  0
VERTEX
  5
2D5
  8
05_POCKET_4_16_25_FROM_BOT
 10
291.0000000000002
 20
1201.999999999999
 30
0.0
  0
VERTEX
  5
2D6
  8
05_POCKET_4_16_25_FROM_BOT
 10
269.5000000000014
 20
1201.999999999999
 30
0.0
  0
SEQEND
  5
48B
  8
05_POCKET_4_16_25_FROM_BOT
  0
POLYLINE
  5
DA
  8
05_POCKET_4_16_25_FROM_BOT
 66
     1
 10
0.0
 20
0.0
 30
0.0
 70
     1
  0
VERTEX
  5
2D7
  8
05_POCKET_4_16_25_FROM_BOT
 10
616.9999999999999
 20
449.3333333333331
 30
0.0
  0
VERTEX
  5
2D8
  8
05_POCKET_4_16_25_FROM_BOT
 10
1399.0
 20
449.3333333333332
 30
0.0
  0
VERTEX
  5
2D9
  8
05_POCKET_4_16_25_FROM_BOT
 10
1404.999999999999
 20
449.3333333333332
 30
0.0
  0
VERTEX
  5
2DA
  8
05_POCKET_4_16_25_FROM_BOT
 10
1404.999999999999
 20
433.8333333333334
 30
0.0
  0
VERTEX
  5
2DB
  8
05_POCKET_4_16_25_FROM_BOT
 10
1404.999999999999
 20
427.8333333333334
 30
0.0
  0
VERTEX
  5
2DC
  8
05_POCKET_4_16_25_FROM_BOT
 10
616.9999999999999
 20
427.8333333333334
 30
0.0
  0
VERTEX
  5
2DD
  8
05_POCKET_4_16_25_FROM_BOT
 10
610.9999999999987
 20
427.8333333333334
 30
0.0
  0
VERTEX
  5
2DE
  8
05_POCKET_4_16_25_FROM_BOT
 10
610.9999999999987
 20
449.3333333333331
 30
0.0
  0
SEQEND
  5
48C
  8
05_POCKET_4_16_25_FROM_BOT
  0
POLYLINE
  5
DB
  8
05_POCKET_4_16_25_FROM_BOT
 66
     1
 10
0.0
 20
0.0
 30
0.0
 70
     1
  0
VERTEX
  5
2DF
  8
05_POCKET_4_16_25_FROM_BOT
 10
616.0000000000002
 20
396.0000000000002
 30
0.0
  0
VERTEX
  5
2E0
  8
05_POCKET_4_16_25_FROM_BOT
 10
1398.0
 20
396.0000000000002
 30
0.0
  0
VERTEX
  5
2E1
  8
05_POCKET_4_16_25_FROM_BOT
 10
1404.0
 20
396.0000000000002
 30
0.0
  0
VERTEX
  5
2E2
  8
05_POCKET_4_16_25_FROM_BOT
 10
1404.0
 20
411.5000000000002
 30
0.0
  0
VERTEX
  5
2E3
  8
05_POCKET_4_16_25_FROM_BOT
 10
1404.0
 20
417.5000000000002
 30
0.0
  0
VERTEX
  5
2E4
  8
05_POCKET_4_16_25_FROM_BOT
 10
616.0000000000002
 20
417.5000000000002
 30
0.0
  0
VERTEX
  5
2E5
  8
05_POCKET_4_16_25_FROM_BOT
 10
610.0000000000003
 20
417.5000000000002
 30
0.0
  0
VERTEX
  5
2E6
  8
05_POCKET_4_16_25_FROM_BOT
 10
610.0000000000003
 20
396.0000000000002
 30
0.0
  0
SEQEND
  5
48D
  8
05_POCKET_4_16_25_FROM_BOT
  0
POLYLINE
  5
DC
  8
05_POCKET_4_16_25_FROM_BOT
 66
     1
 10
0.0
 20
0.0
 30
0.0
 70
     1
  0
VERTEX
  5
2E7
  8
05_POCKET_4_16_25_FROM_BOT
 10
696.5
 20
188.0000000000007
 30
0.0
  0
VERTEX
  5
2E8
  8
05_POCKET_4_16_25_FROM_BOT
 10
690.5
 20
188.0000000000007
 30
0.0
  0
VERTEX
  5
2E9
  8
05_POCKET_4_16_25_FROM_BOT
 10
690.5
 20
172.4999999999986
 30
0.0
  0
VERTEX
  5
2EA
  8
05_POCKET_4_16_25_FROM_BOT
 10
690.5
 20
166.4999999999986
 30
0.0
  0
VERTEX
  5
2EB
  8
05_POCKET_4_16_25_FROM_BOT
 10
1478.5
 20
166.4999999999986
 30
0.0
  0
VERTEX
  5
2EC
  8
05_POCKET_4_16_25_FROM_BOT
 10
1484.5
 20
166.4999999999986
 30
0.0
  0
VERTEX
  5
2ED
  8
05_POCKET_4_16_25_FROM_BOT
 10
1484.5
 20
188.0000000000007
 30
0.0
  0
VERTEX
  5
2EE
  8
05_POCKET_4_16_25_FROM_BOT
 10
1478.5
 20
188.0000000000007
 30
0.0
  0
SEQEND
  5
48E
  8
05_POCKET_4_16_25_FROM_BOT
  0
POLYLINE
  5
DE
  8
06_POCKET_5_14_5_FROM_BOT0
 66
     1
 10
0.0
 20
0.0
 30
0.0
 70
     1
  0
VERTEX
  5
2EF
  8
06_POCKET_5_14_5_FROM_BOT0
 10
1510.666666666666
 20
598.8333333333331
 30
0.0
  0
VERTEX
  5
2F0
  8
06_POCKET_5_14_5_FROM_BOT0
 10
1510.666666666666
 20
637.0000000000006
 30
0.0
  0
VERTEX
  5
2F1
  8
06_POCKET_5_14_5_FROM_BOT0
 10
2400.0
 20
637.0000000000006
 30
0.0
  0
VERTEX
  5
2F2
  8
06_POCKET_5_14_5_FROM_BOT0
 10
2400.0
 20
598.8333333333333
 30
0.0
  0
VERTEX
  5
2F3
  8
06_POCKET_5_14_5_FROM_BOT0
 10
2400.0
 20
592.8333333333333
 30
0.0
  0
VERTEX
  5
2F4
  8
06_POCKET_5_14_5_FROM_BOT0
 10
2416.0
 20
592.8333333333333
 30
0.0
  0
VERTEX
  5
2F5
  8
06_POCKET_5_14_5_FROM_BOT0
 10
2422.0
 20
592.8333333333333
 30
0.0
  0
VERTEX
  5
2F6
  8
06_POCKET_5_14_5_FROM_BOT0
 10
2422.0
 20
653.0000000000006
 30
0.0
  0
VERTEX
  5
2F7
  8
06_POCKET_5_14_5_FROM_BOT0
 10
2422.0
 20
659.0000000000006
 30
0.0
  0
VERTEX
  5
2F8
  8
06_POCKET_5_14_5_FROM_BOT0
 10
1494.666666666666
 20
659.0000000000006
 30
0.0
  0
VERTEX
  5
2F9
  8
06_POCKET_5_14_5_FROM_BOT0
 10
1488.666666666666
 20
659.0000000000006
 30
0.0
  0
VERTEX
  5
2FA
  8
06_POCKET_5_14_5_FROM_BOT0
 10
1488.666666666666
 20
598.8333333333331
 30
0.0
  0
VERTEX
  5
2FB
  8
06_POCKET_5_14_5_FROM_BOT0
 10
1488.666666666666
 20
592.8333333333331
 30
0.0
  0
VERTEX
  5
2FC
  8
06_POCKET_5_14_5_FROM_BOT0
 10
1510.666666666666
 20
592.8333333333333
 30
0.0
  0
SEQEND
  5
48F
  8
06_POCKET_5_14_5_FROM_BOT0
  0
POLYLINE
  5
DF
  8
06_POCKET_5_14_5_FROM_BOT0
 66
     1
 10
0.0
 20
0.0
 30
0.0
 70
     1
  0
VERTEX
  5
2FD
  8
06_POCKET_5_14_5_FROM_BOT0
 10
567.1666666666665
 20
647.0
 30
0.0
  0
VERTEX
  5
2FE
  8
06_POCKET_5_14_5_FROM_BOT0
 10
567.1666666666665
 20
608.8333333333328
 30
0.0
  0
VERTEX
  5
2FF
  8
06_POCKET_5_14_5_FROM_BOT0
 10
1456.5
 20
608.8333333333328
 30
0.0
  0
VERTEX
  5
300
  8
06_POCKET_5_14_5_FROM_BOT0
 10
1456.5
 20
647.0
 30
0.0
  0
VERTEX
  5
301
  8
06_POCKET_5_14_5_FROM_BOT0
 10
1456.5
 20
653.0
 30
0.0
  0
VERTEX
  5
302
  8
06_POCKET_5_14_5_FROM_BOT0
 10
1472.5
 20
653.0
 30
0.0
  0
VERTEX
  5
303
  8
06_POCKET_5_14_5_FROM_BOT0
 10
1478.5
 20
653.0
 30
0.0
  0
VERTEX
  5
304
  8
06_POCKET_5_14_5_FROM_BOT0
 10
1478.5
 20
592.8333333333328
 30
0.0
  0
VERTEX
  5
305
  8
06_POCKET_5_14_5_FROM_BOT0
 10
1478.5
 20
586.8333333333319
 30
0.0
  0
VERTEX
  5
306
  8
06_POCKET_5_14_5_FROM_BOT0
 10
551.1666666666664
 20
586.8333333333319
 30
0.0
  0
VERTEX
  5
307
  8
06_POCKET_5_14_5_FROM_BOT0
 10
545.1666666666664
 20
586.8333333333319
 30
0.0
  0
VERTEX
  5
308
  8
06_POCKET_5_14_5_FROM_BOT0
 10
545.1666666666664
 20
647.0
 30
0.0
  0
VERTEX
  5
309
  8
06_POCKET_5_14_5_FROM_BOT0
 10
545.1666666666664
 20
653.0
 30
0.0
  0
VERTEX
  5
30A
  8
06_POCKET_5_14_5_FROM_BOT0
 10
567.1666666666663
 20
653.0
 30
0.0
  0
SEQEND
  5
490
  8
06_POCKET_5_14_5_FROM_BOT0
  0
POLYLINE
  5
E0
  8
06_POCKET_5_14_5_FROM_BOT0
 66
     1
 10
0.0
 20
0.0
 30
0.0
 70
     1
  0
VERTEX
  5
30B
  8
06_POCKET_5_14_5_FROM_BOT0
 10
1510.666666666665
 20
487.5000000000007
 30
0.0
  0
VERTEX
  5
30C
  8
06_POCKET_5_14_5_FROM_BOT0
 10
1510.666666666665
 20
454.5
 30
0.0
  0
VERTEX
  5
30D
  8
06_POCKET_5_14_5_FROM_BOT0
 10
2400.0
 20
454.5000000000001
 30
0.0
  0
VERTEX
  5
30E
  8
06_POCKET_5_14_5_FROM_BOT0
 10
2400.0
 20
487.5000000000001
 30
0.0
  0
VERTEX
  5
30F
  8
06_POCKET_5_14_5_FROM_BOT0
 10
2400.0
 20
493.5000000000002
 30
0.0
  0
VERTEX
  5
310
  8
06_POCKET_5_14_5_FROM_BOT0
 10
2416.0
 20
493.5000000000002
 30
0.0
  0
VERTEX
  5
311
  8
06_POCKET_5_14_5_FROM_BOT0
 10
2422.0
 20
493.5000000000002
 30
0.0
  0
VERTEX
  5
312
  8
06_POCKET_5_14_5_FROM_BOT0
 10
2422.0
 20
433.3333333333333
 30
0.0
  0
VERTEX
  5
313
  8
06_POCKET_5_14_5_FROM_BOT0
 10
2422.0
 20
427.3333333333334
 30
0.0
  0
VERTEX
  5
314
  8
06_POCKET_5_14_5_FROM_BOT0
 10
1494.666666666665
 20
427.3333333333333
 30
0.0
  0
VERTEX
  5
315
  8
06_POCKET_5_14_5_FROM_BOT0
 10
1488.666666666666
 20
427.3333333333333
 30
0.0
  0
VERTEX
  5
316
  8
06_POCKET_5_14_5_FROM_BOT0
 10
1488.666666666666
 20
487.5
 30
0.0
  0
VERTEX
  5
317
  8
06_POCKET_5_14_5_FROM_BOT0
 10
1488.666666666666
 20
493.5000000000001
 30
0.0
  0
VERTEX
  5
318
  8
06_POCKET_5_14_5_FROM_BOT0
 10
1510.666666666665
 20
493.5000000000001
 30
0.0
  0
SEQEND
  5
491
  8
06_POCKET_5_14_5_FROM_BOT0
  0
POLYLINE
  5
E1
  8
06_POCKET_5_14_5_FROM_BOT0
 66
     1
 10
0.0
 20
0.0
 30
0.0
 70
     1
  0
VERTEX
  5
319
  8
06_POCKET_5_14_5_FROM_BOT0
 10
1510.666666666665
 20
285.5000000000008
 30
0.0
  0
VERTEX
  5
31A
  8
06_POCKET_5_14_5_FROM_BOT0
 10
1510.666666666665
 20
291.5000000000009
 30
0.0
  0
VERTEX
  5
31B
  8
06_POCKET_5_14_5_FROM_BOT0
 10
1494.666666666665
 20
291.5000000000009
 30
0.0
  0
VERTEX
  5
31C
  8
06_POCKET_5_14_5_FROM_BOT0
 10
1488.666666666665
 20
291.5000000000009
 30
0.0
  0
VERTEX
  5
31D
  8
06_POCKET_5_14_5_FROM_BOT0
 10
1488.666666666665
 20
242.5000000000007
 30
0.0
  0
VERTEX
  5
31E
  8
06_POCKET_5_14_5_FROM_BOT0
 10
1488.666666666665
 20
236.4999999999998
 30
0.0
  0
VERTEX
  5
31F
  8
06_POCKET_5_14_5_FROM_BOT0
 10
1510.666666666665
 20
236.4999999999998
 30
0.0
  0
VERTEX
  5
320
  8
06_POCKET_5_14_5_FROM_BOT0
 10
1510.666666666665
 20
242.5000000000007
 30
0.0
  0
SEQEND
  5
492
  8
06_POCKET_5_14_5_FROM_BOT0
  0
POLYLINE
  5
E2
  8
06_POCKET_5_14_5_FROM_BOT0
 66
     1
 10
0.0
 20
0.0
 30
0.0
 70
     1
  0
VERTEX
  5
321
  8
06_POCKET_5_14_5_FROM_BOT0
 10
2400.0
 20
285.5000000000009
 30
0.0
  0
VERTEX
  5
322
  8
06_POCKET_5_14_5_FROM_BOT0
 10
2400.0
 20
291.500000000001
 30
0.0
  0
VERTEX
  5
323
  8
06_POCKET_5_14_5_FROM_BOT0
 10
2416.0
 20
291.500000000001
 30
0.0
  0
VERTEX
  5
324
  8
06_POCKET_5_14_5_FROM_BOT0
 10
2422.0
 20
291.500000000001
 30
0.0
  0
VERTEX
  5
325
  8
06_POCKET_5_14_5_FROM_BOT0
 10
2422.0
 20
242.5000000000008
 30
0.0
  0
VERTEX
  5
326
  8
06_POCKET_5_14_5_FROM_BOT0
 10
2422.0
 20
236.5000000000008
 30
0.0
  0
VERTEX
  5
327
  8
06_POCKET_5_14_5_FROM_BOT0
 10
2400.0
 20
236.5000000000008
 30
0.0
  0
VERTEX
  5
328
  8
06_POCKET_5_14_5_FROM_BOT0
 10
2400.0
 20
242.5000000000008
 30
0.0
  0
SEQEND
  5
493
  8
06_POCKET_5_14_5_FROM_BOT0
  0
POLYLINE
  5
E4
  8
07_POCKET_6_19_5_FROM_BOTT
 66
     1
 10
0.0
 20
0.0
 30
0.0
 70
     1
  0
VERTEX
  5
329
  8
07_POCKET_6_19_5_FROM_BOTT
 10
585.0000000000006
 20
681.333333333333
 30
0.0
  0
VERTEX
  5
32A
  8
07_POCKET_6_19_5_FROM_BOTT
 10
1398.0
 20
681.333333333333
 30
0.0
  0
VERTEX
  5
32B
  8
07_POCKET_6_19_5_FROM_BOTT
 10
1404.0
 20
681.333333333333
 30
0.0
  0
VERTEX
  5
32C
  8
07_POCKET_6_19_5_FROM_BOTT
 10
1404.0
 20
669.333333333333
 30
0.0
  0
VERTEX
  5
32D
  8
07_POCKET_6_19_5_FROM_BOTT
 10
1404.0
 20
663.333333333333
 30
0.0
  0
VERTEX
  5
32E
  8
07_POCKET_6_19_5_FROM_BOTT
 10
585.0000000000008
 20
663.333333333333
 30
0.0
  0
VERTEX
  5
32F
  8
07_POCKET_6_19_5_FROM_BOTT
 10
579.0000000000008
 20
663.333333333333
 30
0.0
  0
VERTEX
  5
330
  8
07_POCKET_6_19_5_FROM_BOTT
 10
579.0000000000008
 20
681.333333333333
 30
0.0
  0
SEQEND
  5
494
  8
07_POCKET_6_19_5_FROM_BOTT
  0
POLYLINE
  5
E5
  8
07_POCKET_6_19_5_FROM_BOTT
 66
     1
 10
0.0
 20
0.0
 30
0.0
 70
     1
  0
VERTEX
  5
331
  8
07_POCKET_6_19_5_FROM_BOTT
 10
1602.999999999999
 20
564.5000000000011
 30
0.0
  0
VERTEX
  5
332
  8
07_POCKET_6_19_5_FROM_BOTT
 10
2416.0
 20
564.5000000000011
 30
0.0
  0
VERTEX
  5
333
  8
07_POCKET_6_19_5_FROM_BOTT
 10
2422.0
 20
564.5000000000011
 30
0.0
  0
VERTEX
  5
334
  8
07_POCKET_6_19_5_FROM_BOTT
 10
2422.0
 20
576.5000000000007
 30
0.0
  0
VERTEX
  5
335
  8
07_POCKET_6_19_5_FROM_BOTT
 10
2422.0
 20
582.5000000000007
 30
0.0
  0
VERTEX
  5
336
  8
07_POCKET_6_19_5_FROM_BOTT
 10
1603.0
 20
582.5000000000006
 30
0.0
  0
VERTEX
  5
337
  8
07_POCKET_6_19_5_FROM_BOTT
 10
1597.0
 20
582.5000000000006
 30
0.0
  0
VERTEX
  5
338
  8
07_POCKET_6_19_5_FROM_BOTT
 10
1597.0
 20
564.5000000000011
 30
0.0
  0
SEQEND
  5
495
  8
07_POCKET_6_19_5_FROM_BOTT
  0
POLYLINE
  5
E6
  8
07_POCKET_6_19_5_FROM_BOTT
 66
     1
 10
0.0
 20
0.0
 30
0.0
 70
     1
  0
VERTEX
  5
339
  8
07_POCKET_6_19_5_FROM_BOTT
 10
768.0000000000002
 20
521.5000000000007
 30
0.0
  0
VERTEX
  5
33A
  8
07_POCKET_6_19_5_FROM_BOTT
 10
1581.0
 20
521.5000000000007
 30
0.0
  0
VERTEX
  5
33B
  8
07_POCKET_6_19_5_FROM_BOTT
 10
1587.0
 20
521.5000000000007
 30
0.0
  0
VERTEX
  5
33C
  8
07_POCKET_6_19_5_FROM_BOTT
 10
1587.0
 20
509.5000000000016
 30
0.0
  0
VERTEX
  5
33D
  8
07_POCKET_6_19_5_FROM_BOTT
 10
1587.0
 20
503.5000000000016
 30
0.0
  0
VERTEX
  5
33E
  8
07_POCKET_6_19_5_FROM_BOTT
 10
768.0000000000002
 20
503.5000000000016
 30
0.0
  0
VERTEX
  5
33F
  8
07_POCKET_6_19_5_FROM_BOTT
 10
762.0000000000002
 20
503.5000000000016
 30
0.0
  0
VERTEX
  5
340
  8
07_POCKET_6_19_5_FROM_BOTT
 10
762.0000000000002
 20
521.5000000000007
 30
0.0
  0
SEQEND
  5
496
  8
07_POCKET_6_19_5_FROM_BOTT
  0
POLYLINE
  5
E8
  8
08_PROFILE_OUTSIDE_20_5M0
 66
     1
 10
0.0
 20
0.0
 30
0.0
 70
     1
  0
VERTEX
  5
341
  8
08_PROFILE_OUTSIDE_20_5M0
 10
1420.0
 20
1196.0
 30
0.0
  0
VERTEX
  5
342
  8
08_PROFILE_OUTSIDE_20_5M0
 10
2416.0
 20
1196.0
 30
0.0
  0
VERTEX
  5
343
  8
08_PROFILE_OUTSIDE_20_5M0
 10
2416.0
 20
1068.496666666668
 30
0.0
  0
VERTEX
  5
344
  8
08_PROFILE_OUTSIDE_20_5M0
 10
2379.748333333333
 20
1068.496666666668
 30
0.0
  0
VERTEX
  5
345
  8
08_PROFILE_OUTSIDE_20_5M0
 10
1456.251666666667
 20
1068.496666666668
 30
0.0
  0
VERTEX
  5
346
  8
08_PROFILE_OUTSIDE_20_5M0
 10
1420.0
 20
1068.496666666668
 30
0.0
  0
SEQEND
  5
497
  8
08_PROFILE_OUTSIDE_20_5M0
  0
POLYLINE
  5
E9
  8
08_PROFILE_OUTSIDE_20_5M0
 66
     1
 10
0.0
 20
0.0
 30
0.0
 70
     1
  0
VERTEX
  5
347
  8
08_PROFILE_OUTSIDE_20_5M0
 10
1398.0
 20
1068.496666666669
 30
0.0
  0
VERTEX
  5
348
  8
08_PROFILE_OUTSIDE_20_5M0
 10
402.0000000000005
 20
1068.496666666668
 30
0.0
  0
VERTEX
  5
349
  8
08_PROFILE_OUTSIDE_20_5M0
 10
402.0000000000005
 20
1196.0
 30
0.0
  0
VERTEX
  5
34A
  8
08_PROFILE_OUTSIDE_20_5M0
 10
1398.0
 20
1196.0
 30
0.0
  0
SEQEND
  5
498
  8
08_PROFILE_OUTSIDE_20_5M0
  0
POLYLINE
  5
EA
  8
08_PROFILE_OUTSIDE_20_5M0
 66
     1
 10
0.0
 20
0.0
 30
0.0
 70
     1
  0
VERTEX
  5
34B
  8
08_PROFILE_OUTSIDE_20_5M0
 10
1361.748333333333
 20
1112.999995261995
 30
0.0
  0
VERTEX
  5
34C
  8
08_PROFILE_OUTSIDE_20_5M0
 10
438.251666666667
 20
1112.999995261995
 30
0.0
  0
VERTEX
  5
34D
  8
08_PROFILE_OUTSIDE_20_5M0
 10
438.251666666667
 20
1176.000000000002
 30
0.0
  0
VERTEX
  5
34E
  8
08_PROFILE_OUTSIDE_20_5M0
 10
1361.748333333333
 20
1176.000000000002
 30
0.0
  0
SEQEND
  5
499
  8
08_PROFILE_OUTSIDE_20_5M0
  0
POLYLINE
  5
EB
  8
08_PROFILE_OUTSIDE_20_5M0
 66
     1
 10
0.0
 20
0.0
 30
0.0
 70
     1
  0
VERTEX
  5
34F
  8
08_PROFILE_OUTSIDE_20_5M0
 10
1420.000000000001
 20
947.6666666666667
 30
0.0
  0
VERTEX
  5
350
  8
08_PROFILE_OUTSIDE_20_5M0
 10
2416.0
 20
947.6666666666667
 30
0.0
  0
VERTEX
  5
351
  8
08_PROFILE_OUTSIDE_20_5M0
 10
2416.0
 20
1046.0
 30
0.0
  0
VERTEX
  5
352
  8
08_PROFILE_OUTSIDE_20_5M0
 10
1420.000000000001
 20
1046.0
 30
0.0
  0
SEQEND
  5
49A
  8
08_PROFILE_OUTSIDE_20_5M0
  0
POLYLINE
  5
EC
  8
08_PROFILE_OUTSIDE_20_5M0
 66
     1
 10
0.0
 20
0.0
 30
0.0
 70
     1
  0
VERTEX
  5
353
  8
08_PROFILE_OUTSIDE_20_5M0
 10
2379.748559015813
 20
1026.0
 30
0.0
  0
VERTEX
  5
354
  8
08_PROFILE_OUTSIDE_20_5M0
 10
2379.741450017175
 20
962.9999952619937
 30
0.0
  0
VERTEX
  5
355
  8
08_PROFILE_OUTSIDE_20_5M0
 10
1456.251666666668
 20
962.9999952619937
 30
0.0
  0
VERTEX
  5
356
  8
08_PROFILE_OUTSIDE_20_5M0
 10
1456.251666666668
 20
1026.0
 30
0.0
  0
SEQEND
  5
49B
  8
08_PROFILE_OUTSIDE_20_5M0
  0
POLYLINE
  5
ED
  8
08_PROFILE_OUTSIDE_20_5M0
 66
     1
 10
0.0
 20
0.0
 30
0.0
 70
     1
  0
VERTEX
  5
357
  8
08_PROFILE_OUTSIDE_20_5M0
 10
1420.0
 20
856.1666666666661
 30
0.0
  0
VERTEX
  5
358
  8
08_PROFILE_OUTSIDE_20_5M0
 10
2415.999999999999
 20
856.166666666667
 30
0.0
  0
VERTEX
  5
359
  8
08_PROFILE_OUTSIDE_20_5M0
 10
2416.0
 20
916.5
 30
0.0
  0
VERTEX
  5
35A
  8
08_PROFILE_OUTSIDE_20_5M0
 10
2416.0
 20
925.5
 30
0.0
  0
VERTEX
  5
35B
  8
08_PROFILE_OUTSIDE_20_5M0
 10
1420.0
 20
925.5
 30
0.0
  0
VERTEX
  5
35C
  8
08_PROFILE_OUTSIDE_20_5M0
 10
1420.000000000001
 20
916.5
 30
0.0
  0
SEQEND
  5
49C
  8
08_PROFILE_OUTSIDE_20_5M0
  0
POLYLINE
  5
EE
  8
08_PROFILE_OUTSIDE_20_5M0
 66
     1
 10
0.0
 20
0.0
 30
0.0
 70
     1
  0
VERTEX
  5
35D
  8
08_PROFILE_OUTSIDE_20_5M0
 10
497.8366666666664
 20
925.5000000000007
 30
0.0
  0
VERTEX
  5
35E
  8
08_PROFILE_OUTSIDE_20_5M0
 10
488.8366666666664
 20
925.5000000000007
 30
0.0
  0
VERTEX
  5
35F
  8
08_PROFILE_OUTSIDE_20_5M0
 10
488.8366666666664
 20
852.9966666666667
 30
0.0
  0
VERTEX
  5
360
  8
08_PROFILE_OUTSIDE_20_5M0
 10
1398.0
 20
852.9966666666667
 30
0.0
  0
VERTEX
  5
361
  8
08_PROFILE_OUTSIDE_20_5M0
 10
1398.0
 20
856.1666666666667
 30
0.0
  0
VERTEX
  5
362
  8
08_PROFILE_OUTSIDE_20_5M0
 10
1398.0
 20
925.5000000000007
 30
0.0
  0
SEQEND
  5
49D
  8
08_PROFILE_OUTSIDE_20_5M0
  0
POLYLINE
  5
EF
  8
08_PROFILE_OUTSIDE_20_5M0
 66
     1
 10
0.0
 20
0.0
 30
0.0
 70
     1
  0
VERTEX
  5
363
  8
08_PROFILE_OUTSIDE_20_5M0
 10
1506.836666666666
 20
761.4966666666676
 30
0.0
  0
VERTEX
  5
364
  8
08_PROFILE_OUTSIDE_20_5M0
 10
1506.836666666666
 20
797.7483333333328
 30
0.0
  0
VERTEX
  5
365
  8
08_PROFILE_OUTSIDE_20_5M0
 10
1506.836666666666
 20
834.0000000000007
 30
0.0
  0
VERTEX
  5
366
  8
08_PROFILE_OUTSIDE_20_5M0
 10
2416.0
 20
834.0000000000007
 30
0.0
  0
VERTEX
  5
367
  8
08_PROFILE_OUTSIDE_20_5M0
 10
2416.0
 20
797.7483333333328
 30
0.0
  0
VERTEX
  5
368
  8
08_PROFILE_OUTSIDE_20_5M0
 10
2416.0
 20
761.4966666666676
 30
0.0
  0
SEQEND
  5
49E
  8
08_PROFILE_OUTSIDE_20_5M0
  0
POLYLINE
  5
F0
  8
08_PROFILE_OUTSIDE_20_5M0
 66
     1
 10
0.0
 20
0.0
 30
0.0
 70
     1
  0
VERTEX
  5
369
  8
08_PROFILE_OUTSIDE_20_5M0
 10
575.3366666666648
 20
830.5000000000007
 30
0.0
  0
VERTEX
  5
36A
  8
08_PROFILE_OUTSIDE_20_5M0
 10
575.3366666666648
 20
794.2483333333319
 30
0.0
  0
VERTEX
  5
36B
  8
08_PROFILE_OUTSIDE_20_5M0
 10
575.3366666666648
 20
757.9966666666678
 30
0.0
  0
VERTEX
  5
36C
  8
08_PROFILE_OUTSIDE_20_5M0
 10
1484.5
 20
757.9966666666678
 30
0.0
  0
VERTEX
  5
36D
  8
08_PROFILE_OUTSIDE_20_5M0
 10
1484.5
 20
794.2483333333319
 30
0.0
  0
VERTEX
  5
36E
  8
08_PROFILE_OUTSIDE_20_5M0
 10
1484.5
 20
830.5000000000007
 30
0.0
  0
SEQEND
  5
49F
  8
08_PROFILE_OUTSIDE_20_5M0
  0
POLYLINE
  5
F1
  8
08_PROFILE_OUTSIDE_20_5M0
 66
     1
 10
0.0
 20
0.0
 30
0.0
 70
     1
  0
VERTEX
  5
36F
  8
08_PROFILE_OUTSIDE_20_5M0
 10
376.8300000000004
 20
286.8366666666648
 30
0.0
  0
VERTEX
  5
370
  8
08_PROFILE_OUTSIDE_20_5M0
 10
307.4966666666683
 20
286.8366666666648
 30
0.0
  0
VERTEX
  5
371
  8
08_PROFILE_OUTSIDE_20_5M0
 10
307.496666666668
 20
1186.999999999998
 30
0.0
  0
VERTEX
  5
372
  8
08_PROFILE_OUTSIDE_20_5M0
 10
307.496666666668
 20
1196.0
 30
0.0
  0
VERTEX
  5
373
  8
08_PROFILE_OUTSIDE_20_5M0
 10
380.0000000000002
 20
1196.0
 30
0.0
  0
VERTEX
  5
374
  8
08_PROFILE_OUTSIDE_20_5M0
 10
380.0000000000005
 20
286.8366666666648
 30
0.0
  0
SEQEND
  5
4A0
  8
08_PROFILE_OUTSIDE_20_5M0
  0
POLYLINE
  5
F2
  8
08_PROFILE_OUTSIDE_20_5M0
 66
     1
 10
0.0
 20
0.0
 30
0.0
 70
     1
  0
VERTEX
  5
375
  8
08_PROFILE_OUTSIDE_20_5M0
 10
269.5000000000014
 20
413.9999999999991
 30
0.0
  0
VERTEX
  5
376
  8
08_PROFILE_OUTSIDE_20_5M0
 10
285.0000000000002
 20
413.9999999999991
 30
0.0
  0
VERTEX
  5
377
  8
08_PROFILE_OUTSIDE_20_5M0
 10
285.0000000000002
 20
1195.999999999999
 30
0.0
  0
VERTEX
  5
378
  8
08_PROFILE_OUTSIDE_20_5M0
 10
269.5000000000014
 20
1195.999999999999
 30
0.0
  0
VERTEX
  5
379
  8
08_PROFILE_OUTSIDE_20_5M0
 10
210.5000000000002
 20
1195.999999999999
 30
0.0
  0
VERTEX
  5
37A
  8
08_PROFILE_OUTSIDE_20_5M0
 10
207.3300000000013
 20
1195.999999999999
 30
0.0
  0
VERTEX
  5
37B
  8
08_PROFILE_OUTSIDE_20_5M0
 10
207.3300000000013
 20
413.9999999999991
 30
0.0
  0
VERTEX
  5
37C
  8
08_PROFILE_OUTSIDE_20_5M0
 10
210.5000000000002
 20
413.9999999999991
 30
0.0
  0
SEQEND
  5
4A1
  8
08_PROFILE_OUTSIDE_20_5M0
  0
POLYLINE
  5
F3
  8
08_PROFILE_OUTSIDE_20_5M0
 66
     1
 10
0.0
 20
0.0
 30
0.0
 70
     1
  0
VERTEX
  5
37D
  8
08_PROFILE_OUTSIDE_20_5M0
 10
1456.251666666668
 20
735.5000000000005
 30
0.0
  0
VERTEX
  5
37E
  8
08_PROFILE_OUTSIDE_20_5M0
 10
2379.748333333334
 20
735.5000000000006
 30
0.0
  0
VERTEX
  5
37F
  8
08_PROFILE_OUTSIDE_20_5M0
 10
2416.0
 20
735.5000000000006
 30
0.0
  0
VERTEX
  5
380
  8
08_PROFILE_OUTSIDE_20_5M0
 10
2416.0
 20
675.1666666666675
 30
0.0
  0
VERTEX
  5
381
  8
08_PROFILE_OUTSIDE_20_5M0
 10
1420.000000000001
 20
675.1666666666674
 30
0.0
  0
VERTEX
  5
382
  8
08_PROFILE_OUTSIDE_20_5M0
 10
1420.000000000001
 20
735.5000000000005
 30
0.0
  0
SEQEND
  5
4A2
  8
08_PROFILE_OUTSIDE_20_5M0
  0
POLYLINE
  5
F4
  8
08_PROFILE_OUTSIDE_20_5M0
 66
     1
 10
0.0
 20
0.0
 30
0.0
 70
     1
  0
VERTEX
  5
383
  8
08_PROFILE_OUTSIDE_20_5M0
 10
1918.000000000001
 20
716.1666666666675
 30
0.0
 42
-0.9999999999999998
  0
VERTEX
  5
384
  8
08_PROFILE_OUTSIDE_20_5M0
 10
1918.000000000001
 20
694.1666666666675
 30
0.0
 42
-0.9999999999999998
  0
SEQEND
  5
4A3
  8
08_PROFILE_OUTSIDE_20_5M0
  0
POLYLINE
  5
F5
  8
08_PROFILE_OUTSIDE_20_5M0
 66
     1
 10
0.0
 20
0.0
 30
0.0
 70
     1
  0
VERTEX
  5
385
  8
08_PROFILE_OUTSIDE_20_5M0
 10
131.6666666666678
 20
1196.0
 30
0.0
  0
VERTEX
  5
386
  8
08_PROFILE_OUTSIDE_20_5M0
 10
185.0000000000003
 20
1196.0
 30
0.0
  0
VERTEX
  5
387
  8
08_PROFILE_OUTSIDE_20_5M0
 10
185.0000000000005
 20
98.99999999999909
 30
0.0
  0
VERTEX
  5
388
  8
08_PROFILE_OUTSIDE_20_5M0
 10
131.6666666666679
 20
98.99999999999909
 30
0.0
  0
VERTEX
  5
389
  8
08_PROFILE_OUTSIDE_20_5M0
 10
131.6666666666679
 20
121.0
 30
0.0
  0
VERTEX
  5
38A
  8
08_PROFILE_OUTSIDE_20_5M0
 10
148.7483333333344
 20
121.0
 30
0.0
  0
VERTEX
  5
38B
  8
08_PROFILE_OUTSIDE_20_5M0
 10
148.7483333333344
 20
186.9999999999991
 30
0.0
  0
VERTEX
  5
38C
  8
08_PROFILE_OUTSIDE_20_5M0
 10
131.6666666666679
 20
186.9999999999991
 30
0.0
  0
SEQEND
  5
4A4
  8
08_PROFILE_OUTSIDE_20_5M0
  0
POLYLINE
  5
F6
  8
08_PROFILE_OUTSIDE_20_5M0
 66
     1
 10
0.0
 20
0.0
 30
0.0
 70
     1
  0
VERTEX
  5
38D
  8
08_PROFILE_OUTSIDE_20_5M0
 10
585.0000000000006
 20
681.333333333333
 30
0.0
  0
VERTEX
  5
38E
  8
08_PROFILE_OUTSIDE_20_5M0
 10
585.0000000000006
 20
669.3333333333319
 30
0.0
  0
VERTEX
  5
38F
  8
08_PROFILE_OUTSIDE_20_5M0
 10
1398.0
 20
669.3333333333319
 30
0.0
  0
VERTEX
  5
390
  8
08_PROFILE_OUTSIDE_20_5M0
 10
1398.0
 20
681.333333333333
 30
0.0
  0
VERTEX
  5
391
  8
08_PROFILE_OUTSIDE_20_5M0
 10
1398.0
 20
735.5
 30
0.0
  0
VERTEX
  5
392
  8
08_PROFILE_OUTSIDE_20_5M0
 10
585.0000000000006
 20
735.5
 30
0.0
  0
SEQEND
  5
4A5
  8
08_PROFILE_OUTSIDE_20_5M0
  0
POLYLINE
  5
F7
  8
08_PROFILE_OUTSIDE_20_5M0
 66
     1
 10
0.0
 20
0.0
 30
0.0
 70
     1
  0
VERTEX
  5
393
  8
08_PROFILE_OUTSIDE_20_5M0
 10
1510.666666666666
 20
598.8333333333331
 30
0.0
  0
VERTEX
  5
394
  8
08_PROFILE_OUTSIDE_20_5M0
 10
1494.666666666665
 20
598.8333333333331
 30
0.0
  0
VERTEX
  5
395
  8
08_PROFILE_OUTSIDE_20_5M0
 10
1494.666666666665
 20
653.0000000000006
 30
0.0
  0
VERTEX
  5
396
  8
08_PROFILE_OUTSIDE_20_5M0
 10
2416.0
 20
653.0000000000006
 30
0.0
  0
VERTEX
  5
397
  8
08_PROFILE_OUTSIDE_20_5M0
 10
2416.0
 20
598.8333333333333
 30
0.0
  0
VERTEX
  5
398
  8
08_PROFILE_OUTSIDE_20_5M0
 10
2400.0
 20
598.8333333333333
 30
0.0
  0
SEQEND
  5
4A6
  8
08_PROFILE_OUTSIDE_20_5M0
  0
POLYLINE
  5
F8
  8
08_PROFILE_OUTSIDE_20_5M0
 66
     1
 10
0.0
 20
0.0
 30
0.0
 70
     1
  0
VERTEX
  5
399
  8
08_PROFILE_OUTSIDE_20_5M0
 10
567.1666666666665
 20
647.0
 30
0.0
  0
VERTEX
  5
39A
  8
08_PROFILE_OUTSIDE_20_5M0
 10
551.1666666666664
 20
647.0
 30
0.0
  0
VERTEX
  5
39B
  8
08_PROFILE_OUTSIDE_20_5M0
 10
551.1666666666664
 20
592.8333333333328
 30
0.0
  0
VERTEX
  5
39C
  8
08_PROFILE_OUTSIDE_20_5M0
 10
1472.5
 20
592.8333333333328
 30
0.0
  0
VERTEX
  5
39D
  8
08_PROFILE_OUTSIDE_20_5M0
 10
1472.5
 20
647.0
 30
0.0
  0
VERTEX
  5
39E
  8
08_PROFILE_OUTSIDE_20_5M0
 10
1456.5
 20
647.0
 30
0.0
  0
SEQEND
  5
4A7
  8
08_PROFILE_OUTSIDE_20_5M0
  0
POLYLINE
  5
F9
  8
08_PROFILE_OUTSIDE_20_5M0
 66
     1
 10
0.0
 20
0.0
 30
0.0
 70
     1
  0
VERTEX
  5
39F
  8
08_PROFILE_OUTSIDE_20_5M0
 10
2416.0
 20
515.5000000000009
 30
0.0
  0
VERTEX
  5
3A0
  8
08_PROFILE_OUTSIDE_20_5M0
 10
2416.0
 20
564.5000000000011
 30
0.0
  0
VERTEX
  5
3A1
  8
08_PROFILE_OUTSIDE_20_5M0
 10
2416.0
 20
576.5000000000007
 30
0.0
  0
VERTEX
  5
3A2
  8
08_PROFILE_OUTSIDE_20_5M0
 10
1602.999999999999
 20
576.5000000000006
 30
0.0
  0
VERTEX
  5
3A3
  8
08_PROFILE_OUTSIDE_20_5M0
 10
1602.999999999999
 20
564.5000000000011
 30
0.0
  0
VERTEX
  5
3A4
  8
08_PROFILE_OUTSIDE_20_5M0
 10
1602.999999999999
 20
515.5000000000008
 30
0.0
  0
SEQEND
  5
4A8
  8
08_PROFILE_OUTSIDE_20_5M0
  0
POLYLINE
  5
FA
  8
08_PROFILE_OUTSIDE_20_5M0
 66
     1
 10
0.0
 20
0.0
 30
0.0
 70
     1
  0
VERTEX
  5
3A5
  8
08_PROFILE_OUTSIDE_20_5M0
 10
1581.0
 20
570.5000000000007
 30
0.0
  0
VERTEX
  5
3A6
  8
08_PROFILE_OUTSIDE_20_5M0
 10
1581.0
 20
521.5000000000007
 30
0.0
  0
VERTEX
  5
3A7
  8
08_PROFILE_OUTSIDE_20_5M0
 10
1581.0
 20
509.5000000000016
 30
0.0
  0
VERTEX
  5
3A8
  8
08_PROFILE_OUTSIDE_20_5M0
 10
768.0000000000002
 20
509.5000000000016
 30
0.0
  0
VERTEX
  5
3A9
  8
08_PROFILE_OUTSIDE_20_5M0
 10
768.0000000000002
 20
521.5000000000007
 30
0.0
  0
VERTEX
  5
3AA
  8
08_PROFILE_OUTSIDE_20_5M0
 10
768.0000000000002
 20
570.5000000000007
 30
0.0
  0
SEQEND
  5
4A9
  8
08_PROFILE_OUTSIDE_20_5M0
  0
POLYLINE
  5
FB
  8
08_PROFILE_OUTSIDE_20_5M0
 66
     1
 10
0.0
 20
0.0
 30
0.0
 70
     1
  0
VERTEX
  5
3AB
  8
08_PROFILE_OUTSIDE_20_5M0
 10
466.4999999999998
 20
925.4999999999997
 30
0.0
  0
VERTEX
  5
3AC
  8
08_PROFILE_OUTSIDE_20_5M0
 10
413.1666666666667
 20
925.4999999999997
 30
0.0
  0
VERTEX
  5
3AD
  8
08_PROFILE_OUTSIDE_20_5M0
 10
413.166666666667
 20
36.16666666666606
 30
0.0
  0
VERTEX
  5
3AE
  8
08_PROFILE_OUTSIDE_20_5M0
 10
466.5
 20
36.16666666666606
 30
0.0
  0
SEQEND
  5
4AA
  8
08_PROFILE_OUTSIDE_20_5M0
  0
POLYLINE
  5
FC
  8
08_PROFILE_OUTSIDE_20_5M0
 66
     1
 10
0.0
 20
0.0
 30
0.0
 70
     1
  0
VERTEX
  5
3AF
  8
08_PROFILE_OUTSIDE_20_5M0
 10
1510.666666666665
 20
487.5000000000007
 30
0.0
  0
VERTEX
  5
3B0
  8
08_PROFILE_OUTSIDE_20_5M0
 10
2400.0
 20
487.5000000000008
 30
0.0
  0
VERTEX
  5
3B1
  8
08_PROFILE_OUTSIDE_20_5M0
 10
2416.0
 20
487.5000000000008
 30
0.0
  0
VERTEX
  5
3B2
  8
08_PROFILE_OUTSIDE_20_5M0
 10
2416.0
 20
438.5000000000003
 30
0.0
  0
VERTEX
  5
3B3
  8
08_PROFILE_OUTSIDE_20_5M0
 10
1494.666666666665
 20
438.5000000000002
 30
0.0
  0
VERTEX
  5
3B4
  8
08_PROFILE_OUTSIDE_20_5M0
 10
1494.666666666665
 20
487.5000000000007
 30
0.0
  0
SEQEND
  5
4AB
  8
08_PROFILE_OUTSIDE_20_5M0
  0
POLYLINE
  5
FD
  8
08_PROFILE_OUTSIDE_20_5M0
 66
     1
 10
0.0
 20
0.0
 30
0.0
 70
     1
  0
VERTEX
  5
3B5
  8
08_PROFILE_OUTSIDE_20_5M0
 10
1420.0
 20
373.1666666666681
 30
0.0
  0
VERTEX
  5
3B6
  8
08_PROFILE_OUTSIDE_20_5M0
 10
2416.0
 20
373.1666666666681
 30
0.0
  0
VERTEX
  5
3B7
  8
08_PROFILE_OUTSIDE_20_5M0
 10
2416.0
 20
416.5000000000002
 30
0.0
  0
VERTEX
  5
3B8
  8
08_PROFILE_OUTSIDE_20_5M0
 10
1420.0
 20
416.5000000000002
 30
0.0
  0
SEQEND
  5
4AC
  8
08_PROFILE_OUTSIDE_20_5M0
  0
POLYLINE
  5
FE
  8
08_PROFILE_OUTSIDE_20_5M0
 66
     1
 10
0.0
 20
0.0
 30
0.0
 70
     1
  0
VERTEX
  5
3B9
  8
08_PROFILE_OUTSIDE_20_5M0
 10
616.9999999999999
 20
487.5000000000005
 30
0.0
  0
VERTEX
  5
3BA
  8
08_PROFILE_OUTSIDE_20_5M0
 10
616.9999999999999
 20
449.3333333333331
 30
0.0
  0
VERTEX
  5
3BB
  8
08_PROFILE_OUTSIDE_20_5M0
 10
616.9999999999999
 20
433.8333333333334
 30
0.0
  0
VERTEX
  5
3BC
  8
08_PROFILE_OUTSIDE_20_5M0
 10
1399.0
 20
433.8333333333334
 30
0.0
  0
VERTEX
  5
3BD
  8
08_PROFILE_OUTSIDE_20_5M0
 10
1399.0
 20
449.3333333333332
 30
0.0
  0
VERTEX
  5
3BE
  8
08_PROFILE_OUTSIDE_20_5M0
 10
1399.0
 20
487.5000000000005
 30
0.0
  0
SEQEND
  5
4AD
  8
08_PROFILE_OUTSIDE_20_5M0
  0
POLYLINE
  5
FF
  8
08_PROFILE_OUTSIDE_20_5M0
 66
     1
 10
0.0
 20
0.0
 30
0.0
 70
     1
  0
VERTEX
  5
3BF
  8
08_PROFILE_OUTSIDE_20_5M0
 10
1398.0
 20
357.8333333333333
 30
0.0
  0
VERTEX
  5
3C0
  8
08_PROFILE_OUTSIDE_20_5M0
 10
616.0000000000002
 20
357.8333333333333
 30
0.0
  0
VERTEX
  5
3C1
  8
08_PROFILE_OUTSIDE_20_5M0
 10
616.0000000000002
 20
396.0000000000002
 30
0.0
  0
VERTEX
  5
3C2
  8
08_PROFILE_OUTSIDE_20_5M0
 10
616.0000000000002
 20
411.5000000000002
 30
0.0
  0
VERTEX
  5
3C3
  8
08_PROFILE_OUTSIDE_20_5M0
 10
1398.0
 20
411.5000000000002
 30
0.0
  0
VERTEX
  5
3C4
  8
08_PROFILE_OUTSIDE_20_5M0
 10
1398.0
 20
396.0000000000002
 30
0.0
  0
SEQEND
  5
4AE
  8
08_PROFILE_OUTSIDE_20_5M0
  0
POLYLINE
  5
100
  8
08_PROFILE_OUTSIDE_20_5M0
 66
     1
 10
0.0
 20
0.0
 30
0.0
 70
     1
  0
VERTEX
  5
3C5
  8
08_PROFILE_OUTSIDE_20_5M0
 10
1460.666666666666
 20
351.0000000000008
 30
0.0
  0
VERTEX
  5
3C6
  8
08_PROFILE_OUTSIDE_20_5M0
 10
2416.0
 20
351.0000000000009
 30
0.0
  0
VERTEX
  5
3C7
  8
08_PROFILE_OUTSIDE_20_5M0
 10
2416.0
 20
307.6666666666679
 30
0.0
  0
VERTEX
  5
3C8
  8
08_PROFILE_OUTSIDE_20_5M0
 10
1460.666666666666
 20
307.6666666666678
 30
0.0
  0
SEQEND
  5
4AF
  8
08_PROFILE_OUTSIDE_20_5M0
  0
POLYLINE
  5
101
  8
08_PROFILE_OUTSIDE_20_5M0
 66
     1
 10
0.0
 20
0.0
 30
0.0
 70
     1
  0
VERTEX
  5
3C9
  8
08_PROFILE_OUTSIDE_20_5M0
 10
488.6666666666649
 20
286.5000000000005
 30
0.0
  0
VERTEX
  5
3CA
  8
08_PROFILE_OUTSIDE_20_5M0
 10
488.6666666666649
 20
243.1666666666678
 30
0.0
  0
VERTEX
  5
3CB
  8
08_PROFILE_OUTSIDE_20_5M0
 10
1444.0
 20
243.1666666666679
 30
0.0
  0
VERTEX
  5
3CC
  8
08_PROFILE_OUTSIDE_20_5M0
 10
1444.0
 20
286.5000000000006
 30
0.0
  0
SEQEND
  5
4B0
  8
08_PROFILE_OUTSIDE_20_5M0
  0
POLYLINE
  5
102
  8
08_PROFILE_OUTSIDE_20_5M0
 66
     1
 10
0.0
 20
0.0
 30
0.0
 70
     1
  0
VERTEX
  5
3CD
  8
08_PROFILE_OUTSIDE_20_5M0
 10
1510.666666666665
 20
285.5000000000008
 30
0.0
  0
VERTEX
  5
3CE
  8
08_PROFILE_OUTSIDE_20_5M0
 10
1494.666666666665
 20
285.5000000000008
 30
0.0
  0
VERTEX
  5
3CF
  8
08_PROFILE_OUTSIDE_20_5M0
 10
1494.666666666665
 20
242.5000000000007
 30
0.0
  0
VERTEX
  5
3D0
  8
08_PROFILE_OUTSIDE_20_5M0
 10
1510.666666666665
 20
242.5000000000007
 30
0.0
  0
VERTEX
  5
3D1
  8
08_PROFILE_OUTSIDE_20_5M0
 10
2400.0
 20
242.5000000000008
 30
0.0
  0
VERTEX
  5
3D2
  8
08_PROFILE_OUTSIDE_20_5M0
 10
2416.0
 20
242.5000000000008
 30
0.0
  0
VERTEX
  5
3D3
  8
08_PROFILE_OUTSIDE_20_5M0
 10
2416.0
 20
285.5000000000009
 30
0.0
  0
VERTEX
  5
3D4
  8
08_PROFILE_OUTSIDE_20_5M0
 10
2400.0
 20
285.5000000000009
 30
0.0
  0
SEQEND
  5
4B1
  8
08_PROFILE_OUTSIDE_20_5M0
  0
POLYLINE
  5
103
  8
08_PROFILE_OUTSIDE_20_5M0
 66
     1
 10
0.0
 20
0.0
 30
0.0
 70
     1
  0
VERTEX
  5
3D5
  8
08_PROFILE_OUTSIDE_20_5M0
 10
696.5
 20
221.0000000000007
 30
0.0
  0
VERTEX
  5
3D6
  8
08_PROFILE_OUTSIDE_20_5M0
 10
1478.5
 20
221.0000000000007
 30
0.0
  0
VERTEX
  5
3D7
  8
08_PROFILE_OUTSIDE_20_5M0
 10
1478.5
 20
188.0000000000007
 30
0.0
  0
VERTEX
  5
3D8
  8
08_PROFILE_OUTSIDE_20_5M0
 10
1478.5
 20
172.4999999999986
 30
0.0
  0
VERTEX
  5
3D9
  8
08_PROFILE_OUTSIDE_20_5M0
 10
696.5
 20
172.4999999999986
 30
0.0
  0
VERTEX
  5
3DA
  8
08_PROFILE_OUTSIDE_20_5M0
 10
696.5
 20
188.0000000000007
 30
0.0
  0
SEQEND
  5
4B2
  8
08_PROFILE_OUTSIDE_20_5M0
  0
POLYLINE
  5
104
  8
08_PROFILE_OUTSIDE_20_5M0
 66
     1
 10
0.0
 20
0.0
 30
0.0
 70
     1
  0
VERTEX
  5
3DB
  8
08_PROFILE_OUTSIDE_20_5M0
 10
1603.0
 20
220.5000000000009
 30
0.0
  0
VERTEX
  5
3DC
  8
08_PROFILE_OUTSIDE_20_5M0
 10
1603.0
 20
187.5
 30
0.0
  0
VERTEX
  5
3DD
  8
08_PROFILE_OUTSIDE_20_5M0
 10
2416.0
 20
187.5
 30
0.0
  0
VERTEX
  5
3DE
  8
08_PROFILE_OUTSIDE_20_5M0
 10
2416.0
 20
220.5000000000009
 30
0.0
  0
SEQEND
  5
4B3
  8
08_PROFILE_OUTSIDE_20_5M0
  0
POLYLINE
  5
105
  8
08_PROFILE_OUTSIDE_20_5M0
 66
     1
 10
0.0
 20
0.0
 30
0.0
 70
     1
  0
VERTEX
  5
3DF
  8
08_PROFILE_OUTSIDE_20_5M0
 10
1438.5
 20
308.5000047380061
 30
0.0
  0
VERTEX
  5
3E0
  8
08_PROFILE_OUTSIDE_20_5M0
 10
1438.5
 20
335.5
 30
0.0
  0
VERTEX
  5
3E1
  8
08_PROFILE_OUTSIDE_20_5M0
 10
549.1666666666664
 20
335.5
 30
0.0
  0
VERTEX
  5
3E2
  8
08_PROFILE_OUTSIDE_20_5M0
 10
549.1666666666664
 20
308.5000047380061
 30
0.0
  0
SEQEND
  5
4B4
  8
08_PROFILE_OUTSIDE_20_5M0
  0
POLYLINE
  5
106
  8
08_PROFILE_OUTSIDE_20_5M0
 66
     1
 10
0.0
 20
0.0
 30
0.0
 70
     1
  0
VERTEX
  5
3E3
  8
08_PROFILE_OUTSIDE_20_5M0
 10
2060.0
 20
150.5
 30
0.0
  0
VERTEX
  5
3E4
  8
08_PROFILE_OUTSIDE_20_5M0
 10
2060.0
 20
132.166666666667
 30
0.0
  0
VERTEX
  5
3E5
  8
08_PROFILE_OUTSIDE_20_5M0
 10
1170.666666666666
 20
132.166666666667
 30
0.0
  0
VERTEX
  5
3E6
  8
08_PROFILE_OUTSIDE_20_5M0
 10
1170.666666666666
 20
150.5
 30
0.0
  0
SEQEND
  5
4B5
  8
08_PROFILE_OUTSIDE_20_5M0
  0
POLYLINE
  5
108
  8
01_PROFILE_HOLES_INSIDE_20
 66
     1
 10
0.0
 20
0.0
 30
0.0
 70
     1
  0
VERTEX
  5
3E7
  8
01_PROFILE_HOLES_INSIDE_20
 10
249.9166666666659
 20
104.0
 30
0.0
 42
0.4142135623730951
  0
VERTEX
  5
3E8
  8
01_PROFILE_HOLES_INSIDE_20
 10
253.9166666666659
 20
108.0
 30
0.0
 42
0.4142135623730951
  0
VERTEX
  5
3E9
  8
01_PROFILE_HOLES_INSIDE_20
 10
249.9166666666659
 20
112.0
 30
0.0
 42
0.4142135623730951
  0
VERTEX
  5
3EA
  8
01_PROFILE_HOLES_INSIDE_20
 10
245.9166666666661
 20
108.0
 30
0.0
 42
0.4142135623730951
  0
SEQEND
  5
4B6
  8
01_PROFILE_HOLES_INSIDE_20
  0
POLYLINE
  5
109
  8
01_PROFILE_HOLES_INSIDE_20
 66
     1
 10
0.0
 20
0.0
 30
0.0
 70
     1
  0
VERTEX
  5
3EB
  8
01_PROFILE_HOLES_INSIDE_20
 10
249.9166666666659
 20
253.5
 30
0.0
 42
0.4142135623730951
  0
VERTEX
  5
3EC
  8
01_PROFILE_HOLES_INSIDE_20
 10
253.9166666666659
 20
257.5
 30
0.0
 42
0.4142135623730951
  0
VERTEX
  5
3ED
  8
01_PROFILE_HOLES_INSIDE_20
 10
249.9166666666659
 20
261.5
 30
0.0
 42
0.4142135623730951
  0
VERTEX
  5
3EE
  8
01_PROFILE_HOLES_INSIDE_20
 10
245.9166666666661
 20
257.5
 30
0.0
 42
0.4142135623730951
  0
SEQEND
  5
4B7
  8
01_PROFILE_HOLES_INSIDE_20
  0
POLYLINE
  5
10A
  8
01_PROFILE_HOLES_INSIDE_20
 66
     1
 10
0.0
 20
0.0
 30
0.0
 70
     1
  0
VERTEX
  5
3EF
  8
01_PROFILE_HOLES_INSIDE_20
 10
2370.0
 20
146.4166666666674
 30
0.0
 42
0.4142135623730951
  0
VERTEX
  5
3F0
  8
01_PROFILE_HOLES_INSIDE_20
 10
2366.0
 20
150.4166666666674
 30
0.0
 42
0.4142135623730951
  0
VERTEX
  5
3F1
  8
01_PROFILE_HOLES_INSIDE_20
 10
2362.0
 20
146.4166666666674
 30
0.0
 42
0.4142135623730951
  0
VERTEX
  5
3F2
  8
01_PROFILE_HOLES_INSIDE_20
 10
2366.0
 20
142.4166666666674
 30
0.0
 42
0.4142135623730951
  0
SEQEND
  5
4B8
  8
01_PROFILE_HOLES_INSIDE_20
  0
POLYLINE
  5
10B
  8
01_PROFILE_HOLES_INSIDE_20
 66
     1
 10
0.0
 20
0.0
 30
0.0
 70
     1
  0
VERTEX
  5
3F3
  8
01_PROFILE_HOLES_INSIDE_20
 10
2220.5
 20
146.4166666666673
 30
0.0
 42
0.4142135623730951
  0
VERTEX
  5
3F4
  8
01_PROFILE_HOLES_INSIDE_20
 10
2216.5
 20
150.4166666666673
 30
0.0
 42
0.4142135623730951
  0
VERTEX
  5
3F5
  8
01_PROFILE_HOLES_INSIDE_20
 10
2212.5
 20
146.4166666666673
 30
0.0
 42
0.4142135623730951
  0
VERTEX
  5
3F6
  8
01_PROFILE_HOLES_INSIDE_20
 10
2216.5
 20
142.4166666666673
 30
0.0
 42
0.4142135623730951
  0
SEQEND
  5
4B9
  8
01_PROFILE_HOLES_INSIDE_20
  0
POLYLINE
  5
10D
  8
06_POCKET_5_14_5_FROM_BOTT
 66
     1
 10
0.0
 20
0.0
 30
0.0
 70
     1
  0
VERTEX
  5
3F7
  8
06_POCKET_5_14_5_FROM_BOTT
 10
269.0000000000009
 20
392.0
 30
0.0
  0
VERTEX
  5
3F8
  8
06_POCKET_5_14_5_FROM_BOTT
 10
269.0000000000009
 20
398.0000000000011
 30
0.0
  0
VERTEX
  5
3F9
  8
06_POCKET_5_14_5_FROM_BOTT
 10
284.9999999999999
 20
398.0000000000011
 30
0.0
  0
VERTEX
  5
3FA
  8
06_POCKET_5_14_5_FROM_BOTT
 10
291.0000000000001
 20
398.0000000000011
 30
0.0
  0
VERTEX
  5
3FB
  8
06_POCKET_5_14_5_FROM_BOTT
 10
291.0000000000001
 20
58.0
 30
0.0
  0
VERTEX
  5
3FC
  8
06_POCKET_5_14_5_FROM_BOTT
 10
291.0000000000001
 20
52.00000000000108
 30
0.0
  0
VERTEX
  5
3FD
  8
06_POCKET_5_14_5_FROM_BOTT
 10
269.0000000000009
 20
52.00000000000108
 30
0.0
  0
VERTEX
  5
3FE
  8
06_POCKET_5_14_5_FROM_BOTT
 10
269.0000000000009
 20
58.0
 30
0.0
  0
SEQEND
  5
4BA
  8
06_POCKET_5_14_5_FROM_BOTT
  0
POLYLINE
  5
10E
  8
06_POCKET_5_14_5_FROM_BOTT
 66
     1
 10
0.0
 20
0.0
 30
0.0
 70
     1
  0
VERTEX
  5
3FF
  8
06_POCKET_5_14_5_FROM_BOTT
 10
2416.0
 20
127.3333333333334
 30
0.0
  0
VERTEX
  5
400
  8
06_POCKET_5_14_5_FROM_BOTT
 10
2422.0
 20
127.3333333333334
 30
0.0
  0
VERTEX
  5
401
  8
06_POCKET_5_14_5_FROM_BOTT
 10
2422.0
 20
111.3333333333333
 30
0.0
  0
VERTEX
  5
402
  8
06_POCKET_5_14_5_FROM_BOTT
 10
2422.0
 20
105.3333333333333
 30
0.0
  0
VERTEX
  5
403
  8
06_POCKET_5_14_5_FROM_BOTT
 10
2082.0
 20
105.3333333333331
 30
0.0
  0
VERTEX
  5
404
  8
06_POCKET_5_14_5_FROM_BOTT
 10
2075.999999999999
 20
105.3333333333331
 30
0.0
  0
VERTEX
  5
405
  8
06_POCKET_5_14_5_FROM_BOTT
 10
2075.999999999999
 20
127.3333333333334
 30
0.0
  0
VERTEX
  5
406
  8
06_POCKET_5_14_5_FROM_BOTT
 10
2082.0
 20
127.3333333333334
 30
0.0
  0
SEQEND
  5
4BB
  8
06_POCKET_5_14_5_FROM_BOTT
  0
POLYLINE
  5
110
  8
08_PROFILE_OUTSIDE_20_5MM
 66
     1
 10
0.0
 20
0.0
 30
0.0
 70
     1
  0
VERTEX
  5
407
  8
08_PROFILE_OUTSIDE_20_5MM
 10
230.833333333333
 20
58.0
 30
0.0
  0
VERTEX
  5
408
  8
08_PROFILE_OUTSIDE_20_5MM
 10
269.0000000000009
 20
58.0
 30
0.0
  0
VERTEX
  5
409
  8
08_PROFILE_OUTSIDE_20_5MM
 10
285.0
 20
58.0
 30
0.0
  0
VERTEX
  5
40A
  8
08_PROFILE_OUTSIDE_20_5MM
 10
284.9999999999999
 20
392.0
 30
0.0
  0
VERTEX
  5
40B
  8
08_PROFILE_OUTSIDE_20_5MM
 10
269.0000000000009
 20
392.0
 30
0.0
  0
VERTEX
  5
40C
  8
08_PROFILE_OUTSIDE_20_5MM
 10
230.8333333333329
 20
392.0
 30
0.0
  0
SEQEND
  5
4BC
  8
08_PROFILE_OUTSIDE_20_5MM
  0
POLYLINE
  5
111
  8
08_PROFILE_OUTSIDE_20_5MM
 66
     1
 10
0.0
 20
0.0
 30
0.0
 70
     1
  0
VERTEX
  5
40D
  8
08_PROFILE_OUTSIDE_20_5MM
 10
2416.0
 20
165.5000000000003
 30
0.0
  0
VERTEX
  5
40E
  8
08_PROFILE_OUTSIDE_20_5MM
 10
2082.0
 20
165.5000000000003
 30
0.0
  0
VERTEX
  5
40F
  8
08_PROFILE_OUTSIDE_20_5MM
 10
2082.0
 20
111.3333333333333
 30
0.0
  0
VERTEX
  5
410
  8
08_PROFILE_OUTSIDE_20_5MM
 10
2416.0
 20
111.3333333333333
 30
0.0
  0
SEQEND
  5
4BD
  8
08_PROFILE_OUTSIDE_20_5MM
  0
POLYLINE
  5
112
  8
08_PROFILE_OUTSIDE_20_5MM
 66
     1
 10
0.0
 20
0.0
 30
0.0
 70
     1
  0
VERTEX
  5
411
  8
08_PROFILE_OUTSIDE_20_5MM
 10
759.5281282860135
 20
98.74201638308455
 30
0.0
 42
0.4142135623730951
  0
VERTEX
  5
412
  8
08_PROFILE_OUTSIDE_20_5MM
 10
763.5281282860135
 20
94.74201638308455
 30
0.0
 42
0.4142135623730951
  0
VERTEX
  5
413
  8
08_PROFILE_OUTSIDE_20_5MM
 10
767.5281282860135
 20
98.74201638308455
 30
0.0
 42
0.4142135623730951
  0
VERTEX
  5
414
  8
08_PROFILE_OUTSIDE_20_5MM
 10
763.5281282860135
 20
102.7420163830845
 30
0.0
 42
0.4142135623730951
  0
SEQEND
  5
4BE
  8
08_PROFILE_OUTSIDE_20_5MM
  0
POLYLINE
  5
113
  8
08_PROFILE_OUTSIDE_20_5MM
 66
     1
 10
0.0
 20
0.0
 30
0.0
 70
     1
  0
VERTEX
  5
415
  8
08_PROFILE_OUTSIDE_20_5MM
 10
1058.778128286013
 20
98.74201638308455
 30
0.0
 42
0.4142135623730951
  0
VERTEX
  5
416
  8
08_PROFILE_OUTSIDE_20_5MM
 10
1062.778128286013
 20
94.74201638308455
 30
0.0
 42
0.4142135623730951
  0
VERTEX
  5
417
  8
08_PROFILE_OUTSIDE_20_5MM
 10
1066.778128286013
 20
98.74201638308455
 30
0.0
 42
0.4142135623730951
  0
VERTEX
  5
418
  8
08_PROFILE_OUTSIDE_20_5MM
 10
1062.778128286013
 20
102.7420163830845
 30
0.0
 42
0.4142135623730951
  0
SEQEND
  5
4BF
  8
08_PROFILE_OUTSIDE_20_5MM
  0
POLYLINE
  5
114
  8
08_PROFILE_OUTSIDE_20_5MM
 66
     1
 10
0.0
 20
0.0
 30
0.0
 70
     1
  0
VERTEX
  5
419
  8
08_PROFILE_OUTSIDE_20_5MM
 10
1358.028128286013
 20
98.74201638308455
 30
0.0
 42
0.4142135623730951
  0
VERTEX
  5
41A
  8
08_PROFILE_OUTSIDE_20_5MM
 10
1362.028128286013
 20
94.74201638308455
 30
0.0
 42
0.4142135623730951
  0
VERTEX
  5
41B
  8
08_PROFILE_OUTSIDE_20_5MM
 10
1366.028128286013
 20
98.74201638308455
 30
0.0
 42
0.4142135623730951
  0
VERTEX
  5
41C
  8
08_PROFILE_OUTSIDE_20_5MM
 10
1362.028128286013
 20
102.7420163830845
 30
0.0
 42
0.4142135623730951
  0
SEQEND
  5
4C0
  8
08_PROFILE_OUTSIDE_20_5MM
  0
POLYLINE
  5
115
  8
08_PROFILE_OUTSIDE_20_5MM
 66
     1
 10
0.0
 20
0.0
 30
0.0
 70
     1
  0
VERTEX
  5
41D
  8
08_PROFILE_OUTSIDE_20_5MM
 10
514.2781282860136
 20
106.8678497164167
 30
0.0
  0
VERTEX
  5
41E
  8
08_PROFILE_OUTSIDE_20_5MM
 10
514.2781282860136
 20
53.53451638308411
 30
0.0
  0
VERTEX
  5
41F
  8
08_PROFILE_OUTSIDE_20_5MM
 10
536.2781282860136
 20
53.53451638308411
 30
0.0
  0
VERTEX
  5
420
  8
08_PROFILE_OUTSIDE_20_5MM
 10
536.2781282860136
 20
70.61618304975013
 30
0.0
  0
VERTEX
  5
421
  8
08_PROFILE_OUTSIDE_20_5MM
 10
602.2781282860136
 20
70.61618304975013
 30
0.0
  0
VERTEX
  5
422
  8
08_PROFILE_OUTSIDE_20_5MM
 10
602.2781282860136
 20
53.53451638308411
 30
0.0
  0
VERTEX
  5
423
  8
08_PROFILE_OUTSIDE_20_5MM
 10
1611.278128286013
 20
53.53451638308411
 30
0.0
  0
VERTEX
  5
424
  8
08_PROFILE_OUTSIDE_20_5MM
 10
1611.278128286013
 20
106.8678497164167
 30
0.0
  0
SEQEND
  5
4C1
  8
08_PROFILE_OUTSIDE_20_5MM
  0
ENDSEC
  0
EOF
