  0
SECTION
  2
HEADER
  9
$ACADVER
  1
AC1014
  9
$HANDSEED
  5
FFFF
  9
$MEASUREMENT
 70
     1
  0
ENDSEC
  0
SECTION
  2
TABLES
  0
TABLE
  2
VPORT
  5
8
330
0
100
AcDbSymbolTable
 70
     4
  0
VPORT
  5
2E
330
8
100
AcDbSymbolTableRecord
100
AcDbViewportTableRecord
  2
*ACTIVE
 70
     0
 10
0.0
 20
0.0
 11
1.0
 21
1.0
 12
210.0
 22
148.5
 13
0.0
 23
0.0
 14
10.0
 24
10.0
 15
10.0
 25
10.0
 16
0.0
 26
0.0
 36
1.0
 17
0.0
 27
0.0
 37
0.0
 40
341.0
 41
1.24
 42
50.0
 43
0.0
 44
0.0
 50
0.0
 51
0.0
 71
     0
 72
   100
 73
     1
 74
     3
 75
     0
 76
     0
 77
     0
 78
     0
  0
ENDTAB
  0
TABLE
  2
LTYPE
  5
5
330
0
100
AcDbSymbolTable
 70
     1
  0
LTYPE
  5
14
330
5
100
AcDbSymbolTableRecord
100
AcDbLinetypeTableRecord
  2
BYBLOCK
 70
     0
  3

 72
    65
 73
     0
 40
0.0
  0
LTYPE
  5
15
330
5
100
AcDbSymbolTableRecord
100
AcDbLinetypeTableRecord
  2
BYLAYER
 70
     0
  3

 72
    65
 73
     0
 40
0.0
  0
LTYPE
  5
16
330
5
100
AcDbSymbolTableRecord
100
AcDbLinetypeTableRecord
  2
CONTINUOUS
 70
     0
  3
Solid line
 72
    65
 73
     0
 40
0.0
  0
ENDTAB
  0
TABLE
  2
LAYER
  5
2
100
AcDbSymbolTable
 70
2
  0
LAYER
  5
50
100
AcDbSymbolTableRecord
100
AcDbLayerTableRecord
  2
0
 70
0
  6
CONTINUOUS
  0
LAYER
  5
51
100
AcDbSymbolTableRecord
100
AcDbLayerTableRecord
  2
Capa_1
 70
0
  6
CONTINUOUS
  0
ENDTAB
  0
TABLE
  2
STYLE
  5
3
330
0
100
AcDbSymbolTable
 70
     1
  0
STYLE
  5
11
330
3
100
AcDbSymbolTableRecord
100
AcDbTextStyleTableRecord
  2
STANDARD
 70
     0
 40
0.0
 41
1.0
 50
0.0
 71
     0
 42
2.5
  3
txt
  4

  0
ENDTAB
  0
TABLE
  2
VIEW
  5
6
330
0
100
AcDbSymbolTable
 70
     0
  0
ENDTAB
  0
TABLE
  2
UCS
  5
7
330
0
100
AcDbSymbolTable
 70
     0
  0
ENDTAB
  0
TABLE
  2
APPID
  5
9
330
0
100
AcDbSymbolTable
 70
     2
  0
APPID
  5
12
330
9
100
AcDbSymbolTableRecord
100
AcDbRegAppTableRecord
  2
ACAD
 70
     0
  0
ENDTAB
  0
TABLE
  2
DIMSTYLE
  5
A
330
0
100
AcDbSymbolTable
 70
     1
  0
DIMSTYLE
105
27
330
A
100
AcDbSymbolTableRecord
100
AcDbDimStyleTableRecord
  2
ISO-25
 70
     0
  3

  4

  5

  6

  7

 40
1.0
 41
2.5
 42
0.625
 43
3.75
 44
1.25
 45
0.0
 46
0.0
 47
0.0
 48
0.0
140
2.5
141
2.5
142
0.0
143
0.03937007874016
144
1.0
145
0.0
146
1.0
147
0.625
 71
     0
 72
     0
 73
     0
 74
     0
 75
     0
 76
     0
 77
     1
 78
     8
170
     0
171
     3
172
     1
173
     0
174
     0
175
     0
176
     0
177
     0
178
     0
270
     2
271
     2
272
     2
273
     2
274
     3
340
11
275
     0
280
     0
281
     0
282
     0
283
     0
284
     8
285
     0
286
     0
287
     3
288
     0
  0
ENDTAB
  0
TABLE
  2
BLOCK_RECORD
  5
1
330
0
100
AcDbSymbolTable
 70
     1
  0
BLOCK_RECORD
  5
1F
330
1
100
AcDbSymbolTableRecord
100
AcDbBlockTableRecord
  2
*MODEL_SPACE
  0
BLOCK_RECORD
  5
1B
330
1
100
AcDbSymbolTableRecord
100
AcDbBlockTableRecord
  2
*PAPER_SPACE
  0
ENDTAB
  0
ENDSEC
  0
SECTION
  2
BLOCKS
  0
BLOCK
  5
20
330
1F
100
AcDbEntity
  8
0
100
AcDbBlockBegin
  2
*MODEL_SPACE
 70
     0
 10
0.0
 20
0.0
 30
0.0
  3
*MODEL_SPACE
  1

  0
ENDBLK
  5
21
330
1F
100
AcDbEntity
  8
0
100
AcDbBlockEnd
  0
BLOCK
  5
1C
330
1B
100
AcDbEntity
 67
     1
  8
0
100
AcDbBlockBegin
  2
*PAPER_SPACE
  1

  0
ENDBLK
  5
1D
330
1B
100
AcDbEntity
 67
     1
  8
0
100
AcDbBlockEnd
  0
ENDSEC
  0
SECTION
  2
ENTITIES
  0
LWPOLYLINE
  5
100
100
AcDbEntity
  8
Capa_1
 62
7
100
AcDbPolyline
 90
5
 70
1
 10
-32.297388
 20
840.478992
 30
0.0
 10
-15.998230
 20
840.478992
 30
0.0
 10
-15.998230
 20
824.179835
 30
0.0
 10
-32.297388
 20
824.179835
 30
0.0
 10
-32.297388
 20
840.478992
 30
0.0
  0
LWPOLYLINE
  5
101
100
AcDbEntity
  8
Capa_1
 62
7
100
AcDbPolyline
 90
5
 70
1
 10
-196.941519
 20
155.339712
 30
0.0
 10
-180.642361
 20
155.339712
 30
0.0
 10
-180.642361
 20
139.040555
 30
0.0
 10
-196.941519
 20
139.040555
 30
0.0
 10
-196.941519
 20
155.339712
 30
0.0
  0
LWPOLYLINE
  5
102
100
AcDbEntity
  8
Capa_1
 62
7
100
AcDbPolyline
 90
5
 70
1
 10
-244.995747
 20
93.441512
 30
0.0
 10
-244.995747
 20
77.142354
 30
0.0
 10
-261.294905
 20
77.142354
 30
0.0
 10
-261.294905
 20
93.441512
 30
0.0
 10
-244.995747
 20
93.441512
 30
0.0
  0
LWPOLYLINE
  5
103
100
AcDbEntity
  8
Capa_1
 62
7
100
AcDbPolyline
 90
5
 70
1
 10
-244.995747
 20
218.874584
 30
0.0
 10
-244.995747
 20
202.575426
 30
0.0
 10
-261.294905
 20
202.575426
 30
0.0
 10
-261.294905
 20
218.874584
 30
0.0
 10
-244.995747
 20
218.874584
 30
0.0
  0
LWPOLYLINE
  5
104
100
AcDbEntity
  8
Capa_1
 62
7
100
AcDbPolyline
 90
5
 70
1
 10
-322.374588
 20
156.158112
 30
0.0
 10
-306.075430
 20
156.158112
 30
0.0
 10
-306.075430
 20
139.858955
 30
0.0
 10
-322.374588
 20
139.858955
 30
0.0
 10
-322.374588
 20
156.158112
 30
0.0
  0
LWPOLYLINE
  5
105
100
AcDbEntity
  8
Capa_1
 62
7
100
AcDbPolyline
 90
5
 70
1
 10
226.771656
 20
490.992620
 30
0.0
 10
368.503944
 20
490.992620
 30
0.0
 10
368.503944
 20
349.260332
 30
0.0
 10
226.771656
 20
349.260332
 30
0.0
 10
226.771656
 20
490.992620
 30
0.0
  0
LWPOLYLINE
  5
106
100
AcDbEntity
  8
Capa_1
 62
7
100
AcDbPolyline
 90
5
 70
1
 10
154.151977
 20
761.774072
 30
0.0
 10
170.451135
 20
761.774072
 30
0.0
 10
170.451135
 20
745.474915
 30
0.0
 10
154.151977
 20
745.474915
 30
0.0
 10
154.151977
 20
761.774072
 30
0.0
  0
LWPOLYLINE
  5
107
100
AcDbEntity
  8
Capa_1
 62
7
100
AcDbPolyline
 90
5
 70
1
 10
106.097749
 20
699.875872
 30
0.0
 10
106.097749
 20
683.576714
 30
0.0
 10
89.798591
 20
683.576714
 30
0.0
 10
89.798591
 20
699.875872
 30
0.0
 10
106.097749
 20
699.875872
 30
0.0
  0
LWPOLYLINE
  5
108
100
AcDbEntity
  8
Capa_1
 62
7
100
AcDbPolyline
 90
5
 70
1
 10
106.097749
 20
825.308944
 30
0.0
 10
106.097749
 20
809.009786
 30
0.0
 10
89.798591
 20
809.009786
 30
0.0
 10
89.798591
 20
825.308944
 30
0.0
 10
106.097749
 20
825.308944
 30
0.0
  0
LWPOLYLINE
  5
109
100
AcDbEntity
  8
Capa_1
 62
7
100
AcDbPolyline
 90
5
 70
1
 10
28.718908
 20
762.592472
 30
0.0
 10
45.018066
 20
762.592472
 30
0.0
 10
45.018066
 20
746.293315
 30
0.0
 10
28.718908
 20
746.293315
 30
0.0
 10
28.718908
 20
762.592472
 30
0.0
  0
LWPOLYLINE
  5
10a
100
AcDbEntity
  8
Capa_1
 62
7
100
AcDbPolyline
 90
5
 70
1
 10
28.718884
 20
825.308969
 30
0.0
 10
170.451172
 20
825.308969
 30
0.0
 10
170.451172
 20
683.576681
 30
0.0
 10
28.718884
 20
683.576681
 30
0.0
 10
28.718884
 20
825.308969
 30
0.0
  0
LWPOLYLINE
  5
10b
100
AcDbEntity
  8
Capa_1
 62
7
100
AcDbPolyline
 90
5
 70
1
 10
153.333577
 20
605.459696
 30
0.0
 10
169.632735
 20
605.459696
 30
0.0
 10
169.632735
 20
589.160539
 30
0.0
 10
153.333577
 20
589.160539
 30
0.0
 10
153.333577
 20
605.459696
 30
0.0
  0
LWPOLYLINE
  5
10c
100
AcDbEntity
  8
Capa_1
 62
7
100
AcDbPolyline
 90
5
 70
1
 10
105.279349
 20
543.561496
 30
0.0
 10
105.279349
 20
527.262338
 30
0.0
 10
88.980191
 20
527.262338
 30
0.0
 10
88.980191
 20
543.561496
 30
0.0
 10
105.279349
 20
543.561496
 30
0.0
  0
LWPOLYLINE
  5
10d
100
AcDbEntity
  8
Capa_1
 62
7
100
AcDbPolyline
 90
5
 70
1
 10
105.279349
 20
668.994568
 30
0.0
 10
105.279349
 20
652.695410
 30
0.0
 10
88.980191
 20
652.695410
 30
0.0
 10
88.980191
 20
668.994568
 30
0.0
 10
105.279349
 20
668.994568
 30
0.0
  0
LWPOLYLINE
  5
10e
100
AcDbEntity
  8
Capa_1
 62
7
100
AcDbPolyline
 90
5
 70
1
 10
27.900508
 20
606.278096
 30
0.0
 10
44.199666
 20
606.278096
 30
0.0
 10
44.199666
 20
589.978939
 30
0.0
 10
27.900508
 20
589.978939
 30
0.0
 10
27.900508
 20
606.278096
 30
0.0
  0
LWPOLYLINE
  5
10f
100
AcDbEntity
  8
Capa_1
 62
7
100
AcDbPolyline
 90
5
 70
1
 10
-39.399591
 20
329.249744
 30
0.0
 10
-23.100433
 20
329.249744
 30
0.0
 10
-23.100433
 20
312.950587
 30
0.0
 10
-39.399591
 20
312.950587
 30
0.0
 10
-39.399591
 20
329.249744
 30
0.0
  0
LWPOLYLINE
  5
110
100
AcDbEntity
  8
Capa_1
 62
7
100
AcDbPolyline
 90
5
 70
1
 10
-87.453819
 20
267.351544
 30
0.0
 10
-87.453819
 20
251.052386
 30
0.0
 10
-103.752977
 20
251.052386
 30
0.0
 10
-103.752977
 20
267.351544
 30
0.0
 10
-87.453819
 20
267.351544
 30
0.0
  0
LWPOLYLINE
  5
111
100
AcDbEntity
  8
Capa_1
 62
7
100
AcDbPolyline
 90
5
 70
1
 10
-87.453819
 20
392.784616
 30
0.0
 10
-87.453819
 20
376.485458
 30
0.0
 10
-103.752977
 20
376.485458
 30
0.0
 10
-103.752977
 20
392.784616
 30
0.0
 10
-87.453819
 20
392.784616
 30
0.0
  0
LWPOLYLINE
  5
112
100
AcDbEntity
  8
Capa_1
 62
7
100
AcDbPolyline
 90
5
 70
1
 10
-164.832660
 20
330.068144
 30
0.0
 10
-148.533502
 20
330.068144
 30
0.0
 10
-148.533502
 20
313.768987
 30
0.0
 10
-164.832660
 20
313.768987
 30
0.0
 10
-164.832660
 20
330.068144
 30
0.0
  0
LWPOLYLINE
  5
113
100
AcDbEntity
  8
Capa_1
 62
7
100
AcDbPolyline
 90
5
 70
1
 10
-164.832684
 20
392.784641
 30
0.0
 10
-23.100396
 20
392.784641
 30
0.0
 10
-23.100396
 20
251.052353
 30
0.0
 10
-164.832684
 20
251.052353
 30
0.0
 10
-164.832684
 20
392.784641
 30
0.0
  0
LWPOLYLINE
  5
114
100
AcDbEntity
  8
Capa_1
 62
7
100
AcDbPolyline
 90
5
 70
1
 10
-42.673191
 20
510.934512
 30
0.0
 10
-26.374033
 20
510.934512
 30
0.0
 10
-26.374033
 20
494.635355
 30
0.0
 10
-42.673191
 20
494.635355
 30
0.0
 10
-42.673191
 20
510.934512
 30
0.0
  0
LWPOLYLINE
  5
115
100
AcDbEntity
  8
Capa_1
 62
7
100
AcDbPolyline
 90
5
 70
1
 10
-90.727419
 20
449.036312
 30
0.0
 10
-90.727419
 20
432.737154
 30
0.0
 10
-107.026577
 20
432.737154
 30
0.0
 10
-107.026577
 20
449.036312
 30
0.0
 10
-90.727419
 20
449.036312
 30
0.0
  0
LWPOLYLINE
  5
116
100
AcDbEntity
  8
Capa_1
 62
7
100
AcDbPolyline
 90
5
 70
1
 10
-90.727419
 20
574.469384
 30
0.0
 10
-90.727419
 20
558.170226
 30
0.0
 10
-107.026577
 20
558.170226
 30
0.0
 10
-107.026577
 20
574.469384
 30
0.0
 10
-90.727419
 20
574.469384
 30
0.0
  0
SPLINE
  5
117
100
AcDbEntity
  8
Capa_1
 62
7
100
AcDbSpline
 70
8
 71
3
 72
8
 73
4
 74
0
 40
0
 40
0
 40
0
 40
0
 40
1
 40
1
 40
1
 40
1
 10
-72.019184
 20
788.937468
 30
0.0
 10
-125.472880
 20
657.975916
 30
0.0
 10
-18.103256
 20
917.929588
 30
0.0
 10
-85.403040
 20
793.515100
 30
0.0
  0
SPLINE
  5
118
100
AcDbEntity
  8
Capa_1
 62
7
100
AcDbSpline
 70
8
 71
3
 72
8
 73
4
 74
0
 40
0
 40
0
 40
0
 40
0
 40
1
 40
1
 40
1
 40
1
 10
-85.403040
 20
793.515100
 30
0.0
 10
-152.702816
 20
669.100612
 30
0.0
 10
6.109560
 20
901.227252
 30
0.0
 10
-74.247280
 20
784.818476
 30
0.0
  0
SPLINE
  5
119
100
AcDbEntity
  8
Capa_1
 62
7
100
AcDbSpline
 70
8
 71
3
 72
8
 73
4
 74
0
 40
0
 40
0
 40
0
 40
0
 40
1
 40
1
 40
1
 40
1
 10
-74.247280
 20
784.818476
 30
0.0
 10
-154.604120
 20
668.409700
 30
0.0
 10
6.137616
 20
899.204500
 30
0.0
 10
-86.334168
 20
792.166220
 30
0.0
  0
SPLINE
  5
11a
100
AcDbEntity
  8
Capa_1
 62
7
100
AcDbSpline
 70
8
 71
3
 72
8
 73
4
 74
0
 40
0
 40
0
 40
0
 40
0
 40
1
 40
1
 40
1
 40
1
 10
-86.334168
 20
792.166220
 30
0.0
 10
-178.805952
 20
685.127940
 30
0.0
 10
26.193840
 20
877.687620
 30
0.0
 10
-77.308744
 20
781.274756
 30
0.0
  0
SPLINE
  5
11b
100
AcDbEntity
  8
Capa_1
 62
7
100
AcDbSpline
 70
8
 71
3
 72
8
 73
4
 74
0
 40
0
 40
0
 40
0
 40
0
 40
1
 40
1
 40
1
 40
1
 10
-77.308744
 20
781.274756
 30
0.0
 10
-180.811328
 20
684.861900
 30
0.0
 10
25.786416
 20
875.706124
 30
0.0
 10
-87.533504
 20
791.049044
 30
0.0
  0
SPLINE
  5
11c
100
AcDbEntity
  8
Capa_1
 62
7
100
AcDbSpline
 70
8
 71
3
 72
8
 73
4
 74
0
 40
0
 40
0
 40
0
 40
0
 40
1
 40
1
 40
1
 40
1
 10
-87.533504
 20
791.049044
 30
0.0
 10
-200.853416
 20
706.391956
 30
0.0
 10
40.748240
 20
850.380796
 30
0.0
 10
-81.060424
 20
778.472012
 30
0.0
  0
SPLINE
  5
11d
100
AcDbEntity
  8
Capa_1
 62
7
100
AcDbSpline
 70
8
 71
3
 72
8
 73
4
 74
0
 40
0
 40
0
 40
0
 40
0
 40
1
 40
1
 40
1
 40
1
 10
-81.060424
 20
778.472012
 30
0.0
 10
-202.869096
 20
706.563228
 30
0.0
 10
39.924376
 20
848.533220
 30
0.0
 10
-88.944952
 20
790.215804
 30
0.0
  0
SPLINE
  5
11e
100
AcDbEntity
  8
Capa_1
 62
7
100
AcDbSpline
 70
8
 71
3
 72
8
 73
4
 74
0
 40
0
 40
0
 40
0
 40
0
 40
1
 40
1
 40
1
 40
1
 10
-88.944952
 20
790.215804
 30
0.0
 10
-217.814280
 20
731.898380
 30
0.0
 10
49.092208
 20
820.583636
 30
0.0
 10
-85.326904
 20
776.541300
 30
0.0
  0
SPLINE
  5
11f
100
AcDbEntity
  8
Capa_1
 62
7
100
AcDbSpline
 70
8
 71
3
 72
8
 73
4
 74
0
 40
0
 40
0
 40
0
 40
0
 40
1
 40
1
 40
1
 40
1
 10
-85.326904
 20
776.541300
 30
0.0
 10
-219.746016
 20
732.498964
 30
0.0
 10
47.890424
 20
818.956356
 30
0.0
 10
-90.502528
 20
789.705460
 30
0.0
  0
SPLINE
  5
120
100
AcDbEntity
  8
Capa_1
 62
7
100
AcDbSpline
 70
8
 71
3
 72
8
 73
4
 74
0
 40
0
 40
0
 40
0
 40
0
 40
1
 40
1
 40
1
 40
1
 10
-90.502528
 20
789.705460
 30
0.0
 10
-228.895480
 20
760.454572
 30
0.0
 10
50.835584
 20
789.689380
 30
0.0
 10
-89.908680
 20
775.572892
 30
0.0
  0
SPLINE
  5
121
100
AcDbEntity
  8
Capa_1
 62
7
100
AcDbSpline
 70
8
 71
3
 72
8
 73
4
 74
0
 40
0
 40
0
 40
0
 40
0
 40
1
 40
1
 40
1
 40
1
 10
-89.908680
 20
775.572892
 30
0.0
 10
-230.652952
 20
761.456380
 30
0.0
 10
49.312088
 20
788.358516
 30
0.0
 10
-92.133392
 20
789.541892
 30
0.0
  0
SPLINE
  5
122
100
AcDbEntity
  8
Capa_1
 62
7
100
AcDbSpline
 70
8
 71
3
 72
8
 73
4
 74
0
 40
0
 40
0
 40
0
 40
0
 40
1
 40
1
 40
1
 40
1
 10
-92.133392
 20
789.541892
 30
0.0
 10
-233.578880
 20
790.725260
 30
0.0
 10
45.896856
 20
759.142684
 30
0.0
 10
-94.591520
 20
775.612068
 30
0.0
  0
SPLINE
  5
123
100
AcDbEntity
  8
Capa_1
 62
7
100
AcDbSpline
 70
8
 71
3
 72
8
 73
4
 74
0
 40
0
 40
0
 40
0
 40
0
 40
1
 40
1
 40
1
 40
1
 10
-94.591520
 20
775.612068
 30
0.0
 10
-235.079896
 20
792.081452
 30
0.0
 10
44.122880
 20
758.170428
 30
0.0
 10
-93.761296
 20
789.732724
 30
0.0
  0
SPLINE
  5
124
100
AcDbEntity
  8
Capa_1
 62
7
100
AcDbSpline
 70
8
 71
3
 72
8
 73
4
 74
0
 40
0
 40
0
 40
0
 40
0
 40
1
 40
1
 40
1
 40
1
 10
-93.761296
 20
789.732724
 30
0.0
 10
-231.645472
 20
821.295028
 30
0.0
 10
34.506960
 20
730.371820
 30
0.0
 10
-99.156448
 20
776.657004
 30
0.0
  0
SPLINE
  5
125
100
AcDbEntity
  8
Capa_1
 62
7
100
AcDbSpline
 70
8
 71
3
 72
8
 73
4
 74
0
 40
0
 40
0
 40
0
 40
0
 40
1
 40
1
 40
1
 40
1
 10
-99.156448
 20
776.657004
 30
0.0
 10
-232.819856
 20
822.942188
 30
0.0
 10
32.565440
 20
729.803636
 30
0.0
 10
-95.310120
 20
790.269052
 30
0.0
  0
SPLINE
  5
126
100
AcDbEntity
  8
Capa_1
 62
7
100
AcDbSpline
 70
8
 71
3
 72
8
 73
4
 74
0
 40
0
 40
0
 40
0
 40
0
 40
1
 40
1
 40
1
 40
1
 10
-95.310120
 20
790.269052
 30
0.0
 10
-223.185672
 20
850.734468
 30
0.0
 10
17.198456
 20
704.722084
 30
0.0
 10
-103.390024
 20
778.658828
 30
0.0
  0
SPLINE
  5
127
100
AcDbEntity
  8
Capa_1
 62
7
100
AcDbSpline
 70
8
 71
3
 72
8
 73
4
 74
0
 40
0
 40
0
 40
0
 40
0
 40
1
 40
1
 40
1
 40
1
 10
-103.390024
 20
778.658828
 30
0.0
 10
-223.978512
 20
852.595572
 30
0.0
 10
15.180192
 20
704.584564
 30
0.0
 10
-96.707432
 20
791.125796
 30
0.0
  0
SPLINE
  5
128
100
AcDbEntity
  8
Capa_1
 62
7
100
AcDbSpline
 70
8
 71
3
 72
8
 73
4
 74
0
 40
0
 40
0
 40
0
 40
0
 40
1
 40
1
 40
1
 40
1
 10
-96.707432
 20
791.125796
 30
0.0
 10
-208.595048
 20
877.667028
 30
0.0
 10
-5.219312
 20
683.392852
 30
0.0
 10
-107.094288
 20
781.523948
 30
0.0
  0
SPLINE
  5
129
100
AcDbEntity
  8
Capa_1
 62
7
100
AcDbSpline
 70
8
 71
3
 72
8
 73
4
 74
0
 40
0
 40
0
 40
0
 40
0
 40
1
 40
1
 40
1
 40
1
 10
-107.094288
 20
781.523948
 30
0.0
 10
-208.969272
 20
879.655052
 30
0.0
 10
-7.219960
 20
683.692404
 30
0.0
 10
-97.887904
 20
792.262884
 30
0.0
  0
SPLINE
  5
12a
100
AcDbEntity
  8
Capa_1
 62
7
100
AcDbSpline
 70
8
 71
3
 72
8
 73
4
 74
0
 40
0
 40
0
 40
0
 40
0
 40
1
 40
1
 40
1
 40
1
 10
-97.887904
 20
792.262884
 30
0.0
 10
-188.555848
 20
900.833356
 30
0.0
 10
-31.698128
 20
667.381436
 30
0.0
 10
-110.096032
 20
785.118396
 30
0.0
  0
SPLINE
  5
12b
100
AcDbEntity
  8
Capa_1
 62
7
100
AcDbSpline
 70
8
 71
3
 72
8
 73
4
 74
0
 40
0
 40
0
 40
0
 40
0
 40
1
 40
1
 40
1
 40
1
 10
-110.096032
 20
785.118396
 30
0.0
 10
-188.493944
 20
902.855356
 30
0.0
 10
-33.587600
 20
668.104068
 30
0.0
 10
-98.796336
 20
793.627156
 30
0.0
  0
SPLINE
  5
12c
100
AcDbEntity
  8
Capa_1
 62
7
100
AcDbSpline
 70
8
 71
3
 72
8
 73
4
 74
0
 40
0
 40
0
 40
0
 40
0
 40
1
 40
1
 40
1
 40
1
 10
-98.796336
 20
793.627156
 30
0.0
 10
-164.005064
 20
919.150244
 30
0.0
 10
-60.999856
 20
657.436516
 30
0.0
 10
-112.254904
 20
789.274092
 30
0.0
  0
SPLINE
  5
12d
100
AcDbEntity
  8
Capa_1
 62
7
100
AcDbSpline
 70
8
 71
3
 72
8
 73
4
 74
0
 40
0
 40
0
 40
0
 40
0
 40
1
 40
1
 40
1
 40
1
 10
-112.254904
 20
789.274092
 30
0.0
 10
-163.509944
 20
921.111660
 30
0.0
 10
-62.689808
 20
658.548436
 30
0.0
 10
-99.390248
 20
795.154812
 30
0.0
  0
SPLINE
  5
12e
100
AcDbEntity
  8
Capa_1
 62
7
100
AcDbSpline
 70
8
 71
3
 72
8
 73
4
 74
0
 40
0
 40
0
 40
0
 40
0
 40
1
 40
1
 40
1
 40
1
 10
-99.390248
 20
795.154812
 30
0.0
 10
-136.090688
 20
931.761196
 30
0.0
 10
-91.754392
 20
654.023116
 30
0.0
 10
-113.469944
 20
793.796716
 30
0.0
  0
SPLINE
  5
12f
100
AcDbEntity
  8
Capa_1
 62
7
100
AcDbSpline
 70
8
 71
3
 72
8
 73
4
 74
0
 40
0
 40
0
 40
0
 40
0
 40
1
 40
1
 40
1
 40
1
 10
-113.469944
 20
793.796716
 30
0.0
 10
-135.185496
 20
933.570316
 30
0.0
 10
-93.165808
 20
655.472332
 30
0.0
 10
-99.641880
 20
796.774436
 30
0.0
  0
SPLINE
  5
130
100
AcDbEntity
  8
Capa_1
 62
7
100
AcDbSpline
 70
8
 71
3
 72
8
 73
4
 74
0
 40
0
 40
0
 40
0
 40
0
 40
1
 40
1
 40
1
 40
1
 10
-99.641880
 20
796.774436
 30
0.0
 10
-106.117944
 20
938.076540
 30
0.0
 10
-122.523688
 20
657.300836
 30
0.0
 10
-113.684344
 20
798.474804
 30
0.0
  0
SPLINE
  5
131
100
AcDbEntity
  8
Capa_1
 62
7
100
AcDbSpline
 70
8
 71
3
 72
8
 73
4
 74
0
 40
0
 40
0
 40
0
 40
0
 40
1
 40
1
 40
1
 40
1
 10
-113.684344
 20
798.474804
 30
0.0
 10
-104.845008
 20
939.648780
 30
0.0
 10
-123.590568
 20
659.019580
 30
0.0
 10
-99.539448
 20
798.410324
 30
0.0
  0
SPLINE
  5
132
100
AcDbEntity
  8
Capa_1
 62
7
100
AcDbSpline
 70
8
 71
3
 72
8
 73
4
 74
0
 40
0
 40
0
 40
0
 40
0
 40
1
 40
1
 40
1
 40
1
 10
-99.539448
 20
798.410324
 30
0.0
 10
-75.488336
 20
937.801028
 30
0.0
 10
-151.869000
 20
667.116452
 30
0.0
 10
-112.888088
 20
803.089652
 30
0.0
  0
SPLINE
  5
133
100
AcDbEntity
  8
Capa_1
 62
7
100
AcDbSpline
 70
8
 71
3
 72
8
 73
4
 74
0
 40
0
 40
0
 40
0
 40
0
 40
1
 40
1
 40
1
 40
1
 10
-112.888088
 20
803.089652
 30
0.0
 10
-73.907176
 20
939.062860
 30
0.0
 10
-152.541456
 20
669.024356
 30
0.0
 10
-99.087760
 20
799.985908
 30
0.0
  0
SPLINE
  5
134
100
AcDbEntity
  8
Capa_1
 62
7
100
AcDbSpline
 70
8
 71
3
 72
8
 73
4
 74
0
 40
0
 40
0
 40
0
 40
0
 40
1
 40
1
 40
1
 40
1
 10
-99.087760
 20
799.985908
 30
0.0
 10
-45.634064
 20
930.947452
 30
0.0
 10
-178.418176
 20
683.010916
 30
0.0
 10
-111.118392
 20
807.425404
 30
0.0
  0
SPLINE
  5
135
100
AcDbEntity
  8
Capa_1
 62
7
100
AcDbSpline
 70
8
 71
3
 72
8
 73
4
 74
0
 40
0
 40
0
 40
0
 40
0
 40
1
 40
1
 40
1
 40
1
 10
-111.118392
 20
807.425404
 30
0.0
 10
-43.818616
 20
931.839884
 30
0.0
 10
-178.664768
 20
685.018772
 30
0.0
 10
-98.307928
 20
801.427548
 30
0.0
  0
SPLINE
  5
136
100
AcDbEntity
  8
Capa_1
 62
7
100
AcDbSpline
 70
8
 71
3
 72
8
 73
4
 74
0
 40
0
 40
0
 40
0
 40
0
 40
1
 40
1
 40
1
 40
1
 10
-98.307928
 20
801.427548
 30
0.0
 10
-17.951088
 20
917.836284
 30
0.0
 10
-200.929808
 20
704.241028
 30
0.0
 10
-108.458024
 20
811.279308
 30
0.0
  0
SPLINE
  5
137
100
AcDbEntity
  8
Capa_1
 62
7
100
AcDbSpline
 70
8
 71
3
 72
8
 73
4
 74
0
 40
0
 40
0
 40
0
 40
0
 40
1
 40
1
 40
1
 40
1
 10
-108.458024
 20
811.279308
 30
0.0
 10
-15.986232
 20
918.317588
 30
0.0
 10
-200.739000
 20
706.254956
 30
0.0
 10
-97.236416
 20
802.667812
 30
0.0
  0
SPLINE
  5
138
100
AcDbEntity
  8
Capa_1
 62
7
100
AcDbSpline
 70
8
 71
3
 72
8
 73
4
 74
0
 40
0
 40
0
 40
0
 40
0
 40
1
 40
1
 40
1
 40
1
 10
-97.236416
 20
802.667812
 30
0.0
 10
6.266168
 20
899.080668
 30
0.0
 10
-218.351272
 20
729.814164
 30
0.0
 10
-105.031360
 20
814.471244
 30
0.0
  0
SPLINE
  5
139
100
AcDbEntity
  8
Capa_1
 62
7
100
AcDbSpline
 70
8
 71
3
 72
8
 73
4
 74
0
 40
0
 40
0
 40
0
 40
0
 40
1
 40
1
 40
1
 40
1
 10
-105.031360
 20
814.471244
 30
0.0
 10
8.288552
 20
899.128332
 30
0.0
 10
-217.731992
 20
731.739988
 30
0.0
 10
-95.923328
 20
803.648772
 30
0.0
  0
SPLINE
  5
13a
100
AcDbEntity
  8
Capa_1
 62
7
100
AcDbSpline
 70
8
 71
3
 72
8
 73
4
 74
0
 40
0
 40
0
 40
0
 40
0
 40
1
 40
1
 40
1
 40
1
 10
-95.923328
 20
803.648772
 30
0.0
 10
25.885344
 20
875.557556
 30
0.0
 10
-229.867968
 20
758.534516
 30
0.0
 10
-100.998640
 20
816.851932
 30
0.0
  0
SPLINE
  5
13b
100
AcDbEntity
  8
Capa_1
 62
7
100
AcDbSpline
 70
8
 71
3
 72
8
 73
4
 74
0
 40
0
 40
0
 40
0
 40
0
 40
1
 40
1
 40
1
 40
1
 10
-100.998640
 20
816.851932
 30
0.0
 10
27.870688
 20
875.169348
 30
0.0
 10
-228.849168
 20
760.282188
 30
0.0
 10
-94.430056
 20
804.324524
 30
0.0
  0
SPLINE
  5
13c
100
AcDbEntity
  8
Capa_1
 62
7
100
AcDbSpline
 70
8
 71
3
 72
8
 73
4
 74
0
 40
0
 40
0
 40
0
 40
0
 40
1
 40
1
 40
1
 40
1
 10
-94.430056
 20
804.324524
 30
0.0
 10
39.989048
 20
848.366852
 30
0.0
 10
-234.941376
 20
789.059148
 30
0.0
 10
-96.548424
 20
818.310044
 30
0.0
  0
SPLINE
  5
13d
100
AcDbEntity
  8
Capa_1
 62
7
100
AcDbSpline
 70
8
 71
3
 72
8
 73
4
 74
0
 40
0
 40
0
 40
0
 40
0
 40
1
 40
1
 40
1
 40
1
 10
-96.548424
 20
818.310044
 30
0.0
 10
41.844528
 20
847.560932
 30
0.0
 10
-233.570704
 20
790.546956
 30
0.0
 10
-92.826440
 20
804.663468
 30
0.0
  0
SPLINE
  5
13e
100
AcDbEntity
  8
Capa_1
 62
7
100
AcDbSpline
 70
8
 71
3
 72
8
 73
4
 74
0
 40
0
 40
0
 40
0
 40
0
 40
1
 40
1
 40
1
 40
1
 10
-92.826440
 20
804.663468
 30
0.0
 10
47.917832
 20
818.779980
 30
0.0
 10
-233.334288
 20
819.960772
 30
0.0
 10
-91.888800
 20
818.777396
 30
0.0
  0
SPLINE
  5
13f
100
AcDbEntity
  8
Capa_1
 62
7
100
AcDbSpline
 70
8
 71
3
 72
8
 73
4
 74
0
 40
0
 40
0
 40
0
 40
0
 40
1
 40
1
 40
1
 40
1
 10
-91.888800
 20
818.777396
 30
0.0
 10
49.556680
 20
817.594028
 30
0.0
 10
-231.675824
 20
821.119132
 30
0.0
 10
-91.187448
 20
804.649756
 30
0.0
  0
SPLINE
  5
140
100
AcDbEntity
  8
Capa_1
 62
7
100
AcDbSpline
 70
8
 71
3
 72
8
 73
4
 74
0
 40
0
 40
0
 40
0
 40
0
 40
1
 40
1
 40
1
 40
1
 10
-91.187448
 20
804.649756
 30
0.0
 10
49.300936
 20
788.180372
 30
0.0
 10
-225.121832
 20
849.794444
 30
0.0
 10
-87.237656
 20
818.232148
 30
0.0
  0
SPLINE
  5
141
100
AcDbEntity
  8
Capa_1
 62
7
100
AcDbSpline
 70
8
 71
3
 72
8
 73
4
 74
0
 40
0
 40
0
 40
0
 40
0
 40
1
 40
1
 40
1
 40
1
 10
-87.237656
 20
818.232148
 30
0.0
 10
50.646520
 20
786.669844
 30
0.0
 10
-223.253128
 20
850.569212
 30
0.0
 10
-89.589720
 20
804.284028
 30
0.0
  0
SPLINE
  5
142
100
AcDbEntity
  8
Capa_1
 62
7
100
AcDbSpline
 70
8
 71
3
 72
8
 73
4
 74
0
 40
0
 40
0
 40
0
 40
0
 40
1
 40
1
 40
1
 40
1
 10
-89.589720
 20
804.284028
 30
0.0
 10
44.073688
 20
757.998844
 30
0.0
 10
-210.688016
 20
877.165196
 30
0.0
 10
-82.812456
 20
816.699780
 30
0.0
  0
SPLINE
  5
143
100
AcDbEntity
  8
Capa_1
 62
7
100
AcDbSpline
 70
8
 71
3
 72
8
 73
4
 74
0
 40
0
 40
0
 40
0
 40
0
 40
1
 40
1
 40
1
 40
1
 10
-82.812456
 20
816.699780
 30
0.0
 10
45.063096
 20
756.234364
 30
0.0
 10
-208.696448
 20
877.520132
 30
0.0
 10
-88.107968
 20
803.583388
 30
0.0
  0
SPLINE
  5
144
100
AcDbEntity
  8
Capa_1
 62
7
100
AcDbSpline
 70
8
 71
3
 72
8
 73
4
 74
0
 40
0
 40
0
 40
0
 40
0
 40
1
 40
1
 40
1
 40
1
 10
-88.107968
 20
803.583388
 30
0.0
 10
32.480520
 20
729.646644
 30
0.0
 10
-190.707760
 20
900.793188
 30
0.0
 10
-78.820136
 20
814.251956
 30
0.0
  0
SPLINE
  5
145
100
AcDbEntity
  8
Capa_1
 62
7
100
AcDbSpline
 70
8
 71
3
 72
8
 73
4
 74
0
 40
0
 40
0
 40
0
 40
0
 40
1
 40
1
 40
1
 40
1
 10
-78.820136
 20
814.251956
 30
0.0
 10
33.067488
 20
727.710724
 30
0.0
 10
-188.686456
 20
900.711700
 30
0.0
 10
-86.811472
 20
802.580596
 30
0.0
  0
SPLINE
  5
146
100
AcDbEntity
  8
Capa_1
 62
7
100
AcDbSpline
 70
8
 71
3
 72
8
 73
4
 74
0
 40
0
 40
0
 40
0
 40
0
 40
1
 40
1
 40
1
 40
1
 10
-86.811472
 20
802.580596
 30
0.0
 10
15.063504
 20
704.449492
 30
0.0
 10
-166.115304
 20
919.573604
 30
0.0
 10
-75.447360
 20
811.003132
 30
0.0
  0
SPLINE
  5
147
100
AcDbEntity
  8
Capa_1
 62
7
100
AcDbSpline
 70
8
 71
3
 72
8
 73
4
 74
0
 40
0
 40
0
 40
0
 40
0
 40
1
 40
1
 40
1
 40
1
 10
-75.447360
 20
811.003132
 30
0.0
 10
15.220584
 20
702.432652
 30
0.0
 10
-164.158776
 20
919.059500
 30
0.0
 10
-85.760864
 20
801.322540
 30
0.0
  0
SPLINE
  5
148
100
AcDbEntity
  8
Capa_1
 62
7
100
AcDbSpline
 70
8
 71
3
 72
8
 73
4
 74
0
 40
0
 40
0
 40
0
 40
0
 40
1
 40
1
 40
1
 40
1
 10
-85.760864
 20
801.322540
 30
0.0
 10
-7.362952
 20
683.585580
 30
0.0
 10
-138.060576
 20
932.628300
 30
0.0
 10
-72.851840
 20
807.105212
 30
0.0
  0
SPLINE
  5
149
100
AcDbEntity
  8
Capa_1
 62
7
100
AcDbSpline
 70
8
 71
3
 72
8
 73
4
 74
0
 40
0
 40
0
 40
0
 40
0
 40
1
 40
1
 40
1
 40
1
 10
-72.851840
 20
807.105212
 30
0.0
 10
-7.643104
 20
681.582124
 30
0.0
 10
-136.260304
 20
931.705620
 30
0.0
 10
-85.005264
 20
799.868044
 30
0.0
  0
SPLINE
  5
14a
100
AcDbEntity
  8
Capa_1
 62
7
100
AcDbSpline
 70
8
 71
3
 72
8
 73
4
 74
0
 40
0
 40
0
 40
0
 40
0
 40
1
 40
1
 40
1
 40
1
 10
-85.005264
 20
799.868044
 30
0.0
 10
-33.750216
 20
668.030476
 30
0.0
 10
-107.855376
 20
939.346844
 30
0.0
 10
-71.154936
 20
802.740468
 30
0.0
  0
SPLINE
  5
14b
100
AcDbEntity
  8
Capa_1
 62
7
100
AcDbSpline
 70
8
 71
3
 72
8
 73
4
 74
0
 40
0
 40
0
 40
0
 40
0
 40
1
 40
1
 40
1
 40
1
 10
-71.154936
 20
802.740468
 30
0.0
 10
-34.454504
 20
666.134084
 30
0.0
 10
-106.295544
 20
938.058724
 30
0.0
 10
-84.580000
 20
798.285124
 30
0.0
  0
SPLINE
  5
14c
100
AcDbEntity
  8
Capa_1
 62
7
100
AcDbSpline
 70
8
 71
3
 72
8
 73
4
 74
0
 40
0
 40
0
 40
0
 40
0
 40
1
 40
1
 40
1
 40
1
 10
-84.580000
 20
798.285124
 30
0.0
 10
-62.864448
 20
658.511524
 30
0.0
 10
-76.912072
 20
939.415084
 30
0.0
 10
-70.436000
 20
798.112980
 30
0.0
  0
SPLINE
  5
14d
100
AcDbEntity
  8
Capa_1
 62
7
100
AcDbSpline
 70
8
 71
3
 72
8
 73
4
 74
0
 40
0
 40
0
 40
0
 40
0
 40
1
 40
1
 40
1
 40
1
 10
-70.436000
 20
798.112980
 30
0.0
 10
-63.959936
 20
656.810876
 30
0.0
 10
-75.665616
 20
937.821772
 30
0.0
 10
-84.504952
 20
796.647796
 30
0.0
  0
SPLINE
  5
14e
100
AcDbEntity
  8
Capa_1
 62
7
100
AcDbSpline
 70
8
 71
3
 72
8
 73
4
 74
0
 40
0
 40
0
 40
0
 40
0
 40
1
 40
1
 40
1
 40
1
 10
-84.504952
 20
796.647796
 30
0.0
 10
-93.344296
 20
655.473820
 30
0.0
 10
-46.677528
 20
932.829836
 30
0.0
 10
-70.728648
 20
793.439132
 30
0.0
  0
SPLINE
  5
14f
100
AcDbEntity
  8
Capa_1
 62
7
100
AcDbSpline
 70
8
 71
3
 72
8
 73
4
 74
0
 40
0
 40
0
 40
0
 40
0
 40
1
 40
1
 40
1
 40
1
 10
-70.728648
 20
793.439132
 30
0.0
 10
-94.779760
 20
654.048428
 30
0.0
 10
-45.802736
 20
931.005820
 30
0.0
 10
-84.783648
 20
795.032612
 30
0.0
  0
SPLINE
  5
150
100
AcDbEntity
  8
Capa_1
 62
7
100
AcDbSpline
 70
8
 71
3
 72
8
 73
4
 74
0
 40
0
 40
0
 40
0
 40
0
 40
1
 40
1
 40
1
 40
1
 10
-84.783648
 20
795.032612
 30
0.0
 10
-123.764560
 20
659.059404
 30
0.0
 10
-18.565496
 20
919.899012
 30
0.0
 10
-72.019184
 20
788.937468
 30
0.0
  0
LWPOLYLINE
  5
151
100
AcDbEntity
  8
Capa_1
 62
7
100
AcDbPolyline
 90
5
 70
1
 10
-168.106260
 20
511.752912
 30
0.0
 10
-151.807102
 20
511.752912
 30
0.0
 10
-151.807102
 20
495.453755
 30
0.0
 10
-168.106260
 20
495.453755
 30
0.0
 10
-168.106260
 20
511.752912
 30
0.0
  0
SPLINE
  5
152
100
AcDbEntity
  8
Capa_1
 62
7
100
AcDbSpline
 70
8
 71
3
 72
8
 73
4
 74
0
 40
0
 40
0
 40
0
 40
0
 40
1
 40
1
 40
1
 40
1
 10
-232.296384
 20
495.717492
 30
0.0
 10
-285.750080
 20
364.755940
 30
0.0
 10
-178.380456
 20
624.709612
 30
0.0
 10
-245.680240
 20
500.295124
 30
0.0
  0
SPLINE
  5
153
100
AcDbEntity
  8
Capa_1
 62
7
100
AcDbSpline
 70
8
 71
3
 72
8
 73
4
 74
0
 40
0
 40
0
 40
0
 40
0
 40
1
 40
1
 40
1
 40
1
 10
-245.680240
 20
500.295124
 30
0.0
 10
-312.980016
 20
375.880636
 30
0.0
 10
-154.167640
 20
608.007276
 30
0.0
 10
-234.524480
 20
491.598500
 30
0.0
  0
SPLINE
  5
154
100
AcDbEntity
  8
Capa_1
 62
7
100
AcDbSpline
 70
8
 71
3
 72
8
 73
4
 74
0
 40
0
 40
0
 40
0
 40
0
 40
1
 40
1
 40
1
 40
1
 10
-234.524480
 20
491.598500
 30
0.0
 10
-314.881320
 20
375.189724
 30
0.0
 10
-154.139584
 20
605.984524
 30
0.0
 10
-246.611368
 20
498.946244
 30
0.0
  0
SPLINE
  5
155
100
AcDbEntity
  8
Capa_1
 62
7
100
AcDbSpline
 70
8
 71
3
 72
8
 73
4
 74
0
 40
0
 40
0
 40
0
 40
0
 40
1
 40
1
 40
1
 40
1
 10
-246.611368
 20
498.946244
 30
0.0
 10
-339.083152
 20
391.907964
 30
0.0
 10
-134.083360
 20
584.467644
 30
0.0
 10
-237.585944
 20
488.054780
 30
0.0
  0
SPLINE
  5
156
100
AcDbEntity
  8
Capa_1
 62
7
100
AcDbSpline
 70
8
 71
3
 72
8
 73
4
 74
0
 40
0
 40
0
 40
0
 40
0
 40
1
 40
1
 40
1
 40
1
 10
-237.585944
 20
488.054780
 30
0.0
 10
-341.088528
 20
391.641924
 30
0.0
 10
-134.490784
 20
582.486148
 30
0.0
 10
-247.810704
 20
497.829068
 30
0.0
  0
SPLINE
  5
157
100
AcDbEntity
  8
Capa_1
 62
7
100
AcDbSpline
 70
8
 71
3
 72
8
 73
4
 74
0
 40
0
 40
0
 40
0
 40
0
 40
1
 40
1
 40
1
 40
1
 10
-247.810704
 20
497.829068
 30
0.0
 10
-361.130616
 20
413.171980
 30
0.0
 10
-119.528960
 20
557.160820
 30
0.0
 10
-241.337624
 20
485.252036
 30
0.0
  0
SPLINE
  5
158
100
AcDbEntity
  8
Capa_1
 62
7
100
AcDbSpline
 70
8
 71
3
 72
8
 73
4
 74
0
 40
0
 40
0
 40
0
 40
0
 40
1
 40
1
 40
1
 40
1
 10
-241.337624
 20
485.252036
 30
0.0
 10
-363.146296
 20
413.343252
 30
0.0
 10
-120.352824
 20
555.313244
 30
0.0
 10
-249.222152
 20
496.995828
 30
0.0
  0
SPLINE
  5
159
100
AcDbEntity
  8
Capa_1
 62
7
100
AcDbSpline
 70
8
 71
3
 72
8
 73
4
 74
0
 40
0
 40
0
 40
0
 40
0
 40
1
 40
1
 40
1
 40
1
 10
-249.222152
 20
496.995828
 30
0.0
 10
-378.091480
 20
438.678404
 30
0.0
 10
-111.184992
 20
527.363660
 30
0.0
 10
-245.604104
 20
483.321324
 30
0.0
  0
SPLINE
  5
15a
100
AcDbEntity
  8
Capa_1
 62
7
100
AcDbSpline
 70
8
 71
3
 72
8
 73
4
 74
0
 40
0
 40
0
 40
0
 40
0
 40
1
 40
1
 40
1
 40
1
 10
-245.604104
 20
483.321324
 30
0.0
 10
-380.023216
 20
439.278988
 30
0.0
 10
-112.386776
 20
525.736380
 30
0.0
 10
-250.779728
 20
496.485484
 30
0.0
  0
SPLINE
  5
15b
100
AcDbEntity
  8
Capa_1
 62
7
100
AcDbSpline
 70
8
 71
3
 72
8
 73
4
 74
0
 40
0
 40
0
 40
0
 40
0
 40
1
 40
1
 40
1
 40
1
 10
-250.779728
 20
496.485484
 30
0.0
 10
-389.172680
 20
467.234596
 30
0.0
 10
-109.441616
 20
496.469404
 30
0.0
 10
-250.185880
 20
482.352916
 30
0.0
  0
SPLINE
  5
15c
100
AcDbEntity
  8
Capa_1
 62
7
100
AcDbSpline
 70
8
 71
3
 72
8
 73
4
 74
0
 40
0
 40
0
 40
0
 40
0
 40
1
 40
1
 40
1
 40
1
 10
-250.185880
 20
482.352916
 30
0.0
 10
-390.930152
 20
468.236404
 30
0.0
 10
-110.965112
 20
495.138540
 30
0.0
 10
-252.410592
 20
496.321916
 30
0.0
  0
SPLINE
  5
15d
100
AcDbEntity
  8
Capa_1
 62
7
100
AcDbSpline
 70
8
 71
3
 72
8
 73
4
 74
0
 40
0
 40
0
 40
0
 40
0
 40
1
 40
1
 40
1
 40
1
 10
-252.410592
 20
496.321916
 30
0.0
 10
-393.856080
 20
497.505284
 30
0.0
 10
-114.380344
 20
465.922708
 30
0.0
 10
-254.868720
 20
482.392092
 30
0.0
  0
SPLINE
  5
15e
100
AcDbEntity
  8
Capa_1
 62
7
100
AcDbSpline
 70
8
 71
3
 72
8
 73
4
 74
0
 40
0
 40
0
 40
0
 40
0
 40
1
 40
1
 40
1
 40
1
 10
-254.868720
 20
482.392092
 30
0.0
 10
-395.357096
 20
498.861476
 30
0.0
 10
-116.154320
 20
464.950452
 30
0.0
 10
-254.038496
 20
496.512748
 30
0.0
  0
SPLINE
  5
15f
100
AcDbEntity
  8
Capa_1
 62
7
100
AcDbSpline
 70
8
 71
3
 72
8
 73
4
 74
0
 40
0
 40
0
 40
0
 40
0
 40
1
 40
1
 40
1
 40
1
 10
-254.038496
 20
496.512748
 30
0.0
 10
-391.922672
 20
528.075052
 30
0.0
 10
-125.770240
 20
437.151844
 30
0.0
 10
-259.433648
 20
483.437028
 30
0.0
  0
SPLINE
  5
160
100
AcDbEntity
  8
Capa_1
 62
7
100
AcDbSpline
 70
8
 71
3
 72
8
 73
4
 74
0
 40
0
 40
0
 40
0
 40
0
 40
1
 40
1
 40
1
 40
1
 10
-259.433648
 20
483.437028
 30
0.0
 10
-393.097056
 20
529.722212
 30
0.0
 10
-127.711760
 20
436.583660
 30
0.0
 10
-255.587320
 20
497.049076
 30
0.0
  0
SPLINE
  5
161
100
AcDbEntity
  8
Capa_1
 62
7
100
AcDbSpline
 70
8
 71
3
 72
8
 73
4
 74
0
 40
0
 40
0
 40
0
 40
0
 40
1
 40
1
 40
1
 40
1
 10
-255.587320
 20
497.049076
 30
0.0
 10
-383.462872
 20
557.514492
 30
0.0
 10
-143.078744
 20
411.502108
 30
0.0
 10
-263.667224
 20
485.438852
 30
0.0
  0
SPLINE
  5
162
100
AcDbEntity
  8
Capa_1
 62
7
100
AcDbSpline
 70
8
 71
3
 72
8
 73
4
 74
0
 40
0
 40
0
 40
0
 40
0
 40
1
 40
1
 40
1
 40
1
 10
-263.667224
 20
485.438852
 30
0.0
 10
-384.255712
 20
559.375596
 30
0.0
 10
-145.097008
 20
411.364588
 30
0.0
 10
-256.984632
 20
497.905820
 30
0.0
  0
SPLINE
  5
163
100
AcDbEntity
  8
Capa_1
 62
7
100
AcDbSpline
 70
8
 71
3
 72
8
 73
4
 74
0
 40
0
 40
0
 40
0
 40
0
 40
1
 40
1
 40
1
 40
1
 10
-256.984632
 20
497.905820
 30
0.0
 10
-368.872248
 20
584.447052
 30
0.0
 10
-165.496512
 20
390.172876
 30
0.0
 10
-267.371488
 20
488.303972
 30
0.0
  0
SPLINE
  5
164
100
AcDbEntity
  8
Capa_1
 62
7
100
AcDbSpline
 70
8
 71
3
 72
8
 73
4
 74
0
 40
0
 40
0
 40
0
 40
0
 40
1
 40
1
 40
1
 40
1
 10
-267.371488
 20
488.303972
 30
0.0
 10
-369.246472
 20
586.435076
 30
0.0
 10
-167.497160
 20
390.472428
 30
0.0
 10
-258.165104
 20
499.042908
 30
0.0
  0
SPLINE
  5
165
100
AcDbEntity
  8
Capa_1
 62
7
100
AcDbSpline
 70
8
 71
3
 72
8
 73
4
 74
0
 40
0
 40
0
 40
0
 40
0
 40
1
 40
1
 40
1
 40
1
 10
-258.165104
 20
499.042908
 30
0.0
 10
-348.833048
 20
607.613380
 30
0.0
 10
-191.975328
 20
374.161460
 30
0.0
 10
-270.373232
 20
491.898420
 30
0.0
  0
SPLINE
  5
166
100
AcDbEntity
  8
Capa_1
 62
7
100
AcDbSpline
 70
8
 71
3
 72
8
 73
4
 74
0
 40
0
 40
0
 40
0
 40
0
 40
1
 40
1
 40
1
 40
1
 10
-270.373232
 20
491.898420
 30
0.0
 10
-348.771144
 20
609.635380
 30
0.0
 10
-193.864800
 20
374.884092
 30
0.0
 10
-259.073536
 20
500.407180
 30
0.0
  0
SPLINE
  5
167
100
AcDbEntity
  8
Capa_1
 62
7
100
AcDbSpline
 70
8
 71
3
 72
8
 73
4
 74
0
 40
0
 40
0
 40
0
 40
0
 40
1
 40
1
 40
1
 40
1
 10
-259.073536
 20
500.407180
 30
0.0
 10
-324.282264
 20
625.930268
 30
0.0
 10
-221.277056
 20
364.216540
 30
0.0
 10
-272.532104
 20
496.054116
 30
0.0
  0
SPLINE
  5
168
100
AcDbEntity
  8
Capa_1
 62
7
100
AcDbSpline
 70
8
 71
3
 72
8
 73
4
 74
0
 40
0
 40
0
 40
0
 40
0
 40
1
 40
1
 40
1
 40
1
 10
-272.532104
 20
496.054116
 30
0.0
 10
-323.787144
 20
627.891684
 30
0.0
 10
-222.967008
 20
365.328460
 30
0.0
 10
-259.667448
 20
501.934836
 30
0.0
  0
SPLINE
  5
169
100
AcDbEntity
  8
Capa_1
 62
7
100
AcDbSpline
 70
8
 71
3
 72
8
 73
4
 74
0
 40
0
 40
0
 40
0
 40
0
 40
1
 40
1
 40
1
 40
1
 10
-259.667448
 20
501.934836
 30
0.0
 10
-296.367888
 20
638.541220
 30
0.0
 10
-252.031592
 20
360.803140
 30
0.0
 10
-273.747144
 20
500.576740
 30
0.0
  0
SPLINE
  5
16a
100
AcDbEntity
  8
Capa_1
 62
7
100
AcDbSpline
 70
8
 71
3
 72
8
 73
4
 74
0
 40
0
 40
0
 40
0
 40
0
 40
1
 40
1
 40
1
 40
1
 10
-273.747144
 20
500.576740
 30
0.0
 10
-295.462696
 20
640.350340
 30
0.0
 10
-253.443008
 20
362.252356
 30
0.0
 10
-259.919080
 20
503.554460
 30
0.0
  0
SPLINE
  5
16b
100
AcDbEntity
  8
Capa_1
 62
7
100
AcDbSpline
 70
8
 71
3
 72
8
 73
4
 74
0
 40
0
 40
0
 40
0
 40
0
 40
1
 40
1
 40
1
 40
1
 10
-259.919080
 20
503.554460
 30
0.0
 10
-266.395144
 20
644.856564
 30
0.0
 10
-282.800888
 20
364.080860
 30
0.0
 10
-273.961544
 20
505.254828
 30
0.0
  0
SPLINE
  5
16c
100
AcDbEntity
  8
Capa_1
 62
7
100
AcDbSpline
 70
8
 71
3
 72
8
 73
4
 74
0
 40
0
 40
0
 40
0
 40
0
 40
1
 40
1
 40
1
 40
1
 10
-273.961544
 20
505.254828
 30
0.0
 10
-265.122208
 20
646.428804
 30
0.0
 10
-283.867768
 20
365.799604
 30
0.0
 10
-259.816648
 20
505.190348
 30
0.0
  0
SPLINE
  5
16d
100
AcDbEntity
  8
Capa_1
 62
7
100
AcDbSpline
 70
8
 71
3
 72
8
 73
4
 74
0
 40
0
 40
0
 40
0
 40
0
 40
1
 40
1
 40
1
 40
1
 10
-259.816648
 20
505.190348
 30
0.0
 10
-235.765536
 20
644.581052
 30
0.0
 10
-312.146200
 20
373.896476
 30
0.0
 10
-273.165288
 20
509.869676
 30
0.0
  0
SPLINE
  5
16e
100
AcDbEntity
  8
Capa_1
 62
7
100
AcDbSpline
 70
8
 71
3
 72
8
 73
4
 74
0
 40
0
 40
0
 40
0
 40
0
 40
1
 40
1
 40
1
 40
1
 10
-273.165288
 20
509.869676
 30
0.0
 10
-234.184376
 20
645.842884
 30
0.0
 10
-312.818656
 20
375.804380
 30
0.0
 10
-259.364960
 20
506.765932
 30
0.0
  0
SPLINE
  5
16f
100
AcDbEntity
  8
Capa_1
 62
7
100
AcDbSpline
 70
8
 71
3
 72
8
 73
4
 74
0
 40
0
 40
0
 40
0
 40
0
 40
1
 40
1
 40
1
 40
1
 10
-259.364960
 20
506.765932
 30
0.0
 10
-205.911264
 20
637.727476
 30
0.0
 10
-338.695376
 20
389.790940
 30
0.0
 10
-271.395592
 20
514.205428
 30
0.0
  0
SPLINE
  5
170
100
AcDbEntity
  8
Capa_1
 62
7
100
AcDbSpline
 70
8
 71
3
 72
8
 73
4
 74
0
 40
0
 40
0
 40
0
 40
0
 40
1
 40
1
 40
1
 40
1
 10
-271.395592
 20
514.205428
 30
0.0
 10
-204.095816
 20
638.619908
 30
0.0
 10
-338.941968
 20
391.798796
 30
0.0
 10
-258.585128
 20
508.207572
 30
0.0
  0
SPLINE
  5
171
100
AcDbEntity
  8
Capa_1
 62
7
100
AcDbSpline
 70
8
 71
3
 72
8
 73
4
 74
0
 40
0
 40
0
 40
0
 40
0
 40
1
 40
1
 40
1
 40
1
 10
-258.585128
 20
508.207572
 30
0.0
 10
-178.228288
 20
624.616308
 30
0.0
 10
-361.207008
 20
411.021052
 30
0.0
 10
-268.735224
 20
518.059332
 30
0.0
  0
SPLINE
  5
172
100
AcDbEntity
  8
Capa_1
 62
7
100
AcDbSpline
 70
8
 71
3
 72
8
 73
4
 74
0
 40
0
 40
0
 40
0
 40
0
 40
1
 40
1
 40
1
 40
1
 10
-268.735224
 20
518.059332
 30
0.0
 10
-176.263432
 20
625.097612
 30
0.0
 10
-361.016200
 20
413.034980
 30
0.0
 10
-257.513616
 20
509.447836
 30
0.0
  0
SPLINE
  5
173
100
AcDbEntity
  8
Capa_1
 62
7
100
AcDbSpline
 70
8
 71
3
 72
8
 73
4
 74
0
 40
0
 40
0
 40
0
 40
0
 40
1
 40
1
 40
1
 40
1
 10
-257.513616
 20
509.447836
 30
0.0
 10
-154.011032
 20
605.860692
 30
0.0
 10
-378.628472
 20
436.594188
 30
0.0
 10
-265.308560
 20
521.251268
 30
0.0
  0
SPLINE
  5
174
100
AcDbEntity
  8
Capa_1
 62
7
100
AcDbSpline
 70
8
 71
3
 72
8
 73
4
 74
0
 40
0
 40
0
 40
0
 40
0
 40
1
 40
1
 40
1
 40
1
 10
-265.308560
 20
521.251268
 30
0.0
 10
-151.988648
 20
605.908356
 30
0.0
 10
-378.009192
 20
438.520012
 30
0.0
 10
-256.200528
 20
510.428796
 30
0.0
  0
SPLINE
  5
175
100
AcDbEntity
  8
Capa_1
 62
7
100
AcDbSpline
 70
8
 71
3
 72
8
 73
4
 74
0
 40
0
 40
0
 40
0
 40
0
 40
1
 40
1
 40
1
 40
1
 10
-256.200528
 20
510.428796
 30
0.0
 10
-134.391856
 20
582.337580
 30
0.0
 10
-390.145168
 20
465.314540
 30
0.0
 10
-261.275840
 20
523.631956
 30
0.0
  0
SPLINE
  5
176
100
AcDbEntity
  8
Capa_1
 62
7
100
AcDbSpline
 70
8
 71
3
 72
8
 73
4
 74
0
 40
0
 40
0
 40
0
 40
0
 40
1
 40
1
 40
1
 40
1
 10
-261.275840
 20
523.631956
 30
0.0
 10
-132.406512
 20
581.949372
 30
0.0
 10
-389.126368
 20
467.062212
 30
0.0
 10
-254.707256
 20
511.104548
 30
0.0
  0
SPLINE
  5
177
100
AcDbEntity
  8
Capa_1
 62
7
100
AcDbSpline
 70
8
 71
3
 72
8
 73
4
 74
0
 40
0
 40
0
 40
0
 40
0
 40
1
 40
1
 40
1
 40
1
 10
-254.707256
 20
511.104548
 30
0.0
 10
-120.288152
 20
555.146876
 30
0.0
 10
-395.218576
 20
495.839172
 30
0.0
 10
-256.825624
 20
525.090068
 30
0.0
  0
SPLINE
  5
178
100
AcDbEntity
  8
Capa_1
 62
7
100
AcDbSpline
 70
8
 71
3
 72
8
 73
4
 74
0
 40
0
 40
0
 40
0
 40
0
 40
1
 40
1
 40
1
 40
1
 10
-256.825624
 20
525.090068
 30
0.0
 10
-118.432672
 20
554.340956
 30
0.0
 10
-393.847904
 20
497.326980
 30
0.0
 10
-253.103640
 20
511.443492
 30
0.0
  0
SPLINE
  5
179
100
AcDbEntity
  8
Capa_1
 62
7
100
AcDbSpline
 70
8
 71
3
 72
8
 73
4
 74
0
 40
0
 40
0
 40
0
 40
0
 40
1
 40
1
 40
1
 40
1
 10
-253.103640
 20
511.443492
 30
0.0
 10
-112.359368
 20
525.560004
 30
0.0
 10
-393.611488
 20
526.740796
 30
0.0
 10
-252.166000
 20
525.557420
 30
0.0
  0
SPLINE
  5
17a
100
AcDbEntity
  8
Capa_1
 62
7
100
AcDbSpline
 70
8
 71
3
 72
8
 73
4
 74
0
 40
0
 40
0
 40
0
 40
0
 40
1
 40
1
 40
1
 40
1
 10
-252.166000
 20
525.557420
 30
0.0
 10
-110.720520
 20
524.374052
 30
0.0
 10
-391.953024
 20
527.899156
 30
0.0
 10
-251.464648
 20
511.429780
 30
0.0
  0
SPLINE
  5
17b
100
AcDbEntity
  8
Capa_1
 62
7
100
AcDbSpline
 70
8
 71
3
 72
8
 73
4
 74
0
 40
0
 40
0
 40
0
 40
0
 40
1
 40
1
 40
1
 40
1
 10
-251.464648
 20
511.429780
 30
0.0
 10
-110.976264
 20
494.960396
 30
0.0
 10
-385.399032
 20
556.574468
 30
0.0
 10
-247.514856
 20
525.012172
 30
0.0
  0
SPLINE
  5
17c
100
AcDbEntity
  8
Capa_1
 62
7
100
AcDbSpline
 70
8
 71
3
 72
8
 73
4
 74
0
 40
0
 40
0
 40
0
 40
0
 40
1
 40
1
 40
1
 40
1
 10
-247.514856
 20
525.012172
 30
0.0
 10
-109.630680
 20
493.449868
 30
0.0
 10
-383.530328
 20
557.349236
 30
0.0
 10
-249.866920
 20
511.064052
 30
0.0
  0
SPLINE
  5
17d
100
AcDbEntity
  8
Capa_1
 62
7
100
AcDbSpline
 70
8
 71
3
 72
8
 73
4
 74
0
 40
0
 40
0
 40
0
 40
0
 40
1
 40
1
 40
1
 40
1
 10
-249.866920
 20
511.064052
 30
0.0
 10
-116.203512
 20
464.778868
 30
0.0
 10
-370.965216
 20
583.945220
 30
0.0
 10
-243.089656
 20
523.479804
 30
0.0
  0
SPLINE
  5
17e
100
AcDbEntity
  8
Capa_1
 62
7
100
AcDbSpline
 70
8
 71
3
 72
8
 73
4
 74
0
 40
0
 40
0
 40
0
 40
0
 40
1
 40
1
 40
1
 40
1
 10
-243.089656
 20
523.479804
 30
0.0
 10
-115.214104
 20
463.014388
 30
0.0
 10
-368.973648
 20
584.300156
 30
0.0
 10
-248.385168
 20
510.363412
 30
0.0
  0
SPLINE
  5
17f
100
AcDbEntity
  8
Capa_1
 62
7
100
AcDbSpline
 70
8
 71
3
 72
8
 73
4
 74
0
 40
0
 40
0
 40
0
 40
0
 40
1
 40
1
 40
1
 40
1
 10
-248.385168
 20
510.363412
 30
0.0
 10
-127.796680
 20
436.426668
 30
0.0
 10
-350.984960
 20
607.573212
 30
0.0
 10
-239.097336
 20
521.031980
 30
0.0
  0
SPLINE
  5
180
100
AcDbEntity
  8
Capa_1
 62
7
100
AcDbSpline
 70
8
 71
3
 72
8
 73
4
 74
0
 40
0
 40
0
 40
0
 40
0
 40
1
 40
1
 40
1
 40
1
 10
-239.097336
 20
521.031980
 30
0.0
 10
-127.209712
 20
434.490748
 30
0.0
 10
-348.963656
 20
607.491724
 30
0.0
 10
-247.088672
 20
509.360620
 30
0.0
  0
SPLINE
  5
181
100
AcDbEntity
  8
Capa_1
 62
7
100
AcDbSpline
 70
8
 71
3
 72
8
 73
4
 74
0
 40
0
 40
0
 40
0
 40
0
 40
1
 40
1
 40
1
 40
1
 10
-247.088672
 20
509.360620
 30
0.0
 10
-145.213696
 20
411.229516
 30
0.0
 10
-326.392504
 20
626.353628
 30
0.0
 10
-235.724560
 20
517.783156
 30
0.0
  0
SPLINE
  5
182
100
AcDbEntity
  8
Capa_1
 62
7
100
AcDbSpline
 70
8
 71
3
 72
8
 73
4
 74
0
 40
0
 40
0
 40
0
 40
0
 40
1
 40
1
 40
1
 40
1
 10
-235.724560
 20
517.783156
 30
0.0
 10
-145.056616
 20
409.212676
 30
0.0
 10
-324.435976
 20
625.839524
 30
0.0
 10
-246.038064
 20
508.102564
 30
0.0
  0
SPLINE
  5
183
100
AcDbEntity
  8
Capa_1
 62
7
100
AcDbSpline
 70
8
 71
3
 72
8
 73
4
 74
0
 40
0
 40
0
 40
0
 40
0
 40
1
 40
1
 40
1
 40
1
 10
-246.038064
 20
508.102564
 30
0.0
 10
-167.640152
 20
390.365604
 30
0.0
 10
-298.337776
 20
639.408324
 30
0.0
 10
-233.129040
 20
513.885236
 30
0.0
  0
SPLINE
  5
184
100
AcDbEntity
  8
Capa_1
 62
7
100
AcDbSpline
 70
8
 71
3
 72
8
 73
4
 74
0
 40
0
 40
0
 40
0
 40
0
 40
1
 40
1
 40
1
 40
1
 10
-233.129040
 20
513.885236
 30
0.0
 10
-167.920304
 20
388.362148
 30
0.0
 10
-296.537504
 20
638.485644
 30
0.0
 10
-245.282464
 20
506.648068
 30
0.0
  0
SPLINE
  5
185
100
AcDbEntity
  8
Capa_1
 62
7
100
AcDbSpline
 70
8
 71
3
 72
8
 73
4
 74
0
 40
0
 40
0
 40
0
 40
0
 40
1
 40
1
 40
1
 40
1
 10
-245.282464
 20
506.648068
 30
0.0
 10
-194.027416
 20
374.810500
 30
0.0
 10
-268.132576
 20
646.126868
 30
0.0
 10
-231.432136
 20
509.520492
 30
0.0
  0
SPLINE
  5
186
100
AcDbEntity
  8
Capa_1
 62
7
100
AcDbSpline
 70
8
 71
3
 72
8
 73
4
 74
0
 40
0
 40
0
 40
0
 40
0
 40
1
 40
1
 40
1
 40
1
 10
-231.432136
 20
509.520492
 30
0.0
 10
-194.731704
 20
372.914108
 30
0.0
 10
-266.572744
 20
644.838748
 30
0.0
 10
-244.857200
 20
505.065148
 30
0.0
  0
SPLINE
  5
187
100
AcDbEntity
  8
Capa_1
 62
7
100
AcDbSpline
 70
8
 71
3
 72
8
 73
4
 74
0
 40
0
 40
0
 40
0
 40
0
 40
1
 40
1
 40
1
 40
1
 10
-244.857200
 20
505.065148
 30
0.0
 10
-223.141648
 20
365.291548
 30
0.0
 10
-237.189272
 20
646.195108
 30
0.0
 10
-230.713200
 20
504.893004
 30
0.0
  0
SPLINE
  5
188
100
AcDbEntity
  8
Capa_1
 62
7
100
AcDbSpline
 70
8
 71
3
 72
8
 73
4
 74
0
 40
0
 40
0
 40
0
 40
0
 40
1
 40
1
 40
1
 40
1
 10
-230.713200
 20
504.893004
 30
0.0
 10
-224.237136
 20
363.590900
 30
0.0
 10
-235.942816
 20
644.601796
 30
0.0
 10
-244.782152
 20
503.427820
 30
0.0
  0
SPLINE
  5
189
100
AcDbEntity
  8
Capa_1
 62
7
100
AcDbSpline
 70
8
 71
3
 72
8
 73
4
 74
0
 40
0
 40
0
 40
0
 40
0
 40
1
 40
1
 40
1
 40
1
 10
-244.782152
 20
503.427820
 30
0.0
 10
-253.621496
 20
362.253844
 30
0.0
 10
-206.954728
 20
639.609860
 30
0.0
 10
-231.005848
 20
500.219156
 30
0.0
  0
SPLINE
  5
18a
100
AcDbEntity
  8
Capa_1
 62
7
100
AcDbSpline
 70
8
 71
3
 72
8
 73
4
 74
0
 40
0
 40
0
 40
0
 40
0
 40
1
 40
1
 40
1
 40
1
 10
-231.005848
 20
500.219156
 30
0.0
 10
-255.056960
 20
360.828452
 30
0.0
 10
-206.079936
 20
637.785844
 30
0.0
 10
-245.060848
 20
501.812636
 30
0.0
  0
SPLINE
  5
18b
100
AcDbEntity
  8
Capa_1
 62
7
100
AcDbSpline
 70
8
 71
3
 72
8
 73
4
 74
0
 40
0
 40
0
 40
0
 40
0
 40
1
 40
1
 40
1
 40
1
 10
-245.060848
 20
501.812636
 30
0.0
 10
-284.041760
 20
365.839428
 30
0.0
 10
-178.842696
 20
626.679036
 30
0.0
 10
-232.296384
 20
495.717492
 30
0.0
  0
LWPOLYLINE
  5
18c
100
AcDbEntity
  8
Capa_1
 62
7
100
AcDbPolyline
 90
2
 70
1
 10
-72.019184
 20
788.937468
 30
0.0
 10
-72.019184
 20
788.937468
 30
0.0
  0
LWPOLYLINE
  5
18d
100
AcDbEntity
  8
Capa_1
 62
7
100
AcDbPolyline
 90
2
 70
1
 10
-232.296384
 20
495.717492
 30
0.0
 10
-232.296384
 20
495.717492
 30
0.0
  0
LWPOLYLINE
  5
18e
100
AcDbEntity
  8
Capa_1
 62
7
100
AcDbPolyline
 90
5
 70
1
 10
-197.759967
 20
511.343704
 30
0.0
 10
-181.460809
 20
511.343704
 30
0.0
 10
-181.460809
 20
495.044547
 30
0.0
 10
-197.759967
 20
495.044547
 30
0.0
 10
-197.759967
 20
511.343704
 30
0.0
  0
LWPOLYLINE
  5
18f
100
AcDbEntity
  8
Capa_1
 62
7
100
AcDbPolyline
 90
5
 70
1
 10
-245.814195
 20
449.445504
 30
0.0
 10
-245.814195
 20
433.146346
 30
0.0
 10
-262.113353
 20
433.146346
 30
0.0
 10
-262.113353
 20
449.445504
 30
0.0
 10
-245.814195
 20
449.445504
 30
0.0
  0
LWPOLYLINE
  5
190
100
AcDbEntity
  8
Capa_1
 62
7
100
AcDbPolyline
 90
5
 70
1
 10
-245.814195
 20
574.878576
 30
0.0
 10
-245.814195
 20
558.579418
 30
0.0
 10
-262.113353
 20
558.579418
 30
0.0
 10
-262.113353
 20
574.878576
 30
0.0
 10
-245.814195
 20
574.878576
 30
0.0
  0
LWPOLYLINE
  5
191
100
AcDbEntity
  8
Capa_1
 62
7
100
AcDbPolyline
 90
5
 70
1
 10
-323.193036
 20
512.162104
 30
0.0
 10
-306.893878
 20
512.162104
 30
0.0
 10
-306.893878
 20
495.862947
 30
0.0
 10
-323.193036
 20
495.862947
 30
0.0
 10
-323.193036
 20
512.162104
 30
0.0
  0
SPLINE
  5
192
100
AcDbEntity
  8
Capa_1
 62
7
100
AcDbSpline
 70
8
 71
3
 72
8
 73
4
 74
0
 40
0
 40
0
 40
0
 40
0
 40
1
 40
1
 40
1
 40
1
 10
117.031176
 20
590.066300
 30
0.0
 10
63.577480
 20
459.104748
 30
0.0
 10
170.947104
 20
719.058420
 30
0.0
 10
103.647320
 20
594.643932
 30
0.0
  0
SPLINE
  5
193
100
AcDbEntity
  8
Capa_1
 62
7
100
AcDbSpline
 70
8
 71
3
 72
8
 73
4
 74
0
 40
0
 40
0
 40
0
 40
0
 40
1
 40
1
 40
1
 40
1
 10
103.647320
 20
594.643932
 30
0.0
 10
36.347544
 20
470.229444
 30
0.0
 10
195.159920
 20
702.356084
 30
0.0
 10
114.803080
 20
585.947308
 30
0.0
  0
SPLINE
  5
194
100
AcDbEntity
  8
Capa_1
 62
7
100
AcDbSpline
 70
8
 71
3
 72
8
 73
4
 74
0
 40
0
 40
0
 40
0
 40
0
 40
1
 40
1
 40
1
 40
1
 10
114.803080
 20
585.947308
 30
0.0
 10
34.446240
 20
469.538532
 30
0.0
 10
195.187976
 20
700.333332
 30
0.0
 10
102.716192
 20
593.295052
 30
0.0
  0
SPLINE
  5
195
100
AcDbEntity
  8
Capa_1
 62
7
100
AcDbSpline
 70
8
 71
3
 72
8
 73
4
 74
0
 40
0
 40
0
 40
0
 40
0
 40
1
 40
1
 40
1
 40
1
 10
102.716192
 20
593.295052
 30
0.0
 10
10.244408
 20
486.256772
 30
0.0
 10
215.244200
 20
678.816452
 30
0.0
 10
111.741616
 20
582.403588
 30
0.0
  0
SPLINE
  5
196
100
AcDbEntity
  8
Capa_1
 62
7
100
AcDbSpline
 70
8
 71
3
 72
8
 73
4
 74
0
 40
0
 40
0
 40
0
 40
0
 40
1
 40
1
 40
1
 40
1
 10
111.741616
 20
582.403588
 30
0.0
 10
8.239032
 20
485.990732
 30
0.0
 10
214.836776
 20
676.834956
 30
0.0
 10
101.516856
 20
592.177876
 30
0.0
  0
SPLINE
  5
197
100
AcDbEntity
  8
Capa_1
 62
7
100
AcDbSpline
 70
8
 71
3
 72
8
 73
4
 74
0
 40
0
 40
0
 40
0
 40
0
 40
1
 40
1
 40
1
 40
1
 10
101.516856
 20
592.177876
 30
0.0
 10
-11.803056
 20
507.520788
 30
0.0
 10
229.798600
 20
651.509628
 30
0.0
 10
107.989936
 20
579.600844
 30
0.0
  0
SPLINE
  5
198
100
AcDbEntity
  8
Capa_1
 62
7
100
AcDbSpline
 70
8
 71
3
 72
8
 73
4
 74
0
 40
0
 40
0
 40
0
 40
0
 40
1
 40
1
 40
1
 40
1
 10
107.989936
 20
579.600844
 30
0.0
 10
-13.818736
 20
507.692060
 30
0.0
 10
228.974736
 20
649.662052
 30
0.0
 10
100.105408
 20
591.344636
 30
0.0
  0
SPLINE
  5
199
100
AcDbEntity
  8
Capa_1
 62
7
100
AcDbSpline
 70
8
 71
3
 72
8
 73
4
 74
0
 40
0
 40
0
 40
0
 40
0
 40
1
 40
1
 40
1
 40
1
 10
100.105408
 20
591.344636
 30
0.0
 10
-28.763920
 20
533.027212
 30
0.0
 10
238.142568
 20
621.712468
 30
0.0
 10
103.723456
 20
577.670132
 30
0.0
  0
SPLINE
  5
19a
100
AcDbEntity
  8
Capa_1
 62
7
100
AcDbSpline
 70
8
 71
3
 72
8
 73
4
 74
0
 40
0
 40
0
 40
0
 40
0
 40
1
 40
1
 40
1
 40
1
 10
103.723456
 20
577.670132
 30
0.0
 10
-30.695656
 20
533.627796
 30
0.0
 10
236.940784
 20
620.085188
 30
0.0
 10
98.547832
 20
590.834292
 30
0.0
  0
SPLINE
  5
19b
100
AcDbEntity
  8
Capa_1
 62
7
100
AcDbSpline
 70
8
 71
3
 72
8
 73
4
 74
0
 40
0
 40
0
 40
0
 40
0
 40
1
 40
1
 40
1
 40
1
 10
98.547832
 20
590.834292
 30
0.0
 10
-39.845120
 20
561.583404
 30
0.0
 10
239.885944
 20
590.818212
 30
0.0
 10
99.141680
 20
576.701724
 30
0.0
  0
SPLINE
  5
19c
100
AcDbEntity
  8
Capa_1
 62
7
100
AcDbSpline
 70
8
 71
3
 72
8
 73
4
 74
0
 40
0
 40
0
 40
0
 40
0
 40
1
 40
1
 40
1
 40
1
 10
99.141680
 20
576.701724
 30
0.0
 10
-41.602592
 20
562.585212
 30
0.0
 10
238.362448
 20
589.487348
 30
0.0
 10
96.916968
 20
590.670724
 30
0.0
  0
SPLINE
  5
19d
100
AcDbEntity
  8
Capa_1
 62
7
100
AcDbSpline
 70
8
 71
3
 72
8
 73
4
 74
0
 40
0
 40
0
 40
0
 40
0
 40
1
 40
1
 40
1
 40
1
 10
96.916968
 20
590.670724
 30
0.0
 10
-44.528520
 20
591.854092
 30
0.0
 10
234.947216
 20
560.271516
 30
0.0
 10
94.458840
 20
576.740900
 30
0.0
  0
SPLINE
  5
19e
100
AcDbEntity
  8
Capa_1
 62
7
100
AcDbSpline
 70
8
 71
3
 72
8
 73
4
 74
0
 40
0
 40
0
 40
0
 40
0
 40
1
 40
1
 40
1
 40
1
 10
94.458840
 20
576.740900
 30
0.0
 10
-46.029536
 20
593.210284
 30
0.0
 10
233.173240
 20
559.299260
 30
0.0
 10
95.289064
 20
590.861556
 30
0.0
  0
SPLINE
  5
19f
100
AcDbEntity
  8
Capa_1
 62
7
100
AcDbSpline
 70
8
 71
3
 72
8
 73
4
 74
0
 40
0
 40
0
 40
0
 40
0
 40
1
 40
1
 40
1
 40
1
 10
95.289064
 20
590.861556
 30
0.0
 10
-42.595112
 20
622.423860
 30
0.0
 10
223.557320
 20
531.500652
 30
0.0
 10
89.893912
 20
577.785836
 30
0.0
  0
SPLINE
  5
1a0
100
AcDbEntity
  8
Capa_1
 62
7
100
AcDbSpline
 70
8
 71
3
 72
8
 73
4
 74
0
 40
0
 40
0
 40
0
 40
0
 40
1
 40
1
 40
1
 40
1
 10
89.893912
 20
577.785836
 30
0.0
 10
-43.769496
 20
624.071020
 30
0.0
 10
221.615800
 20
530.932468
 30
0.0
 10
93.740240
 20
591.397884
 30
0.0
  0
SPLINE
  5
1a1
100
AcDbEntity
  8
Capa_1
 62
7
100
AcDbSpline
 70
8
 71
3
 72
8
 73
4
 74
0
 40
0
 40
0
 40
0
 40
0
 40
1
 40
1
 40
1
 40
1
 10
93.740240
 20
591.397884
 30
0.0
 10
-34.135312
 20
651.863300
 30
0.0
 10
206.248816
 20
505.850916
 30
0.0
 10
85.660336
 20
579.787660
 30
0.0
  0
SPLINE
  5
1a2
100
AcDbEntity
  8
Capa_1
 62
7
100
AcDbSpline
 70
8
 71
3
 72
8
 73
4
 74
0
 40
0
 40
0
 40
0
 40
0
 40
1
 40
1
 40
1
 40
1
 10
85.660336
 20
579.787660
 30
0.0
 10
-34.928152
 20
653.724404
 30
0.0
 10
204.230552
 20
505.713396
 30
0.0
 10
92.342928
 20
592.254628
 30
0.0
  0
SPLINE
  5
1a3
100
AcDbEntity
  8
Capa_1
 62
7
100
AcDbSpline
 70
8
 71
3
 72
8
 73
4
 74
0
 40
0
 40
0
 40
0
 40
0
 40
1
 40
1
 40
1
 40
1
 10
92.342928
 20
592.254628
 30
0.0
 10
-19.544688
 20
678.795860
 30
0.0
 10
183.831048
 20
484.521684
 30
0.0
 10
81.956072
 20
582.652780
 30
0.0
  0
SPLINE
  5
1a4
100
AcDbEntity
  8
Capa_1
 62
7
100
AcDbSpline
 70
8
 71
3
 72
8
 73
4
 74
0
 40
0
 40
0
 40
0
 40
0
 40
1
 40
1
 40
1
 40
1
 10
81.956072
 20
582.652780
 30
0.0
 10
-19.918912
 20
680.783884
 30
0.0
 10
181.830400
 20
484.821236
 30
0.0
 10
91.162456
 20
593.391716
 30
0.0
  0
SPLINE
  5
1a5
100
AcDbEntity
  8
Capa_1
 62
7
100
AcDbSpline
 70
8
 71
3
 72
8
 73
4
 74
0
 40
0
 40
0
 40
0
 40
0
 40
1
 40
1
 40
1
 40
1
 10
91.162456
 20
593.391716
 30
0.0
 10
0.494512
 20
701.962188
 30
0.0
 10
157.352232
 20
468.510268
 30
0.0
 10
78.954328
 20
586.247228
 30
0.0
  0
SPLINE
  5
1a6
100
AcDbEntity
  8
Capa_1
 62
7
100
AcDbSpline
 70
8
 71
3
 72
8
 73
4
 74
0
 40
0
 40
0
 40
0
 40
0
 40
1
 40
1
 40
1
 40
1
 10
78.954328
 20
586.247228
 30
0.0
 10
0.556416
 20
703.984188
 30
0.0
 10
155.462760
 20
469.232900
 30
0.0
 10
90.254024
 20
594.755988
 30
0.0
  0
SPLINE
  5
1a7
100
AcDbEntity
  8
Capa_1
 62
7
100
AcDbSpline
 70
8
 71
3
 72
8
 73
4
 74
0
 40
0
 40
0
 40
0
 40
0
 40
1
 40
1
 40
1
 40
1
 10
90.254024
 20
594.755988
 30
0.0
 10
25.045296
 20
720.279076
 30
0.0
 10
128.050504
 20
458.565348
 30
0.0
 10
76.795456
 20
590.402924
 30
0.0
  0
SPLINE
  5
1a8
100
AcDbEntity
  8
Capa_1
 62
7
100
AcDbSpline
 70
8
 71
3
 72
8
 73
4
 74
0
 40
0
 40
0
 40
0
 40
0
 40
1
 40
1
 40
1
 40
1
 10
76.795456
 20
590.402924
 30
0.0
 10
25.540416
 20
722.240492
 30
0.0
 10
126.360552
 20
459.677268
 30
0.0
 10
89.660112
 20
596.283644
 30
0.0
  0
SPLINE
  5
1a9
100
AcDbEntity
  8
Capa_1
 62
7
100
AcDbSpline
 70
8
 71
3
 72
8
 73
4
 74
0
 40
0
 40
0
 40
0
 40
0
 40
1
 40
1
 40
1
 40
1
 10
89.660112
 20
596.283644
 30
0.0
 10
52.959672
 20
732.890028
 30
0.0
 10
97.295968
 20
455.151948
 30
0.0
 10
75.580416
 20
594.925548
 30
0.0
  0
SPLINE
  5
1aa
100
AcDbEntity
  8
Capa_1
 62
7
100
AcDbSpline
 70
8
 71
3
 72
8
 73
4
 74
0
 40
0
 40
0
 40
0
 40
0
 40
1
 40
1
 40
1
 40
1
 10
75.580416
 20
594.925548
 30
0.0
 10
53.864864
 20
734.699148
 30
0.0
 10
95.884552
 20
456.601164
 30
0.0
 10
89.408480
 20
597.903268
 30
0.0
  0
SPLINE
  5
1ab
100
AcDbEntity
  8
Capa_1
 62
7
100
AcDbSpline
 70
8
 71
3
 72
8
 73
4
 74
0
 40
0
 40
0
 40
0
 40
0
 40
1
 40
1
 40
1
 40
1
 10
89.408480
 20
597.903268
 30
0.0
 10
82.932416
 20
739.205372
 30
0.0
 10
66.526672
 20
458.429668
 30
0.0
 10
75.366016
 20
599.603636
 30
0.0
  0
SPLINE
  5
1ac
100
AcDbEntity
  8
Capa_1
 62
7
100
AcDbSpline
 70
8
 71
3
 72
8
 73
4
 74
0
 40
0
 40
0
 40
0
 40
0
 40
1
 40
1
 40
1
 40
1
 10
75.366016
 20
599.603636
 30
0.0
 10
84.205352
 20
740.777612
 30
0.0
 10
65.459792
 20
460.148412
 30
0.0
 10
89.510912
 20
599.539156
 30
0.0
  0
SPLINE
  5
1ad
100
AcDbEntity
  8
Capa_1
 62
7
100
AcDbSpline
 70
8
 71
3
 72
8
 73
4
 74
0
 40
0
 40
0
 40
0
 40
0
 40
1
 40
1
 40
1
 40
1
 10
89.510912
 20
599.539156
 30
0.0
 10
113.562024
 20
738.929860
 30
0.0
 10
37.181360
 20
468.245284
 30
0.0
 10
76.162272
 20
604.218484
 30
0.0
  0
SPLINE
  5
1ae
100
AcDbEntity
  8
Capa_1
 62
7
100
AcDbSpline
 70
8
 71
3
 72
8
 73
4
 74
0
 40
0
 40
0
 40
0
 40
0
 40
1
 40
1
 40
1
 40
1
 10
76.162272
 20
604.218484
 30
0.0
 10
115.143184
 20
740.191692
 30
0.0
 10
36.508904
 20
470.153188
 30
0.0
 10
89.962600
 20
601.114740
 30
0.0
  0
SPLINE
  5
1af
100
AcDbEntity
  8
Capa_1
 62
7
100
AcDbSpline
 70
8
 71
3
 72
8
 73
4
 74
0
 40
0
 40
0
 40
0
 40
0
 40
1
 40
1
 40
1
 40
1
 10
89.962600
 20
601.114740
 30
0.0
 10
143.416296
 20
732.076284
 30
0.0
 10
10.632184
 20
484.139748
 30
0.0
 10
77.931968
 20
608.554236
 30
0.0
  0
SPLINE
  5
1b0
100
AcDbEntity
  8
Capa_1
 62
7
100
AcDbSpline
 70
8
 71
3
 72
8
 73
4
 74
0
 40
0
 40
0
 40
0
 40
0
 40
1
 40
1
 40
1
 40
1
 10
77.931968
 20
608.554236
 30
0.0
 10
145.231744
 20
732.968716
 30
0.0
 10
10.385592
 20
486.147604
 30
0.0
 10
90.742432
 20
602.556380
 30
0.0
  0
SPLINE
  5
1b1
100
AcDbEntity
  8
Capa_1
 62
7
100
AcDbSpline
 70
8
 71
3
 72
8
 73
4
 74
0
 40
0
 40
0
 40
0
 40
0
 40
1
 40
1
 40
1
 40
1
 10
90.742432
 20
602.556380
 30
0.0
 10
171.099272
 20
718.965116
 30
0.0
 10
-11.879448
 20
505.369860
 30
0.0
 10
80.592336
 20
612.408140
 30
0.0
  0
SPLINE
  5
1b2
100
AcDbEntity
  8
Capa_1
 62
7
100
AcDbSpline
 70
8
 71
3
 72
8
 73
4
 74
0
 40
0
 40
0
 40
0
 40
0
 40
1
 40
1
 40
1
 40
1
 10
80.592336
 20
612.408140
 30
0.0
 10
173.064128
 20
719.446420
 30
0.0
 10
-11.688640
 20
507.383788
 30
0.0
 10
91.813944
 20
603.796644
 30
0.0
  0
SPLINE
  5
1b3
100
AcDbEntity
  8
Capa_1
 62
7
100
AcDbSpline
 70
8
 71
3
 72
8
 73
4
 74
0
 40
0
 40
0
 40
0
 40
0
 40
1
 40
1
 40
1
 40
1
 10
91.813944
 20
603.796644
 30
0.0
 10
195.316528
 20
700.209500
 30
0.0
 10
-29.300912
 20
530.942996
 30
0.0
 10
84.019000
 20
615.600076
 30
0.0
  0
SPLINE
  5
1b4
100
AcDbEntity
  8
Capa_1
 62
7
100
AcDbSpline
 70
8
 71
3
 72
8
 73
4
 74
0
 40
0
 40
0
 40
0
 40
0
 40
1
 40
1
 40
1
 40
1
 10
84.019000
 20
615.600076
 30
0.0
 10
197.338912
 20
700.257164
 30
0.0
 10
-28.681632
 20
532.868820
 30
0.0
 10
93.127032
 20
604.777604
 30
0.0
  0
SPLINE
  5
1b5
100
AcDbEntity
  8
Capa_1
 62
7
100
AcDbSpline
 70
8
 71
3
 72
8
 73
4
 74
0
 40
0
 40
0
 40
0
 40
0
 40
1
 40
1
 40
1
 40
1
 10
93.127032
 20
604.777604
 30
0.0
 10
214.935704
 20
676.686388
 30
0.0
 10
-40.817608
 20
559.663348
 30
0.0
 10
88.051720
 20
617.980764
 30
0.0
  0
SPLINE
  5
1b6
100
AcDbEntity
  8
Capa_1
 62
7
100
AcDbSpline
 70
8
 71
3
 72
8
 73
4
 74
0
 40
0
 40
0
 40
0
 40
0
 40
1
 40
1
 40
1
 40
1
 10
88.051720
 20
617.980764
 30
0.0
 10
216.921048
 20
676.298180
 30
0.0
 10
-39.798808
 20
561.411020
 30
0.0
 10
94.620304
 20
605.453356
 30
0.0
  0
SPLINE
  5
1b7
100
AcDbEntity
  8
Capa_1
 62
7
100
AcDbSpline
 70
8
 71
3
 72
8
 73
4
 74
0
 40
0
 40
0
 40
0
 40
0
 40
1
 40
1
 40
1
 40
1
 10
94.620304
 20
605.453356
 30
0.0
 10
229.039408
 20
649.495684
 30
0.0
 10
-45.891016
 20
590.187980
 30
0.0
 10
92.501936
 20
619.438876
 30
0.0
  0
SPLINE
  5
1b8
100
AcDbEntity
  8
Capa_1
 62
7
100
AcDbSpline
 70
8
 71
3
 72
8
 73
4
 74
0
 40
0
 40
0
 40
0
 40
0
 40
1
 40
1
 40
1
 40
1
 10
92.501936
 20
619.438876
 30
0.0
 10
230.894888
 20
648.689764
 30
0.0
 10
-44.520344
 20
591.675788
 30
0.0
 10
96.223920
 20
605.792300
 30
0.0
  0
SPLINE
  5
1b9
100
AcDbEntity
  8
Capa_1
 62
7
100
AcDbSpline
 70
8
 71
3
 72
8
 73
4
 74
0
 40
0
 40
0
 40
0
 40
0
 40
1
 40
1
 40
1
 40
1
 10
96.223920
 20
605.792300
 30
0.0
 10
236.968192
 20
619.908812
 30
0.0
 10
-44.283928
 20
621.089604
 30
0.0
 10
97.161560
 20
619.906228
 30
0.0
  0
SPLINE
  5
1ba
100
AcDbEntity
  8
Capa_1
 62
7
100
AcDbSpline
 70
8
 71
3
 72
8
 73
4
 74
0
 40
0
 40
0
 40
0
 40
0
 40
1
 40
1
 40
1
 40
1
 10
97.161560
 20
619.906228
 30
0.0
 10
238.607040
 20
618.722860
 30
0.0
 10
-42.625464
 20
622.247964
 30
0.0
 10
97.862912
 20
605.778588
 30
0.0
  0
SPLINE
  5
1bb
100
AcDbEntity
  8
Capa_1
 62
7
100
AcDbSpline
 70
8
 71
3
 72
8
 73
4
 74
0
 40
0
 40
0
 40
0
 40
0
 40
1
 40
1
 40
1
 40
1
 10
97.862912
 20
605.778588
 30
0.0
 10
238.351296
 20
589.309204
 30
0.0
 10
-36.071472
 20
650.923276
 30
0.0
 10
101.812704
 20
619.360980
 30
0.0
  0
SPLINE
  5
1bc
100
AcDbEntity
  8
Capa_1
 62
7
100
AcDbSpline
 70
8
 71
3
 72
8
 73
4
 74
0
 40
0
 40
0
 40
0
 40
0
 40
1
 40
1
 40
1
 40
1
 10
101.812704
 20
619.360980
 30
0.0
 10
239.696880
 20
587.798676
 30
0.0
 10
-34.202768
 20
651.698044
 30
0.0
 10
99.460640
 20
605.412860
 30
0.0
  0
SPLINE
  5
1bd
100
AcDbEntity
  8
Capa_1
 62
7
100
AcDbSpline
 70
8
 71
3
 72
8
 73
4
 74
0
 40
0
 40
0
 40
0
 40
0
 40
1
 40
1
 40
1
 40
1
 10
99.460640
 20
605.412860
 30
0.0
 10
233.124048
 20
559.127676
 30
0.0
 10
-21.637656
 20
678.294028
 30
0.0
 10
106.237904
 20
617.828612
 30
0.0
  0
SPLINE
  5
1be
100
AcDbEntity
  8
Capa_1
 62
7
100
AcDbSpline
 70
8
 71
3
 72
8
 73
4
 74
0
 40
0
 40
0
 40
0
 40
0
 40
1
 40
1
 40
1
 40
1
 10
106.237904
 20
617.828612
 30
0.0
 10
234.113456
 20
557.363196
 30
0.0
 10
-19.646088
 20
678.648964
 30
0.0
 10
100.942392
 20
604.712220
 30
0.0
  0
SPLINE
  5
1bf
100
AcDbEntity
  8
Capa_1
 62
7
100
AcDbSpline
 70
8
 71
3
 72
8
 73
4
 74
0
 40
0
 40
0
 40
0
 40
0
 40
1
 40
1
 40
1
 40
1
 10
100.942392
 20
604.712220
 30
0.0
 10
221.530880
 20
530.775476
 30
0.0
 10
-1.657400
 20
701.922020
 30
0.0
 10
110.230224
 20
615.380788
 30
0.0
  0
SPLINE
  5
1c0
100
AcDbEntity
  8
Capa_1
 62
7
100
AcDbSpline
 70
8
 71
3
 72
8
 73
4
 74
0
 40
0
 40
0
 40
0
 40
0
 40
1
 40
1
 40
1
 40
1
 10
110.230224
 20
615.380788
 30
0.0
 10
222.117848
 20
528.839556
 30
0.0
 10
0.363904
 20
701.840532
 30
0.0
 10
102.238888
 20
603.709428
 30
0.0
  0
SPLINE
  5
1c1
100
AcDbEntity
  8
Capa_1
 62
7
100
AcDbSpline
 70
8
 71
3
 72
8
 73
4
 74
0
 40
0
 40
0
 40
0
 40
0
 40
1
 40
1
 40
1
 40
1
 10
102.238888
 20
603.709428
 30
0.0
 10
204.113864
 20
505.578324
 30
0.0
 10
22.935056
 20
720.702436
 30
0.0
 10
113.603000
 20
612.131964
 30
0.0
  0
SPLINE
  5
1c2
100
AcDbEntity
  8
Capa_1
 62
7
100
AcDbSpline
 70
8
 71
3
 72
8
 73
4
 74
0
 40
0
 40
0
 40
0
 40
0
 40
1
 40
1
 40
1
 40
1
 10
113.603000
 20
612.131964
 30
0.0
 10
204.270944
 20
503.561484
 30
0.0
 10
24.891584
 20
720.188332
 30
0.0
 10
103.289496
 20
602.451372
 30
0.0
  0
SPLINE
  5
1c3
100
AcDbEntity
  8
Capa_1
 62
7
100
AcDbSpline
 70
8
 71
3
 72
8
 73
4
 74
0
 40
0
 40
0
 40
0
 40
0
 40
1
 40
1
 40
1
 40
1
 10
103.289496
 20
602.451372
 30
0.0
 10
181.687408
 20
484.714412
 30
0.0
 10
50.989784
 20
733.757132
 30
0.0
 10
116.198520
 20
608.234044
 30
0.0
  0
SPLINE
  5
1c4
100
AcDbEntity
  8
Capa_1
 62
7
100
AcDbSpline
 70
8
 71
3
 72
8
 73
4
 74
0
 40
0
 40
0
 40
0
 40
0
 40
1
 40
1
 40
1
 40
1
 10
116.198520
 20
608.234044
 30
0.0
 10
181.407256
 20
482.710956
 30
0.0
 10
52.790056
 20
732.834452
 30
0.0
 10
104.045096
 20
600.996876
 30
0.0
  0
SPLINE
  5
1c5
100
AcDbEntity
  8
Capa_1
 62
7
100
AcDbSpline
 70
8
 71
3
 72
8
 73
4
 74
0
 40
0
 40
0
 40
0
 40
0
 40
1
 40
1
 40
1
 40
1
 10
104.045096
 20
600.996876
 30
0.0
 10
155.300144
 20
469.159308
 30
0.0
 10
81.194984
 20
740.475676
 30
0.0
 10
117.895424
 20
603.869300
 30
0.0
  0
SPLINE
  5
1c6
100
AcDbEntity
  8
Capa_1
 62
7
100
AcDbSpline
 70
8
 71
3
 72
8
 73
4
 74
0
 40
0
 40
0
 40
0
 40
0
 40
1
 40
1
 40
1
 40
1
 10
117.895424
 20
603.869300
 30
0.0
 10
154.595856
 20
467.262916
 30
0.0
 10
82.754816
 20
739.187556
 30
0.0
 10
104.470360
 20
599.413956
 30
0.0
  0
SPLINE
  5
1c7
100
AcDbEntity
  8
Capa_1
 62
7
100
AcDbSpline
 70
8
 71
3
 72
8
 73
4
 74
0
 40
0
 40
0
 40
0
 40
0
 40
1
 40
1
 40
1
 40
1
 10
104.470360
 20
599.413956
 30
0.0
 10
126.185912
 20
459.640356
 30
0.0
 10
112.138288
 20
740.543916
 30
0.0
 10
118.614360
 20
599.241812
 30
0.0
  0
SPLINE
  5
1c8
100
AcDbEntity
  8
Capa_1
 62
7
100
AcDbSpline
 70
8
 71
3
 72
8
 73
4
 74
0
 40
0
 40
0
 40
0
 40
0
 40
1
 40
1
 40
1
 40
1
 10
118.614360
 20
599.241812
 30
0.0
 10
125.090424
 20
457.939708
 30
0.0
 10
113.384744
 20
738.950604
 30
0.0
 10
104.545408
 20
597.776628
 30
0.0
  0
SPLINE
  5
1c9
100
AcDbEntity
  8
Capa_1
 62
7
100
AcDbSpline
 70
8
 71
3
 72
8
 73
4
 74
0
 40
0
 40
0
 40
0
 40
0
 40
1
 40
1
 40
1
 40
1
 10
104.545408
 20
597.776628
 30
0.0
 10
95.706064
 20
456.602652
 30
0.0
 10
142.372832
 20
733.958668
 30
0.0
 10
118.321712
 20
594.567964
 30
0.0
  0
SPLINE
  5
1ca
100
AcDbEntity
  8
Capa_1
 62
7
100
AcDbSpline
 70
8
 71
3
 72
8
 73
4
 74
0
 40
0
 40
0
 40
0
 40
0
 40
1
 40
1
 40
1
 40
1
 10
118.321712
 20
594.567964
 30
0.0
 10
94.270600
 20
455.177260
 30
0.0
 10
143.247624
 20
732.134652
 30
0.0
 10
104.266712
 20
596.161444
 30
0.0
  0
SPLINE
  5
1cb
100
AcDbEntity
  8
Capa_1
 62
7
100
AcDbSpline
 70
8
 71
3
 72
8
 73
4
 74
0
 40
0
 40
0
 40
0
 40
0
 40
1
 40
1
 40
1
 40
1
 10
104.266712
 20
596.161444
 30
0.0
 10
65.285800
 20
460.188236
 30
0.0
 10
170.484864
 20
721.027844
 30
0.0
 10
117.031176
 20
590.066300
 30
0.0
  0
LWPOLYLINE
  5
1cc
100
AcDbEntity
  8
Capa_1
 62
7
100
AcDbPolyline
 90
5
 70
1
 10
22.621050
 20
825.404632
 30
0.0
 10
22.621050
 20
517.686272
 30
0.0
 10
6.321837
 20
517.686272
 30
0.0
 10
6.321837
 20
825.404632
 30
0.0
 10
22.621050
 20
825.404632
 30
0.0
  0
LWPOLYLINE
  5
1cd
100
AcDbEntity
  8
Capa_1
 62
7
100
AcDbPolyline
 90
2
 70
1
 10
117.031176
 20
590.066300
 30
0.0
 10
117.031176
 20
590.066300
 30
0.0
  0
LWPOLYLINE
  5
1ce
100
AcDbEntity
  8
Capa_1
 62
7
100
AcDbPolyline
 90
5
 70
1
 10
152.924377
 20
459.784523
 30
0.0
 10
169.223535
 20
459.784523
 30
0.0
 10
169.223535
 20
443.485365
 30
0.0
 10
152.924377
 20
443.485365
 30
0.0
 10
152.924377
 20
459.784523
 30
0.0
  0
LWPOLYLINE
  5
1cf
100
AcDbEntity
  8
Capa_1
 62
7
100
AcDbPolyline
 90
5
 70
1
 10
104.870149
 20
397.886322
 30
0.0
 10
104.870149
 20
381.587165
 30
0.0
 10
88.570991
 20
381.587165
 30
0.0
 10
88.570991
 20
397.886322
 30
0.0
 10
104.870149
 20
397.886322
 30
0.0
  0
LWPOLYLINE
  5
1d0
100
AcDbEntity
  8
Capa_1
 62
7
100
AcDbPolyline
 90
5
 70
1
 10
104.870149
 20
523.319394
 30
0.0
 10
104.870149
 20
507.020237
 30
0.0
 10
88.570991
 20
507.020237
 30
0.0
 10
88.570991
 20
523.319394
 30
0.0
 10
104.870149
 20
523.319394
 30
0.0
  0
LWPOLYLINE
  5
1d1
100
AcDbEntity
  8
Capa_1
 62
7
100
AcDbPolyline
 90
5
 70
1
 10
27.491308
 20
460.602923
 30
0.0
 10
43.790466
 20
460.602923
 30
0.0
 10
43.790466
 20
444.303765
 30
0.0
 10
27.491308
 20
444.303765
 30
0.0
 10
27.491308
 20
460.602923
 30
0.0
  0
SPLINE
  5
1d2
100
AcDbEntity
  8
Capa_1
 62
7
100
AcDbSpline
 70
8
 71
3
 72
8
 73
4
 74
0
 40
0
 40
0
 40
0
 40
0
 40
1
 40
1
 40
1
 40
1
 10
106.606896
 20
445.529622
 30
0.0
 10
178.415552
 20
531.088862
 30
0.0
 10
-10.314344
 20
412.927302
 30
0.0
 10
100.961560
 20
422.650438
 30
0.0
  0
SPLINE
  5
1d3
100
AcDbEntity
  8
Capa_1
 62
7
100
AcDbSpline
 70
8
 71
3
 72
8
 73
4
 74
0
 40
0
 40
0
 40
0
 40
0
 40
1
 40
1
 40
1
 40
1
 10
100.961560
 20
422.650438
 30
0.0
 10
212.237456
 20
432.373574
 30
0.0
 10
5.874528
 20
516.012462
 30
0.0
 10
91.433760
 20
444.203814
 30
0.0
  0
SPLINE
  5
1d4
100
AcDbEntity
  8
Capa_1
 62
7
100
AcDbSpline
 70
8
 71
3
 72
8
 73
4
 74
0
 40
0
 40
0
 40
0
 40
0
 40
1
 40
1
 40
1
 40
1
 10
91.433760
 20
444.203814
 30
0.0
 10
176.993000
 20
372.395158
 30
0.0
 10
58.831440
 20
561.125054
 30
0.0
 10
68.554576
 20
449.849150
 30
0.0
  0
SPLINE
  5
1d5
100
AcDbEntity
  8
Capa_1
 62
7
100
AcDbSpline
 70
8
 71
3
 72
8
 73
4
 74
0
 40
0
 40
0
 40
0
 40
0
 40
1
 40
1
 40
1
 40
1
 10
68.554576
 20
449.849150
 30
0.0
 10
78.277712
 20
338.573254
 30
0.0
 10
161.916608
 20
544.936182
 30
0.0
 10
90.107952
 20
459.376950
 30
0.0
  0
SPLINE
  5
1d6
100
AcDbEntity
  8
Capa_1
 62
7
100
AcDbSpline
 70
8
 71
3
 72
8
 73
4
 74
0
 40
0
 40
0
 40
0
 40
0
 40
1
 40
1
 40
1
 40
1
 10
90.107952
 20
459.376950
 30
0.0
 10
18.299304
 20
373.817710
 30
0.0
 10
207.029200
 20
491.979270
 30
0.0
 10
95.753296
 20
482.256134
 30
0.0
  0
SPLINE
  5
1d7
100
AcDbEntity
  8
Capa_1
 62
7
100
AcDbSpline
 70
8
 71
3
 72
8
 73
4
 74
0
 40
0
 40
0
 40
0
 40
0
 40
1
 40
1
 40
1
 40
1
 10
95.753296
 20
482.256134
 30
0.0
 10
-15.522608
 20
472.532998
 30
0.0
 10
190.840320
 20
388.894102
 30
0.0
 10
105.281088
 20
460.702758
 30
0.0
  0
SPLINE
  5
1d8
100
AcDbEntity
  8
Capa_1
 62
7
100
AcDbSpline
 70
8
 71
3
 72
8
 73
4
 74
0
 40
0
 40
0
 40
0
 40
0
 40
1
 40
1
 40
1
 40
1
 10
105.281088
 20
460.702758
 30
0.0
 10
19.721848
 20
532.511406
 30
0.0
 10
137.883408
 20
343.781510
 30
0.0
 10
128.160272
 20
455.057414
 30
0.0
  0
SPLINE
  5
1d9
100
AcDbEntity
  8
Capa_1
 62
7
100
AcDbSpline
 70
8
 71
3
 72
8
 73
4
 74
0
 40
0
 40
0
 40
0
 40
0
 40
1
 40
1
 40
1
 40
1
 10
128.160272
 20
455.057414
 30
0.0
 10
118.437136
 20
566.333318
 30
0.0
 10
34.798248
 20
359.970390
 30
0.0
 10
106.606896
 20
445.529622
 30
0.0
  0
LWPOLYLINE
  5
1da
100
AcDbEntity
  8
Capa_1
 62
7
100
AcDbPolyline
 90
5
 70
1
 10
27.491284
 20
523.319419
 30
0.0
 10
169.223572
 20
523.319419
 30
0.0
 10
169.223572
 20
381.587131
 30
0.0
 10
27.491284
 20
381.587131
 30
0.0
 10
27.491284
 20
523.319419
 30
0.0
  0
SPLINE
  5
1db
100
AcDbEntity
  8
Capa_1
 62
7
100
AcDbSpline
 70
8
 71
3
 72
8
 73
4
 74
0
 40
0
 40
0
 40
0
 40
0
 40
1
 40
1
 40
1
 40
1
 10
-309.958632
 20
797.441564
 30
0.0
 10
-238.149976
 20
883.000804
 30
0.0
 10
-426.879872
 20
764.839244
 30
0.0
 10
-315.603968
 20
774.562380
 30
0.0
  0
SPLINE
  5
1dc
100
AcDbEntity
  8
Capa_1
 62
7
100
AcDbSpline
 70
8
 71
3
 72
8
 73
4
 74
0
 40
0
 40
0
 40
0
 40
0
 40
1
 40
1
 40
1
 40
1
 10
-315.603968
 20
774.562380
 30
0.0
 10
-204.328072
 20
784.285516
 30
0.0
 10
-410.691000
 20
867.924404
 30
0.0
 10
-325.131768
 20
796.115756
 30
0.0
  0
SPLINE
  5
1dd
100
AcDbEntity
  8
Capa_1
 62
7
100
AcDbSpline
 70
8
 71
3
 72
8
 73
4
 74
0
 40
0
 40
0
 40
0
 40
0
 40
1
 40
1
 40
1
 40
1
 10
-325.131768
 20
796.115756
 30
0.0
 10
-239.572528
 20
724.307100
 30
0.0
 10
-357.734088
 20
913.036996
 30
0.0
 10
-348.010952
 20
801.761092
 30
0.0
  0
SPLINE
  5
1de
100
AcDbEntity
  8
Capa_1
 62
7
100
AcDbSpline
 70
8
 71
3
 72
8
 73
4
 74
0
 40
0
 40
0
 40
0
 40
0
 40
1
 40
1
 40
1
 40
1
 10
-348.010952
 20
801.761092
 30
0.0
 10
-338.287816
 20
690.485196
 30
0.0
 10
-254.648920
 20
896.848124
 30
0.0
 10
-326.457576
 20
811.288892
 30
0.0
  0
SPLINE
  5
1df
100
AcDbEntity
  8
Capa_1
 62
7
100
AcDbSpline
 70
8
 71
3
 72
8
 73
4
 74
0
 40
0
 40
0
 40
0
 40
0
 40
1
 40
1
 40
1
 40
1
 10
-326.457576
 20
811.288892
 30
0.0
 10
-398.266224
 20
725.729652
 30
0.0
 10
-209.536328
 20
843.891212
 30
0.0
 10
-320.812232
 20
834.168076
 30
0.0
  0
SPLINE
  5
1e0
100
AcDbEntity
  8
Capa_1
 62
7
100
AcDbSpline
 70
8
 71
3
 72
8
 73
4
 74
0
 40
0
 40
0
 40
0
 40
0
 40
1
 40
1
 40
1
 40
1
 10
-320.812232
 20
834.168076
 30
0.0
 10
-432.088136
 20
824.444940
 30
0.0
 10
-225.725208
 20
740.806044
 30
0.0
 10
-311.284440
 20
812.614700
 30
0.0
  0
SPLINE
  5
1e1
100
AcDbEntity
  8
Capa_1
 62
7
100
AcDbSpline
 70
8
 71
3
 72
8
 73
4
 74
0
 40
0
 40
0
 40
0
 40
0
 40
1
 40
1
 40
1
 40
1
 10
-311.284440
 20
812.614700
 30
0.0
 10
-396.843680
 20
884.423348
 30
0.0
 10
-278.682120
 20
695.693452
 30
0.0
 10
-288.405256
 20
806.969356
 30
0.0
  0
SPLINE
  5
1e2
100
AcDbEntity
  8
Capa_1
 62
7
100
AcDbSpline
 70
8
 71
3
 72
8
 73
4
 74
0
 40
0
 40
0
 40
0
 40
0
 40
1
 40
1
 40
1
 40
1
 10
-288.405256
 20
806.969356
 30
0.0
 10
-298.128392
 20
918.245260
 30
0.0
 10
-381.767280
 20
711.882332
 30
0.0
 10
-309.958632
 20
797.441564
 30
0.0
  0
LWPOLYLINE
  5
1e3
100
AcDbEntity
  8
Capa_1
 62
7
100
AcDbPolyline
 90
2
 70
1
 10
106.606896
 20
445.529622
 30
0.0
 10
106.606896
 20
445.529622
 30
0.0
  0
LWPOLYLINE
  5
1e4
100
AcDbEntity
  8
Capa_1
 62
7
100
AcDbPolyline
 90
2
 70
1
 10
-309.958632
 20
797.441564
 30
0.0
 10
-309.958632
 20
797.441564
 30
0.0
  0
LWPOLYLINE
  5
1e5
100
AcDbEntity
  8
Capa_1
 62
7
100
AcDbPolyline
 90
5
 70
1
 10
-196.123167
 20
330.477347
 30
0.0
 10
-179.824009
 20
330.477347
 30
0.0
 10
-179.824009
 20
314.178189
 30
0.0
 10
-196.123167
 20
314.178189
 30
0.0
 10
-196.123167
 20
330.477347
 30
0.0
  0
LWPOLYLINE
  5
1e6
100
AcDbEntity
  8
Capa_1
 62
7
100
AcDbPolyline
 90
5
 70
1
 10
-244.177395
 20
268.579146
 30
0.0
 10
-244.177395
 20
252.279989
 30
0.0
 10
-260.476553
 20
252.279989
 30
0.0
 10
-260.476553
 20
268.579146
 30
0.0
 10
-244.177395
 20
268.579146
 30
0.0
  0
LWPOLYLINE
  5
1e7
100
AcDbEntity
  8
Capa_1
 62
7
100
AcDbPolyline
 90
5
 70
1
 10
-244.177395
 20
394.012218
 30
0.0
 10
-244.177395
 20
377.713061
 30
0.0
 10
-260.476553
 20
377.713061
 30
0.0
 10
-260.476553
 20
394.012218
 30
0.0
 10
-244.177395
 20
394.012218
 30
0.0
  0
LWPOLYLINE
  5
1e8
100
AcDbEntity
  8
Capa_1
 62
7
100
AcDbPolyline
 90
5
 70
1
 10
-321.556236
 20
331.295747
 30
0.0
 10
-305.257078
 20
331.295747
 30
0.0
 10
-305.257078
 20
314.996589
 30
0.0
 10
-321.556236
 20
314.996589
 30
0.0
 10
-321.556236
 20
331.295747
 30
0.0
  0
SPLINE
  5
1e9
100
AcDbEntity
  8
Capa_1
 62
7
100
AcDbSpline
 70
8
 71
3
 72
8
 73
4
 74
0
 40
0
 40
0
 40
0
 40
0
 40
1
 40
1
 40
1
 40
1
 10
-242.440648
 20
316.222446
 30
0.0
 10
-170.631992
 20
401.781686
 30
0.0
 10
-359.361888
 20
283.620126
 30
0.0
 10
-248.085984
 20
293.343262
 30
0.0
  0
SPLINE
  5
1ea
100
AcDbEntity
  8
Capa_1
 62
7
100
AcDbSpline
 70
8
 71
3
 72
8
 73
4
 74
0
 40
0
 40
0
 40
0
 40
0
 40
1
 40
1
 40
1
 40
1
 10
-248.085984
 20
293.343262
 30
0.0
 10
-136.810088
 20
303.066398
 30
0.0
 10
-343.173016
 20
386.705286
 30
0.0
 10
-257.613784
 20
314.896638
 30
0.0
  0
SPLINE
  5
1eb
100
AcDbEntity
  8
Capa_1
 62
7
100
AcDbSpline
 70
8
 71
3
 72
8
 73
4
 74
0
 40
0
 40
0
 40
0
 40
0
 40
1
 40
1
 40
1
 40
1
 10
-257.613784
 20
314.896638
 30
0.0
 10
-172.054544
 20
243.087982
 30
0.0
 10
-290.216104
 20
431.817878
 30
0.0
 10
-280.492968
 20
320.541974
 30
0.0
  0
SPLINE
  5
1ec
100
AcDbEntity
  8
Capa_1
 62
7
100
AcDbSpline
 70
8
 71
3
 72
8
 73
4
 74
0
 40
0
 40
0
 40
0
 40
0
 40
1
 40
1
 40
1
 40
1
 10
-280.492968
 20
320.541974
 30
0.0
 10
-270.769832
 20
209.266078
 30
0.0
 10
-187.130936
 20
415.629006
 30
0.0
 10
-258.939592
 20
330.069774
 30
0.0
  0
SPLINE
  5
1ed
100
AcDbEntity
  8
Capa_1
 62
7
100
AcDbSpline
 70
8
 71
3
 72
8
 73
4
 74
0
 40
0
 40
0
 40
0
 40
0
 40
1
 40
1
 40
1
 40
1
 10
-258.939592
 20
330.069774
 30
0.0
 10
-330.748240
 20
244.510534
 30
0.0
 10
-142.018344
 20
362.672094
 30
0.0
 10
-253.294248
 20
352.948958
 30
0.0
  0
SPLINE
  5
1ee
100
AcDbEntity
  8
Capa_1
 62
7
100
AcDbSpline
 70
8
 71
3
 72
8
 73
4
 74
0
 40
0
 40
0
 40
0
 40
0
 40
1
 40
1
 40
1
 40
1
 10
-253.294248
 20
352.948958
 30
0.0
 10
-364.570152
 20
343.225822
 30
0.0
 10
-158.207224
 20
259.586926
 30
0.0
 10
-243.766456
 20
331.395582
 30
0.0
  0
SPLINE
  5
1ef
100
AcDbEntity
  8
Capa_1
 62
7
100
AcDbSpline
 70
8
 71
3
 72
8
 73
4
 74
0
 40
0
 40
0
 40
0
 40
0
 40
1
 40
1
 40
1
 40
1
 10
-243.766456
 20
331.395582
 30
0.0
 10
-329.325696
 20
403.204230
 30
0.0
 10
-211.164136
 20
214.474334
 30
0.0
 10
-220.887272
 20
325.750238
 30
0.0
  0
SPLINE
  5
1f0
100
AcDbEntity
  8
Capa_1
 62
7
100
AcDbSpline
 70
8
 71
3
 72
8
 73
4
 74
0
 40
0
 40
0
 40
0
 40
0
 40
1
 40
1
 40
1
 40
1
 10
-220.887272
 20
325.750238
 30
0.0
 10
-230.610408
 20
437.026142
 30
0.0
 10
-314.249296
 20
230.663214
 30
0.0
 10
-242.440648
 20
316.222446
 30
0.0
  0
LWPOLYLINE
  5
1f1
100
AcDbEntity
  8
Capa_1
 62
7
100
AcDbPolyline
 90
5
 70
1
 10
-321.556260
 20
394.012243
 30
0.0
 10
-179.823972
 20
394.012243
 30
0.0
 10
-179.823972
 20
252.279955
 30
0.0
 10
-321.556260
 20
252.279955
 30
0.0
 10
-321.556260
 20
394.012243
 30
0.0
  0
SPLINE
  5
1f2
100
AcDbEntity
  8
Capa_1
 62
7
100
AcDbSpline
 70
8
 71
3
 72
8
 73
4
 74
0
 40
0
 40
0
 40
0
 40
0
 40
1
 40
1
 40
1
 40
1
 10
-78.910041
 20
622.507566
 30
0.0
 10
-1.769299
 20
698.486833
 30
0.0
 10
-192.277867
 20
615.469387
 30
0.0
 10
-85.065306
 20
613.550622
 30
0.0
  0
SPLINE
  5
1f3
100
AcDbEntity
  8
Capa_1
 62
7
100
AcDbSpline
 70
8
 71
3
 72
8
 73
4
 74
0
 40
0
 40
0
 40
0
 40
0
 40
1
 40
1
 40
1
 40
1
 10
-85.065306
 20
613.550622
 30
0.0
 10
22.147250
 20
611.631856
 30
0.0
 10
-165.389511
 20
701.415119
 30
0.0
 10
-90.908799
 20
622.722308
 30
0.0
  0
SPLINE
  5
1f4
100
AcDbEntity
  8
Capa_1
 62
7
100
AcDbSpline
 70
8
 71
3
 72
8
 73
4
 74
0
 40
0
 40
0
 40
0
 40
0
 40
1
 40
1
 40
1
 40
1
 10
-90.908799
 20
622.722308
 30
0.0
 10
-16.428085
 20
544.029494
 30
0.0
 10
-97.808163
 20
738.371094
 30
0.0
 10
-99.689083
 20
629.001416
 30
0.0
  0
SPLINE
  5
1f5
100
AcDbEntity
  8
Capa_1
 62
7
100
AcDbSpline
 70
8
 71
3
 72
8
 73
4
 74
0
 40
0
 40
0
 40
0
 40
0
 40
1
 40
1
 40
1
 40
1
 10
-99.689083
 20
629.001416
 30
0.0
 10
-101.570006
 20
519.631741
 30
0.0
 10
-13.557554
 20
710.941742
 30
0.0
 10
-90.698293
 20
634.962478
 30
0.0
  0
SPLINE
  5
1f6
100
AcDbEntity
  8
Capa_1
 62
7
100
AcDbSpline
 70
8
 71
3
 72
8
 73
4
 74
0
 40
0
 40
0
 40
0
 40
0
 40
1
 40
1
 40
1
 40
1
 10
-90.698293
 20
634.962478
 30
0.0
 10
-167.839036
 20
558.983211
 30
0.0
 10
22.669533
 20
642.000658
 30
0.0
 10
-84.543028
 20
643.919424
 30
0.0
  0
SPLINE
  5
1f7
100
AcDbEntity
  8
Capa_1
 62
7
100
AcDbSpline
 70
8
 71
3
 72
8
 73
4
 74
0
 40
0
 40
0
 40
0
 40
0
 40
1
 40
1
 40
1
 40
1
 10
-84.543028
 20
643.919424
 30
0.0
 10
-191.755587
 20
645.838189
 30
0.0
 10
-4.218826
 20
556.054925
 30
0.0
 10
-78.699538
 20
634.747738
 30
0.0
  0
SPLINE
  5
1f8
100
AcDbEntity
  8
Capa_1
 62
7
100
AcDbSpline
 70
8
 71
3
 72
8
 73
4
 74
0
 40
0
 40
0
 40
0
 40
0
 40
1
 40
1
 40
1
 40
1
 10
-78.699538
 20
634.747738
 30
0.0
 10
-153.180252
 20
713.440553
 30
0.0
 10
-71.800173
 20
519.098953
 30
0.0
 10
-69.919251
 20
628.468629
 30
0.0
  0
SPLINE
  5
1f9
100
AcDbEntity
  8
Capa_1
 62
7
100
AcDbSpline
 70
8
 71
3
 72
8
 73
4
 74
0
 40
0
 40
0
 40
0
 40
0
 40
1
 40
1
 40
1
 40
1
 10
-69.919251
 20
628.468629
 30
0.0
 10
-68.038330
 20
737.838303
 30
0.0
 10
-156.050782
 20
546.528303
 30
0.0
 10
-78.910041
 20
622.507566
 30
0.0
  0
LWPOLYLINE
  5
1fa
100
AcDbEntity
  8
Capa_1
 62
7
100
AcDbPolyline
 90
2
 70
1
 10
-242.440648
 20
316.222446
 30
0.0
 10
-242.440648
 20
316.222446
 30
0.0
  0
SPLINE
  5
1fb
100
AcDbEntity
  8
Capa_1
 62
7
100
AcDbSpline
 70
8
 71
3
 72
8
 73
4
 74
0
 40
0
 40
0
 40
0
 40
0
 40
1
 40
1
 40
1
 40
1
 10
-404.567812
 20
777.246718
 30
0.0
 10
-301.531604
 20
819.950800
 30
0.0
 10
-521.643390
 20
773.145784
 30
0.0
 10
-411.641447
 20
786.260794
 30
0.0
  0
SPLINE
  5
1fc
100
AcDbEntity
  8
Capa_1
 62
7
100
AcDbSpline
 70
8
 71
3
 72
8
 73
4
 74
0
 40
0
 40
0
 40
0
 40
0
 40
1
 40
1
 40
1
 40
1
 10
-411.641447
 20
786.260794
 30
0.0
 10
-301.639511
 20
799.375804
 30
0.0
 10
-526.101049
 20
793.176452
 30
0.0
 10
-416.629825
 20
775.808622
 30
0.0
  0
SPLINE
  5
1fd
100
AcDbEntity
  8
Capa_1
 62
7
100
AcDbSpline
 70
8
 71
3
 72
8
 73
4
 74
0
 40
0
 40
0
 40
0
 40
0
 40
1
 40
1
 40
1
 40
1
 10
-416.629825
 20
775.808622
 30
0.0
 10
-307.158601
 20
758.440791
 30
0.0
 10
-519.963856
 20
834.013398
 30
0.0
 10
-418.483625
 20
787.346320
 30
0.0
  0
SPLINE
  5
1fe
100
AcDbEntity
  8
Capa_1
 62
7
100
AcDbSpline
 70
8
 71
3
 72
8
 73
4
 74
0
 40
0
 40
0
 40
0
 40
0
 40
1
 40
1
 40
1
 40
1
 10
-418.483625
 20
787.346320
 30
0.0
 10
-317.003400
 20
740.679242
 30
0.0
 10
-514.330930
 20
853.711838
 30
0.0
 10
-427.757410
 20
780.925795
 30
0.0
  0
SPLINE
  5
1ff
100
AcDbEntity
  8
Capa_1
 62
7
100
AcDbSpline
 70
8
 71
3
 72
8
 73
4
 74
0
 40
0
 40
0
 40
0
 40
0
 40
1
 40
1
 40
1
 40
1
 10
-427.757410
 20
780.925795
 30
0.0
 10
-341.183889
 20
708.139752
 30
0.0
 10
-489.661624
 20
885.840358
 30
0.0
 10
-423.894650
 20
791.895597
 30
0.0
  0
SPLINE
  5
200
100
AcDbEntity
  8
Capa_1
 62
7
100
AcDbSpline
 70
8
 71
3
 72
8
 73
4
 74
0
 40
0
 40
0
 40
0
 40
0
 40
1
 40
1
 40
1
 40
1
 10
-423.894650
 20
791.895597
 30
0.0
 10
-358.127682
 20
697.950838
 30
0.0
 10
-475.447448
 20
899.928389
 30
0.0
 10
-434.968935
 20
791.227095
 30
0.0
  0
SPLINE
  5
201
100
AcDbEntity
  8
Capa_1
 62
7
100
AcDbSpline
 70
8
 71
3
 72
8
 73
4
 74
0
 40
0
 40
0
 40
0
 40
0
 40
1
 40
1
 40
1
 40
1
 10
-434.968935
 20
791.227095
 30
0.0
 10
-394.490429
 20
682.525795
 30
0.0
 10
-438.856150
 20
914.739671
 30
0.0
 10
-426.424642
 20
798.689653
 30
0.0
  0
SPLINE
  5
202
100
AcDbEntity
  8
Capa_1
 62
7
100
AcDbSpline
 70
8
 71
3
 72
8
 73
4
 74
0
 40
0
 40
0
 40
0
 40
0
 40
1
 40
1
 40
1
 40
1
 10
-426.424642
 20
798.689653
 30
0.0
 10
-413.993135
 20
682.639635
 30
0.0
 10
-419.869404
 20
919.442420
 30
0.0
 10
-436.332086
 20
803.952296
 30
0.0
  0
SPLINE
  5
203
100
AcDbEntity
  8
Capa_1
 62
7
100
AcDbSpline
 70
8
 71
3
 72
8
 73
4
 74
0
 40
0
 40
0
 40
0
 40
0
 40
1
 40
1
 40
1
 40
1
 10
-436.332086
 20
803.952296
 30
0.0
 10
-452.794773
 20
688.462173
 30
0.0
 10
-381.160716
 20
912.967794
 30
0.0
 10
-425.395690
 20
805.908024
 30
0.0
  0
SPLINE
  5
204
100
AcDbEntity
  8
Capa_1
 62
7
100
AcDbSpline
 70
8
 71
3
 72
8
 73
4
 74
0
 40
0
 40
0
 40
0
 40
0
 40
1
 40
1
 40
1
 40
1
 10
-425.395690
 20
805.908024
 30
0.0
 10
-469.630659
 20
698.848255
 30
0.0
 10
-362.488887
 20
907.025162
 30
0.0
 10
-431.481604
 20
815.691693
 30
0.0
  0
SPLINE
  5
205
100
AcDbEntity
  8
Capa_1
 62
7
100
AcDbSpline
 70
8
 71
3
 72
8
 73
4
 74
0
 40
0
 40
0
 40
0
 40
0
 40
1
 40
1
 40
1
 40
1
 10
-431.481604
 20
815.691693
 30
0.0
 10
-500.474322
 20
724.358225
 30
0.0
 10
-332.034782
 20
880.999496
 30
0.0
 10
-421.083505
 20
811.616554
 30
0.0
  0
SPLINE
  5
206
100
AcDbEntity
  8
Capa_1
 62
7
100
AcDbSpline
 70
8
 71
3
 72
8
 73
4
 74
0
 40
0
 40
0
 40
0
 40
0
 40
1
 40
1
 40
1
 40
1
 10
-421.083505
 20
811.616554
 30
0.0
 10
-510.132223
 20
742.233614
 30
0.0
 10
-318.680962
 20
866.003803
 30
0.0
 10
-421.717164
 20
823.299723
 30
0.0
  0
SPLINE
  5
207
100
AcDbEntity
  8
Capa_1
 62
7
100
AcDbSpline
 70
8
 71
3
 72
8
 73
4
 74
0
 40
0
 40
0
 40
0
 40
0
 40
1
 40
1
 40
1
 40
1
 10
-421.717164
 20
823.299723
 30
0.0
 10
-524.753372
 20
780.595641
 30
0.0
 10
-304.641587
 20
827.400657
 30
0.0
 10
-414.643529
 20
814.285647
 30
0.0
  0
SPLINE
  5
208
100
AcDbEntity
  8
Capa_1
 62
7
100
AcDbSpline
 70
8
 71
3
 72
8
 73
4
 74
0
 40
0
 40
0
 40
0
 40
0
 40
1
 40
1
 40
1
 40
1
 10
-414.643529
 20
814.285647
 30
0.0
 10
-524.645465
 20
801.170637
 30
0.0
 10
-300.183927
 20
807.369990
 30
0.0
 10
-409.655151
 20
824.737819
 30
0.0
  0
SPLINE
  5
209
100
AcDbEntity
  8
Capa_1
 62
7
100
AcDbSpline
 70
8
 71
3
 72
8
 73
4
 74
0
 40
0
 40
0
 40
0
 40
0
 40
1
 40
1
 40
1
 40
1
 10
-409.655151
 20
824.737819
 30
0.0
 10
-519.126381
 20
842.105649
 30
0.0
 10
-306.321120
 20
766.533041
 30
0.0
 10
-407.801351
 20
813.200122
 30
0.0
  0
SPLINE
  5
20a
100
AcDbEntity
  8
Capa_1
 62
7
100
AcDbSpline
 70
8
 71
3
 72
8
 73
4
 74
0
 40
0
 40
0
 40
0
 40
0
 40
1
 40
1
 40
1
 40
1
 10
-407.801351
 20
813.200122
 30
0.0
 10
-509.281576
 20
859.867200
 30
0.0
 10
-311.954046
 20
746.834605
 30
0.0
 10
-398.527567
 20
819.620647
 30
0.0
  0
SPLINE
  5
20b
100
AcDbEntity
  8
Capa_1
 62
7
100
AcDbSpline
 70
8
 71
3
 72
8
 73
4
 74
0
 40
0
 40
0
 40
0
 40
0
 40
1
 40
1
 40
1
 40
1
 10
-398.527567
 20
819.620647
 30
0.0
 10
-485.101087
 20
892.406692
 30
0.0
 10
-336.623353
 20
714.706085
 30
0.0
 10
-402.390327
 20
808.650844
 30
0.0
  0
SPLINE
  5
20c
100
AcDbEntity
  8
Capa_1
 62
7
100
AcDbSpline
 70
8
 71
3
 72
8
 73
4
 74
0
 40
0
 40
0
 40
0
 40
0
 40
1
 40
1
 40
1
 40
1
 10
-402.390327
 20
808.650844
 30
0.0
 10
-468.157295
 20
902.595602
 30
0.0
 10
-350.837528
 20
700.618051
 30
0.0
 10
-391.316041
 20
809.319346
 30
0.0
  0
SPLINE
  5
20d
100
AcDbEntity
  8
Capa_1
 62
7
100
AcDbSpline
 70
8
 71
3
 72
8
 73
4
 74
0
 40
0
 40
0
 40
0
 40
0
 40
1
 40
1
 40
1
 40
1
 10
-391.316041
 20
809.319346
 30
0.0
 10
-431.794548
 20
918.020645
 30
0.0
 10
-387.428827
 20
685.806770
 30
0.0
 10
-399.860334
 20
801.856789
 30
0.0
  0
SPLINE
  5
20e
100
AcDbEntity
  8
Capa_1
 62
7
100
AcDbSpline
 70
8
 71
3
 72
8
 73
4
 74
0
 40
0
 40
0
 40
0
 40
0
 40
1
 40
1
 40
1
 40
1
 10
-399.860334
 20
801.856789
 30
0.0
 10
-412.291841
 20
917.906806
 30
0.0
 10
-406.415578
 20
681.104021
 30
0.0
 10
-389.952891
 20
796.594145
 30
0.0
  0
SPLINE
  5
20f
100
AcDbEntity
  8
Capa_1
 62
7
100
AcDbSpline
 70
8
 71
3
 72
8
 73
4
 74
0
 40
0
 40
0
 40
0
 40
0
 40
1
 40
1
 40
1
 40
1
 10
-389.952891
 20
796.594145
 30
0.0
 10
-373.490203
 20
912.084274
 30
0.0
 10
-445.124260
 20
687.578647
 30
0.0
 10
-400.889286
 20
794.638417
 30
0.0
  0
SPLINE
  5
210
100
AcDbEntity
  8
Capa_1
 62
7
100
AcDbSpline
 70
8
 71
3
 72
8
 73
4
 74
0
 40
0
 40
0
 40
0
 40
0
 40
1
 40
1
 40
1
 40
1
 10
-400.889286
 20
794.638417
 30
0.0
 10
-356.654318
 20
901.698185
 30
0.0
 10
-463.796090
 20
693.521279
 30
0.0
 10
-394.803378
 20
784.854748
 30
0.0
  0
SPLINE
  5
211
100
AcDbEntity
  8
Capa_1
 62
7
100
AcDbSpline
 70
8
 71
3
 72
8
 73
4
 74
0
 40
0
 40
0
 40
0
 40
0
 40
1
 40
1
 40
1
 40
1
 10
-394.803378
 20
784.854748
 30
0.0
 10
-325.810661
 20
876.188216
 30
0.0
 10
-494.250195
 20
719.546943
 30
0.0
 10
-405.201477
 20
788.929887
 30
0.0
  0
SPLINE
  5
212
100
AcDbEntity
  8
Capa_1
 62
7
100
AcDbSpline
 70
8
 71
3
 72
8
 73
4
 74
0
 40
0
 40
0
 40
0
 40
0
 40
1
 40
1
 40
1
 40
1
 10
-405.201477
 20
788.929887
 30
0.0
 10
-316.152754
 20
858.312829
 30
0.0
 10
-507.604015
 20
734.542636
 30
0.0
 10
-404.567812
 20
777.246718
 30
0.0
  0
LWPOLYLINE
  5
213
100
AcDbEntity
  8
Capa_1
 62
7
100
AcDbPolyline
 90
2
 70
1
 10
-78.910041
 20
622.507566
 30
0.0
 10
-78.910041
 20
622.507566
 30
0.0
  0
LWPOLYLINE
  5
214
100
AcDbEntity
  8
Capa_1
 62
7
100
AcDbPolyline
 90
2
 70
1
 10
-404.567812
 20
777.246718
 30
0.0
 10
-404.567812
 20
777.246718
 30
0.0
  0
LWPOLYLINE
  5
215
100
AcDbEntity
  8
Capa_1
 62
7
100
AcDbPolyline
 90
5
 70
1
 10
152.924377
 20
318.201344
 30
0.0
 10
169.223535
 20
318.201344
 30
0.0
 10
169.223535
 20
301.902187
 30
0.0
 10
152.924377
 20
301.902187
 30
0.0
 10
152.924377
 20
318.201344
 30
0.0
  0
LWPOLYLINE
  5
216
100
AcDbEntity
  8
Capa_1
 62
7
100
AcDbPolyline
 90
5
 70
1
 10
104.870149
 20
256.303144
 30
0.0
 10
104.870149
 20
240.003986
 30
0.0
 10
88.570991
 20
240.003986
 30
0.0
 10
88.570991
 20
256.303144
 30
0.0
 10
104.870149
 20
256.303144
 30
0.0
  0
LWPOLYLINE
  5
217
100
AcDbEntity
  8
Capa_1
 62
7
100
AcDbPolyline
 90
5
 70
1
 10
104.870149
 20
381.736216
 30
0.0
 10
104.870149
 20
365.437058
 30
0.0
 10
88.570991
 20
365.437058
 30
0.0
 10
88.570991
 20
381.736216
 30
0.0
 10
104.870149
 20
381.736216
 30
0.0
  0
SPLINE
  5
218
100
AcDbEntity
  8
Capa_1
 62
7
100
AcDbSpline
 70
8
 71
3
 72
8
 73
4
 74
0
 40
0
 40
0
 40
0
 40
0
 40
1
 40
1
 40
1
 40
1
 10
-297.488336
 20
693.184668
 30
0.0
 10
-219.964360
 20
766.957467
 30
0.0
 10
-406.057664
 20
649.830596
 30
0.0
 10
-312.081456
 20
701.024972
 30
0.0
  0
SPLINE
  5
219
100
AcDbEntity
  8
Capa_1
 62
7
100
AcDbSpline
 70
8
 71
3
 72
8
 73
4
 74
0
 40
0
 40
0
 40
0
 40
0
 40
1
 40
1
 40
1
 40
1
 10
-312.081456
 20
701.024972
 30
0.0
 10
-218.105256
 20
752.219348
 30
0.0
 10
-417.432176
 20
659.385116
 30
0.0
 10
-313.408048
 20
684.512252
 30
0.0
  0
SPLINE
  5
21a
100
AcDbEntity
  8
Capa_1
 62
7
100
AcDbSpline
 70
8
 71
3
 72
8
 73
4
 74
0
 40
0
 40
0
 40
0
 40
0
 40
1
 40
1
 40
1
 40
1
 10
-313.408048
 20
684.512252
 30
0.0
 10
-209.383920
 20
709.639396
 30
0.0
 10
-429.108888
 20
701.251196
 30
0.0
 10
-322.125912
 20
698.598724
 30
0.0
  0
SPLINE
  5
21b
100
AcDbEntity
  8
Capa_1
 62
7
100
AcDbSpline
 70
8
 71
3
 72
8
 73
4
 74
0
 40
0
 40
0
 40
0
 40
0
 40
1
 40
1
 40
1
 40
1
 10
-322.125912
 20
698.598724
 30
0.0
 10
-215.142944
 20
695.946252
 30
0.0
 10
-434.182240
 20
715.212908
 30
0.0
 10
-331.531136
 20
684.961588
 30
0.0
  0
SPLINE
  5
21c
100
AcDbEntity
  8
Capa_1
 62
7
100
AcDbSpline
 70
8
 71
3
 72
8
 73
4
 74
0
 40
0
 40
0
 40
0
 40
0
 40
1
 40
1
 40
1
 40
1
 10
-331.531136
 20
684.961588
 30
0.0
 10
-228.880032
 20
654.710260
 30
0.0
 10
-423.361528
 20
757.308356
 30
0.0
 10
-332.037792
 20
701.519756
 30
0.0
  0
SPLINE
  5
21d
100
AcDbEntity
  8
Capa_1
 62
7
100
AcDbSpline
 70
8
 71
3
 72
8
 73
4
 74
0
 40
0
 40
0
 40
0
 40
0
 40
1
 40
1
 40
1
 40
1
 10
-332.037792
 20
701.519756
 30
0.0
 10
-240.714064
 20
645.731172
 30
0.0
 10
-420.774320
 20
771.936228
 30
0.0
 10
-347.001520
 20
694.412260
 30
0.0
  0
SPLINE
  5
21e
100
AcDbEntity
  8
Capa_1
 62
7
100
AcDbSpline
 70
8
 71
3
 72
8
 73
4
 74
0
 40
0
 40
0
 40
0
 40
0
 40
1
 40
1
 40
1
 40
1
 10
-347.001520
 20
694.412260
 30
0.0
 10
-273.228720
 20
616.888292
 30
0.0
 10
-390.355592
 20
802.981597
 30
0.0
 10
-339.161216
 20
709.005388
 30
0.0
  0
SPLINE
  5
21f
100
AcDbEntity
  8
Capa_1
 62
7
100
AcDbSpline
 70
8
 71
3
 72
8
 73
4
 74
0
 40
0
 40
0
 40
0
 40
0
 40
1
 40
1
 40
1
 40
1
 10
-339.161216
 20
709.005388
 30
0.0
 10
-287.966840
 20
615.029188
 30
0.0
 10
-380.801072
 20
814.356105
 30
0.0
 10
-355.673936
 20
710.331980
 30
0.0
  0
SPLINE
  5
220
100
AcDbEntity
  8
Capa_1
 62
7
100
AcDbSpline
 70
8
 71
3
 72
8
 73
4
 74
0
 40
0
 40
0
 40
0
 40
0
 40
1
 40
1
 40
1
 40
1
 10
-355.673936
 20
710.331980
 30
0.0
 10
-330.546792
 20
606.307852
 30
0.0
 10
-338.934992
 20
826.032818
 30
0.0
 10
-341.587464
 20
719.049844
 30
0.0
  0
SPLINE
  5
221
100
AcDbEntity
  8
Capa_1
 62
7
100
AcDbSpline
 70
8
 71
3
 72
8
 73
4
 74
0
 40
0
 40
0
 40
0
 40
0
 40
1
 40
1
 40
1
 40
1
 10
-341.587464
 20
719.049844
 30
0.0
 10
-344.239936
 20
612.066876
 30
0.0
 10
-324.973280
 20
831.106168
 30
0.0
 10
-355.224600
 20
728.455068
 30
0.0
  0
SPLINE
  5
222
100
AcDbEntity
  8
Capa_1
 62
7
100
AcDbSpline
 70
8
 71
3
 72
8
 73
4
 74
0
 40
0
 40
0
 40
0
 40
0
 40
1
 40
1
 40
1
 40
1
 10
-355.224600
 20
728.455068
 30
0.0
 10
-385.475928
 20
625.803964
 30
0.0
 10
-282.877832
 20
820.285461
 30
0.0
 10
-338.666432
 20
728.961724
 30
0.0
  0
SPLINE
  5
223
100
AcDbEntity
  8
Capa_1
 62
7
100
AcDbSpline
 70
8
 71
3
 72
8
 73
4
 74
0
 40
0
 40
0
 40
0
 40
0
 40
1
 40
1
 40
1
 40
1
 10
-338.666432
 20
728.961724
 30
0.0
 10
-394.455016
 20
637.637988
 30
0.0
 10
-268.249960
 20
817.698253
 30
0.0
 10
-345.773920
 20
743.925452
 30
0.0
  0
SPLINE
  5
224
100
AcDbEntity
  8
Capa_1
 62
7
100
AcDbSpline
 70
8
 71
3
 72
8
 73
4
 74
0
 40
0
 40
0
 40
0
 40
0
 40
1
 40
1
 40
1
 40
1
 10
-345.773920
 20
743.925452
 30
0.0
 10
-423.297888
 20
670.152652
 30
0.0
 10
-237.204592
 20
787.279525
 30
0.0
 10
-331.180800
 20
736.085148
 30
0.0
  0
SPLINE
  5
225
100
AcDbEntity
  8
Capa_1
 62
7
100
AcDbSpline
 70
8
 71
3
 72
8
 73
4
 74
0
 40
0
 40
0
 40
0
 40
0
 40
1
 40
1
 40
1
 40
1
 10
-331.180800
 20
736.085148
 30
0.0
 10
-425.157000
 20
684.890772
 30
0.0
 10
-225.830080
 20
777.724999
 30
0.0
 10
-329.854208
 20
752.597860
 30
0.0
  0
SPLINE
  5
226
100
AcDbEntity
  8
Capa_1
 62
7
100
AcDbSpline
 70
8
 71
3
 72
8
 73
4
 74
0
 40
0
 40
0
 40
0
 40
0
 40
1
 40
1
 40
1
 40
1
 10
-329.854208
 20
752.597860
 30
0.0
 10
-433.878336
 20
727.470724
 30
0.0
 10
-214.153368
 20
735.858924
 30
0.0
 10
-321.136344
 20
738.511396
 30
0.0
  0
SPLINE
  5
227
100
AcDbEntity
  8
Capa_1
 62
7
100
AcDbSpline
 70
8
 71
3
 72
8
 73
4
 74
0
 40
0
 40
0
 40
0
 40
0
 40
1
 40
1
 40
1
 40
1
 10
-321.136344
 20
738.511396
 30
0.0
 10
-428.119312
 20
741.163868
 30
0.0
 10
-209.080016
 20
721.897212
 30
0.0
 10
-311.731120
 20
752.148532
 30
0.0
  0
SPLINE
  5
228
100
AcDbEntity
  8
Capa_1
 62
7
100
AcDbSpline
 70
8
 71
3
 72
8
 73
4
 74
0
 40
0
 40
0
 40
0
 40
0
 40
1
 40
1
 40
1
 40
1
 10
-311.731120
 20
752.148532
 30
0.0
 10
-414.382224
 20
782.399856
 30
0.0
 10
-219.900728
 20
679.801764
 30
0.0
 10
-311.224464
 20
735.590356
 30
0.0
  0
SPLINE
  5
229
100
AcDbEntity
  8
Capa_1
 62
7
100
AcDbSpline
 70
8
 71
3
 72
8
 73
4
 74
0
 40
0
 40
0
 40
0
 40
0
 40
1
 40
1
 40
1
 40
1
 10
-311.224464
 20
735.590356
 30
0.0
 10
-402.548192
 20
791.378949
 30
0.0
 10
-222.487936
 20
665.173892
 30
0.0
 10
-296.260736
 20
742.697852
 30
0.0
  0
SPLINE
  5
22a
100
AcDbEntity
  8
Capa_1
 62
7
100
AcDbSpline
 70
8
 71
3
 72
8
 73
4
 74
0
 40
0
 40
0
 40
0
 40
0
 40
1
 40
1
 40
1
 40
1
 10
-296.260736
 20
742.697852
 30
0.0
 10
-370.033536
 20
820.221823
 30
0.0
 10
-252.906664
 20
634.128524
 30
0.0
 10
-304.101040
 20
728.104732
 30
0.0
  0
SPLINE
  5
22b
100
AcDbEntity
  8
Capa_1
 62
7
100
AcDbSpline
 70
8
 71
3
 72
8
 73
4
 74
0
 40
0
 40
0
 40
0
 40
0
 40
1
 40
1
 40
1
 40
1
 10
-304.101040
 20
728.104732
 30
0.0
 10
-355.295416
 20
822.080932
 30
0.0
 10
-262.461184
 20
622.754012
 30
0.0
 10
-287.588320
 20
726.778140
 30
0.0
  0
SPLINE
  5
22c
100
AcDbEntity
  8
Capa_1
 62
7
100
AcDbSpline
 70
8
 71
3
 72
8
 73
4
 74
0
 40
0
 40
0
 40
0
 40
0
 40
1
 40
1
 40
1
 40
1
 10
-287.588320
 20
726.778140
 30
0.0
 10
-312.715464
 20
830.802264
 30
0.0
 10
-304.327264
 20
611.077300
 30
0.0
 10
-301.674792
 20
718.060276
 30
0.0
  0
SPLINE
  5
22d
100
AcDbEntity
  8
Capa_1
 62
7
100
AcDbSpline
 70
8
 71
3
 72
8
 73
4
 74
0
 40
0
 40
0
 40
0
 40
0
 40
1
 40
1
 40
1
 40
1
 10
-301.674792
 20
718.060276
 30
0.0
 10
-299.022320
 20
825.043241
 30
0.0
 10
-318.288976
 20
606.003948
 30
0.0
 10
-288.037656
 20
708.655052
 30
0.0
  0
SPLINE
  5
22e
100
AcDbEntity
  8
Capa_1
 62
7
100
AcDbSpline
 70
8
 71
3
 72
8
 73
4
 74
0
 40
0
 40
0
 40
0
 40
0
 40
1
 40
1
 40
1
 40
1
 10
-288.037656
 20
708.655052
 30
0.0
 10
-257.786328
 20
811.306156
 30
0.0
 10
-360.384424
 20
616.824660
 30
0.0
 10
-304.595824
 20
708.148396
 30
0.0
  0
SPLINE
  5
22f
100
AcDbEntity
  8
Capa_1
 62
7
100
AcDbSpline
 70
8
 71
3
 72
8
 73
4
 74
0
 40
0
 40
0
 40
0
 40
0
 40
1
 40
1
 40
1
 40
1
 10
-304.595824
 20
708.148396
 30
0.0
 10
-248.807240
 20
799.472127
 30
0.0
 10
-375.012296
 20
619.411868
 30
0.0
 10
-297.488336
 20
693.184668
 30
0.0
  0
LWPOLYLINE
  5
230
100
AcDbEntity
  8
Capa_1
 62
7
100
AcDbPolyline
 90
5
 70
1
 10
27.491308
 20
319.019744
 30
0.0
 10
43.790466
 20
319.019744
 30
0.0
 10
43.790466
 20
302.720587
 30
0.0
 10
27.491308
 20
302.720587
 30
0.0
 10
27.491308
 20
319.019744
 30
0.0
  0
SPLINE
  5
231
100
AcDbEntity
  8
Capa_1
 62
7
100
AcDbSpline
 70
8
 71
3
 72
8
 73
4
 74
0
 40
0
 40
0
 40
0
 40
0
 40
1
 40
1
 40
1
 40
1
 10
-182.093920
 20
694.821484
 30
0.0
 10
-104.569952
 20
768.594284
 30
0.0
 10
-290.663256
 20
651.467412
 30
0.0
 10
-196.687048
 20
702.661788
 30
0.0
  0
SPLINE
  5
232
100
AcDbEntity
  8
Capa_1
 62
7
100
AcDbSpline
 70
8
 71
3
 72
8
 73
4
 74
0
 40
0
 40
0
 40
0
 40
0
 40
1
 40
1
 40
1
 40
1
 10
-196.687048
 20
702.661788
 30
0.0
 10
-102.710848
 20
753.856164
 30
0.0
 10
-302.037760
 20
661.021932
 30
0.0
 10
-198.013640
 20
686.149068
 30
0.0
  0
SPLINE
  5
233
100
AcDbEntity
  8
Capa_1
 62
7
100
AcDbSpline
 70
8
 71
3
 72
8
 73
4
 74
0
 40
0
 40
0
 40
0
 40
0
 40
1
 40
1
 40
1
 40
1
 10
-198.013640
 20
686.149068
 30
0.0
 10
-93.989512
 20
711.276212
 30
0.0
 10
-313.714480
 20
702.888012
 30
0.0
 10
-206.731504
 20
700.235540
 30
0.0
  0
SPLINE
  5
234
100
AcDbEntity
  8
Capa_1
 62
7
100
AcDbSpline
 70
8
 71
3
 72
8
 73
4
 74
0
 40
0
 40
0
 40
0
 40
0
 40
1
 40
1
 40
1
 40
1
 10
-206.731504
 20
700.235540
 30
0.0
 10
-99.748536
 20
697.583068
 30
0.0
 10
-318.787824
 20
716.849724
 30
0.0
 10
-216.136728
 20
686.598404
 30
0.0
  0
SPLINE
  5
235
100
AcDbEntity
  8
Capa_1
 62
7
100
AcDbSpline
 70
8
 71
3
 72
8
 73
4
 74
0
 40
0
 40
0
 40
0
 40
0
 40
1
 40
1
 40
1
 40
1
 10
-216.136728
 20
686.598404
 30
0.0
 10
-113.485624
 20
656.347076
 30
0.0
 10
-307.967120
 20
758.945172
 30
0.0
 10
-216.643384
 20
703.156572
 30
0.0
  0
SPLINE
  5
236
100
AcDbEntity
  8
Capa_1
 62
7
100
AcDbSpline
 70
8
 71
3
 72
8
 73
4
 74
0
 40
0
 40
0
 40
0
 40
0
 40
1
 40
1
 40
1
 40
1
 10
-216.643384
 20
703.156572
 30
0.0
 10
-125.319648
 20
647.367988
 30
0.0
 10
-305.379912
 20
773.573045
 30
0.0
 10
-231.607112
 20
696.049084
 30
0.0
  0
SPLINE
  5
237
100
AcDbEntity
  8
Capa_1
 62
7
100
AcDbSpline
 70
8
 71
3
 72
8
 73
4
 74
0
 40
0
 40
0
 40
0
 40
0
 40
1
 40
1
 40
1
 40
1
 10
-231.607112
 20
696.049084
 30
0.0
 10
-157.834312
 20
618.525108
 30
0.0
 10
-274.961184
 20
804.618413
 30
0.0
 10
-223.766808
 20
710.642204
 30
0.0
  0
SPLINE
  5
238
100
AcDbEntity
  8
Capa_1
 62
7
100
AcDbSpline
 70
8
 71
3
 72
8
 73
4
 74
0
 40
0
 40
0
 40
0
 40
0
 40
1
 40
1
 40
1
 40
1
 10
-223.766808
 20
710.642204
 30
0.0
 10
-172.572424
 20
616.666004
 30
0.0
 10
-265.406656
 20
815.992921
 30
0.0
 10
-240.279520
 20
711.968796
 30
0.0
  0
SPLINE
  5
239
100
AcDbEntity
  8
Capa_1
 62
7
100
AcDbSpline
 70
8
 71
3
 72
8
 73
4
 74
0
 40
0
 40
0
 40
0
 40
0
 40
1
 40
1
 40
1
 40
1
 10
-240.279520
 20
711.968796
 30
0.0
 10
-215.152384
 20
607.944668
 30
0.0
 10
-223.540584
 20
827.669635
 30
0.0
 10
-226.193056
 20
720.686660
 30
0.0
  0
SPLINE
  5
23a
100
AcDbEntity
  8
Capa_1
 62
7
100
AcDbSpline
 70
8
 71
3
 72
8
 73
4
 74
0
 40
0
 40
0
 40
0
 40
0
 40
1
 40
1
 40
1
 40
1
 10
-226.193056
 20
720.686660
 30
0.0
 10
-228.845520
 20
613.703692
 30
0.0
 10
-209.578864
 20
832.742985
 30
0.0
 10
-239.830192
 20
730.091884
 30
0.0
  0
SPLINE
  5
23b
100
AcDbEntity
  8
Capa_1
 62
7
100
AcDbSpline
 70
8
 71
3
 72
8
 73
4
 74
0
 40
0
 40
0
 40
0
 40
0
 40
1
 40
1
 40
1
 40
1
 10
-239.830192
 20
730.091884
 30
0.0
 10
-270.081512
 20
627.440780
 30
0.0
 10
-167.483424
 20
821.922278
 30
0.0
 10
-223.272016
 20
730.598540
 30
0.0
  0
SPLINE
  5
23c
100
AcDbEntity
  8
Capa_1
 62
7
100
AcDbSpline
 70
8
 71
3
 72
8
 73
4
 74
0
 40
0
 40
0
 40
0
 40
0
 40
1
 40
1
 40
1
 40
1
 10
-223.272016
 20
730.598540
 30
0.0
 10
-279.060608
 20
639.274812
 30
0.0
 10
-152.855552
 20
819.335069
 30
0.0
 10
-230.379512
 20
745.562268
 30
0.0
  0
SPLINE
  5
23d
100
AcDbEntity
  8
Capa_1
 62
7
100
AcDbSpline
 70
8
 71
3
 72
8
 73
4
 74
0
 40
0
 40
0
 40
0
 40
0
 40
1
 40
1
 40
1
 40
1
 10
-230.379512
 20
745.562268
 30
0.0
 10
-307.903480
 20
671.789468
 30
0.0
 10
-121.810184
 20
788.916342
 30
0.0
 10
-215.786392
 20
737.721964
 30
0.0
  0
SPLINE
  5
23e
100
AcDbEntity
  8
Capa_1
 62
7
100
AcDbSpline
 70
8
 71
3
 72
8
 73
4
 74
0
 40
0
 40
0
 40
0
 40
0
 40
1
 40
1
 40
1
 40
1
 10
-215.786392
 20
737.721964
 30
0.0
 10
-309.762592
 20
686.527588
 30
0.0
 10
-110.435672
 20
779.361816
 30
0.0
 10
-214.459792
 20
754.234684
 30
0.0
  0
SPLINE
  5
23f
100
AcDbEntity
  8
Capa_1
 62
7
100
AcDbSpline
 70
8
 71
3
 72
8
 73
4
 74
0
 40
0
 40
0
 40
0
 40
0
 40
1
 40
1
 40
1
 40
1
 10
-214.459792
 20
754.234684
 30
0.0
 10
-318.483920
 20
729.107540
 30
0.0
 10
-98.758960
 20
737.495740
 30
0.0
 10
-205.741936
 20
740.148212
 30
0.0
  0
SPLINE
  5
240
100
AcDbEntity
  8
Capa_1
 62
7
100
AcDbSpline
 70
8
 71
3
 72
8
 73
4
 74
0
 40
0
 40
0
 40
0
 40
0
 40
1
 40
1
 40
1
 40
1
 10
-205.741936
 20
740.148212
 30
0.0
 10
-312.724904
 20
742.800684
 30
0.0
 10
-93.685608
 20
723.534028
 30
0.0
 10
-196.336712
 20
753.785348
 30
0.0
  0
SPLINE
  5
241
100
AcDbEntity
  8
Capa_1
 62
7
100
AcDbSpline
 70
8
 71
3
 72
8
 73
4
 74
0
 40
0
 40
0
 40
0
 40
0
 40
1
 40
1
 40
1
 40
1
 10
-196.336712
 20
753.785348
 30
0.0
 10
-298.987816
 20
784.036672
 30
0.0
 10
-104.506320
 20
681.438580
 30
0.0
 10
-195.830056
 20
737.227180
 30
0.0
  0
SPLINE
  5
242
100
AcDbEntity
  8
Capa_1
 62
7
100
AcDbSpline
 70
8
 71
3
 72
8
 73
4
 74
0
 40
0
 40
0
 40
0
 40
0
 40
1
 40
1
 40
1
 40
1
 10
-195.830056
 20
737.227180
 30
0.0
 10
-287.153784
 20
793.015766
 30
0.0
 10
-107.093528
 20
666.810708
 30
0.0
 10
-180.866320
 20
744.334668
 30
0.0
  0
SPLINE
  5
243
100
AcDbEntity
  8
Capa_1
 62
7
100
AcDbSpline
 70
8
 71
3
 72
8
 73
4
 74
0
 40
0
 40
0
 40
0
 40
0
 40
1
 40
1
 40
1
 40
1
 10
-180.866320
 20
744.334668
 30
0.0
 10
-254.639128
 20
821.858640
 30
0.0
 10
-137.512256
 20
635.765340
 30
0.0
 10
-188.706632
 20
729.741548
 30
0.0
  0
SPLINE
  5
244
100
AcDbEntity
  8
Capa_1
 62
7
100
AcDbSpline
 70
8
 71
3
 72
8
 73
4
 74
0
 40
0
 40
0
 40
0
 40
0
 40
1
 40
1
 40
1
 40
1
 10
-188.706632
 20
729.741548
 30
0.0
 10
-239.901008
 20
823.717749
 30
0.0
 10
-147.066776
 20
624.390828
 30
0.0
 10
-172.193912
 20
728.414956
 30
0.0
  0
SPLINE
  5
245
100
AcDbEntity
  8
Capa_1
 62
7
100
AcDbSpline
 70
8
 71
3
 72
8
 73
4
 74
0
 40
0
 40
0
 40
0
 40
0
 40
1
 40
1
 40
1
 40
1
 10
-172.193912
 20
728.414956
 30
0.0
 10
-197.321048
 20
832.439080
 30
0.0
 10
-188.932856
 20
612.714116
 30
0.0
 10
-186.280384
 20
719.697092
 30
0.0
  0
SPLINE
  5
246
100
AcDbEntity
  8
Capa_1
 62
7
100
AcDbSpline
 70
8
 71
3
 72
8
 73
4
 74
0
 40
0
 40
0
 40
0
 40
0
 40
1
 40
1
 40
1
 40
1
 10
-186.280384
 20
719.697092
 30
0.0
 10
-183.627912
 20
826.680057
 30
0.0
 10
-202.894568
 20
607.640764
 30
0.0
 10
-172.643248
 20
710.291868
 30
0.0
  0
SPLINE
  5
247
100
AcDbEntity
  8
Capa_1
 62
7
100
AcDbSpline
 70
8
 71
3
 72
8
 73
4
 74
0
 40
0
 40
0
 40
0
 40
0
 40
1
 40
1
 40
1
 40
1
 10
-172.643248
 20
710.291868
 30
0.0
 10
-142.391920
 20
812.942973
 30
0.0
 10
-244.990008
 20
618.461476
 30
0.0
 10
-189.201416
 20
709.785212
 30
0.0
  0
SPLINE
  5
248
100
AcDbEntity
  8
Capa_1
 62
7
100
AcDbSpline
 70
8
 71
3
 72
8
 73
4
 74
0
 40
0
 40
0
 40
0
 40
0
 40
1
 40
1
 40
1
 40
1
 10
-189.201416
 20
709.785212
 30
0.0
 10
-133.412832
 20
801.108943
 30
0.0
 10
-259.617888
 20
621.048684
 30
0.0
 10
-182.093920
 20
694.821484
 30
0.0
  0
LWPOLYLINE
  5
249
100
AcDbEntity
  8
Capa_1
 62
7
100
AcDbPolyline
 90
2
 70
1
 10
-297.488336
 20
693.184668
 30
0.0
 10
-297.488336
 20
693.184668
 30
0.0
  0
SPLINE
  5
24a
100
AcDbEntity
  8
Capa_1
 62
7
100
AcDbSpline
 70
8
 71
3
 72
8
 73
4
 74
0
 40
0
 40
0
 40
0
 40
0
 40
1
 40
1
 40
1
 40
1
 10
-293.805576
 20
599.068708
 30
0.0
 10
-249.174904
 20
652.479180
 30
0.0
 10
-367.846552
 20
565.840668
 30
0.0
 10
-310.912984
 20
605.879964
 30
0.0
  0
SPLINE
  5
24b
100
AcDbEntity
  8
Capa_1
 62
7
100
AcDbSpline
 70
8
 71
3
 72
8
 73
4
 74
0
 40
0
 40
0
 40
0
 40
0
 40
1
 40
1
 40
1
 40
1
 10
-310.912984
 20
605.879964
 30
0.0
 10
-253.979416
 20
645.919252
 30
0.0
 10
-375.644744
 20
563.537580
 30
0.0
 10
-310.288208
 20
587.477076
 30
0.0
  0
SPLINE
  5
24c
100
AcDbEntity
  8
Capa_1
 62
7
100
AcDbSpline
 70
8
 71
3
 72
8
 73
4
 74
0
 40
0
 40
0
 40
0
 40
0
 40
1
 40
1
 40
1
 40
1
 10
-310.288208
 20
587.477076
 30
0.0
 10
-244.931672
 20
611.416564
 30
0.0
 10
-391.023600
 20
595.721236
 30
0.0
 10
-321.698032
 20
601.929500
 30
0.0
  0
SPLINE
  5
24d
100
AcDbEntity
  8
Capa_1
 62
7
100
AcDbSpline
 70
8
 71
3
 72
8
 73
4
 74
0
 40
0
 40
0
 40
0
 40
0
 40
1
 40
1
 40
1
 40
1
 10
-321.698032
 20
601.929500
 30
0.0
 10
-252.372472
 20
608.137756
 30
0.0
 10
-398.928576
 20
597.625804
 30
0.0
 10
-330.358408
 20
585.679740
 30
0.0
  0
SPLINE
  5
24e
100
AcDbEntity
  8
Capa_1
 62
7
100
AcDbSpline
 70
8
 71
3
 72
8
 73
4
 74
0
 40
0
 40
0
 40
0
 40
0
 40
1
 40
1
 40
1
 40
1
 10
-330.358408
 20
585.679740
 30
0.0
 10
-261.788240
 20
573.733684
 30
0.0
 10
-396.155216
 20
633.187092
 30
0.0
 10
-333.013392
 20
603.900820
 30
0.0
  0
SPLINE
  5
24f
100
AcDbEntity
  8
Capa_1
 62
7
100
AcDbSpline
 70
8
 71
3
 72
8
 73
4
 74
0
 40
0
 40
0
 40
0
 40
0
 40
1
 40
1
 40
1
 40
1
 10
-333.013392
 20
603.900820
 30
0.0
 10
-269.871560
 20
574.614548
 30
0.0
 10
-402.048848
 20
638.788980
 30
0.0
 10
-348.638368
 20
594.158308
 30
0.0
  0
SPLINE
  5
250
100
AcDbEntity
  8
Capa_1
 62
7
100
AcDbSpline
 70
8
 71
3
 72
8
 73
4
 74
0
 40
0
 40
0
 40
0
 40
0
 40
1
 40
1
 40
1
 40
1
 10
-348.638368
 20
594.158308
 30
0.0
 10
-295.227888
 20
549.527628
 30
0.0
 10
-381.866408
 20
668.199284
 30
0.0
 10
-341.827112
 20
611.265716
 30
0.0
  0
SPLINE
  5
251
100
AcDbEntity
  8
Capa_1
 62
7
100
AcDbSpline
 70
8
 71
3
 72
8
 73
4
 74
0
 40
0
 40
0
 40
0
 40
0
 40
1
 40
1
 40
1
 40
1
 10
-341.827112
 20
611.265716
 30
0.0
 10
-301.787824
 20
554.332140
 30
0.0
 10
-384.169496
 20
675.997476
 30
0.0
 10
-360.230000
 20
610.640940
 30
0.0
  0
SPLINE
  5
252
100
AcDbEntity
  8
Capa_1
 62
7
100
AcDbSpline
 70
8
 71
3
 72
8
 73
4
 74
0
 40
0
 40
0
 40
0
 40
0
 40
1
 40
1
 40
1
 40
1
 10
-360.230000
 20
610.640940
 30
0.0
 10
-336.290504
 20
545.284404
 30
0.0
 10
-351.985832
 20
691.376324
 30
0.0
 10
-345.777576
 20
622.050764
 30
0.0
  0
SPLINE
  5
253
100
AcDbEntity
  8
Capa_1
 62
7
100
AcDbSpline
 70
8
 71
3
 72
8
 73
4
 74
0
 40
0
 40
0
 40
0
 40
0
 40
1
 40
1
 40
1
 40
1
 10
-345.777576
 20
622.050764
 30
0.0
 10
-339.569320
 20
552.725196
 30
0.0
 10
-350.081272
 20
699.281300
 30
0.0
 10
-362.027328
 20
630.711132
 30
0.0
  0
SPLINE
  5
254
100
AcDbEntity
  8
Capa_1
 62
7
100
AcDbSpline
 70
8
 71
3
 72
8
 73
4
 74
0
 40
0
 40
0
 40
0
 40
0
 40
1
 40
1
 40
1
 40
1
 10
-362.027328
 20
630.711132
 30
0.0
 10
-373.973392
 20
562.140964
 30
0.0
 10
-314.519984
 20
696.507948
 30
0.0
 10
-343.806256
 20
633.366116
 30
0.0
  0
SPLINE
  5
255
100
AcDbEntity
  8
Capa_1
 62
7
100
AcDbSpline
 70
8
 71
3
 72
8
 73
4
 74
0
 40
0
 40
0
 40
0
 40
0
 40
1
 40
1
 40
1
 40
1
 10
-343.806256
 20
633.366116
 30
0.0
 10
-373.092528
 20
570.224284
 30
0.0
 10
-308.918096
 20
702.401572
 30
0.0
 10
-353.548768
 20
648.991100
 30
0.0
  0
SPLINE
  5
256
100
AcDbEntity
  8
Capa_1
 62
7
100
AcDbSpline
 70
8
 71
3
 72
8
 73
4
 74
0
 40
0
 40
0
 40
0
 40
0
 40
1
 40
1
 40
1
 40
1
 10
-353.548768
 20
648.991100
 30
0.0
 10
-398.179440
 20
595.580620
 30
0.0
 10
-279.507792
 20
682.219132
 30
0.0
 10
-336.441360
 20
642.179844
 30
0.0
  0
SPLINE
  5
257
100
AcDbEntity
  8
Capa_1
 62
7
100
AcDbSpline
 70
8
 71
3
 72
8
 73
4
 74
0
 40
0
 40
0
 40
0
 40
0
 40
1
 40
1
 40
1
 40
1
 10
-336.441360
 20
642.179844
 30
0.0
 10
-393.374928
 20
602.140548
 30
0.0
 10
-271.709600
 20
684.522220
 30
0.0
 10
-337.066136
 20
660.582732
 30
0.0
  0
SPLINE
  5
258
100
AcDbEntity
  8
Capa_1
 62
7
100
AcDbSpline
 70
8
 71
3
 72
8
 73
4
 74
0
 40
0
 40
0
 40
0
 40
0
 40
1
 40
1
 40
1
 40
1
 10
-337.066136
 20
660.582732
 30
0.0
 10
-402.422672
 20
636.643236
 30
0.0
 10
-256.330752
 20
652.338564
 30
0.0
 10
-325.656312
 20
646.130300
 30
0.0
  0
SPLINE
  5
259
100
AcDbEntity
  8
Capa_1
 62
7
100
AcDbSpline
 70
8
 71
3
 72
8
 73
4
 74
0
 40
0
 40
0
 40
0
 40
0
 40
1
 40
1
 40
1
 40
1
 10
-325.656312
 20
646.130300
 30
0.0
 10
-394.981880
 20
639.922044
 30
0.0
 10
-248.425776
 20
650.434004
 30
0.0
 10
-316.995944
 20
662.380060
 30
0.0
  0
SPLINE
  5
25a
100
AcDbEntity
  8
Capa_1
 62
7
100
AcDbSpline
 70
8
 71
3
 72
8
 73
4
 74
0
 40
0
 40
0
 40
0
 40
0
 40
1
 40
1
 40
1
 40
1
 10
-316.995944
 20
662.380060
 30
0.0
 10
-385.566112
 20
674.326116
 30
0.0
 10
-251.199128
 20
614.872708
 30
0.0
 10
-314.340960
 20
644.158980
 30
0.0
  0
SPLINE
  5
25b
100
AcDbEntity
  8
Capa_1
 62
7
100
AcDbSpline
 70
8
 71
3
 72
8
 73
4
 74
0
 40
0
 40
0
 40
0
 40
0
 40
1
 40
1
 40
1
 40
1
 10
-314.340960
 20
644.158980
 30
0.0
 10
-377.482784
 20
673.445252
 30
0.0
 10
-245.305496
 20
609.270820
 30
0.0
 10
-298.715976
 20
653.901492
 30
0.0
  0
SPLINE
  5
25c
100
AcDbEntity
  8
Capa_1
 62
7
100
AcDbSpline
 70
8
 71
3
 72
8
 73
4
 74
0
 40
0
 40
0
 40
0
 40
0
 40
1
 40
1
 40
1
 40
1
 10
-298.715976
 20
653.901492
 30
0.0
 10
-352.126456
 20
698.532172
 30
0.0
 10
-265.487944
 20
579.860516
 30
0.0
 10
-305.527232
 20
636.794092
 30
0.0
  0
SPLINE
  5
25d
100
AcDbEntity
  8
Capa_1
 62
7
100
AcDbSpline
 70
8
 71
3
 72
8
 73
4
 74
0
 40
0
 40
0
 40
0
 40
0
 40
1
 40
1
 40
1
 40
1
 10
-305.527232
 20
636.794092
 30
0.0
 10
-345.566528
 20
693.727660
 30
0.0
 10
-263.184848
 20
572.062324
 30
0.0
 10
-287.124344
 20
637.418860
 30
0.0
  0
SPLINE
  5
25e
100
AcDbEntity
  8
Capa_1
 62
7
100
AcDbSpline
 70
8
 71
3
 72
8
 73
4
 74
0
 40
0
 40
0
 40
0
 40
0
 40
1
 40
1
 40
1
 40
1
 10
-287.124344
 20
637.418860
 30
0.0
 10
-311.063840
 20
702.775396
 30
0.0
 10
-295.368512
 20
556.683476
 30
0.0
 10
-301.576768
 20
626.009044
 30
0.0
  0
SPLINE
  5
25f
100
AcDbEntity
  8
Capa_1
 62
7
100
AcDbSpline
 70
8
 71
3
 72
8
 73
4
 74
0
 40
0
 40
0
 40
0
 40
0
 40
1
 40
1
 40
1
 40
1
 10
-301.576768
 20
626.009044
 30
0.0
 10
-307.785032
 20
695.334604
 30
0.0
 10
-297.273072
 20
548.778500
 30
0.0
 10
-285.327016
 20
617.348668
 30
0.0
  0
SPLINE
  5
260
100
AcDbEntity
  8
Capa_1
 62
7
100
AcDbSpline
 70
8
 71
3
 72
8
 73
4
 74
0
 40
0
 40
0
 40
0
 40
0
 40
1
 40
1
 40
1
 40
1
 10
-285.327016
 20
617.348668
 30
0.0
 10
-273.380960
 20
685.918836
 30
0.0
 10
-332.834360
 20
551.551852
 30
0.0
 10
-303.548096
 20
614.693684
 30
0.0
  0
SPLINE
  5
261
100
AcDbEntity
  8
Capa_1
 62
7
100
AcDbSpline
 70
8
 71
3
 72
8
 73
4
 74
0
 40
0
 40
0
 40
0
 40
0
 40
1
 40
1
 40
1
 40
1
 10
-303.548096
 20
614.693684
 30
0.0
 10
-274.261824
 20
677.835516
 30
0.0
 10
-338.436248
 20
545.658228
 30
0.0
 10
-293.805576
 20
599.068708
 30
0.0
  0
LWPOLYLINE
  5
262
100
AcDbEntity
  8
Capa_1
 62
7
100
AcDbPolyline
 90
2
 70
1
 10
-182.093920
 20
694.821484
 30
0.0
 10
-182.093920
 20
694.821484
 30
0.0
  0
SPLINE
  5
263
100
AcDbEntity
  8
Capa_1
 62
7
100
AcDbSpline
 70
8
 71
3
 72
8
 73
4
 74
0
 40
0
 40
0
 40
0
 40
0
 40
1
 40
1
 40
1
 40
1
 10
-162.861576
 20
613.390692
 30
0.0
 10
-137.826744
 20
704.897308
 30
0.0
 10
-231.971472
 20
530.415772
 30
0.0
 10
-184.106024
 20
612.324884
 30
0.0
  0
SPLINE
  5
264
100
AcDbEntity
  8
Capa_1
 62
7
100
AcDbSpline
 70
8
 71
3
 72
8
 73
4
 74
0
 40
0
 40
0
 40
0
 40
0
 40
1
 40
1
 40
1
 40
1
 10
-184.106024
 20
612.324884
 30
0.0
 10
-136.240576
 20
694.234004
 30
0.0
 10
-242.040256
 20
526.563300
 30
0.0
 10
-174.606144
 20
593.292940
 30
0.0
  0
SPLINE
  5
265
100
AcDbEntity
  8
Capa_1
 62
7
100
AcDbSpline
 70
8
 71
3
 72
8
 73
4
 74
0
 40
0
 40
0
 40
0
 40
0
 40
1
 40
1
 40
1
 40
1
 10
-174.606144
 20
593.292940
 30
0.0
 10
-107.172040
 20
660.022588
 30
0.0
 10
-275.944528
 20
555.989500
 30
0.0
 10
-193.537280
 20
602.992156
 30
0.0
  0
SPLINE
  5
266
100
AcDbEntity
  8
Capa_1
 62
7
100
AcDbSpline
 70
8
 71
3
 72
8
 73
4
 74
0
 40
0
 40
0
 40
0
 40
0
 40
1
 40
1
 40
1
 40
1
 10
-193.537280
 20
602.992156
 30
0.0
 10
-111.130032
 20
649.994812
 30
0.0
 10
-286.590592
 20
557.687556
 30
0.0
 10
-194.826120
 20
581.760068
 30
0.0
  0
SPLINE
  5
267
100
AcDbEntity
  8
Capa_1
 62
7
100
AcDbSpline
 70
8
 71
3
 72
8
 73
4
 74
0
 40
0
 40
0
 40
0
 40
0
 40
1
 40
1
 40
1
 40
1
 10
-194.826120
 20
581.760068
 30
0.0
 10
-103.061648
 20
605.832580
 30
0.0
 10
-301.239456
 20
600.123532
 30
0.0
 10
-206.371360
 20
599.625404
 30
0.0
  0
SPLINE
  5
268
100
AcDbEntity
  8
Capa_1
 62
7
100
AcDbSpline
 70
8
 71
3
 72
8
 73
4
 74
0
 40
0
 40
0
 40
0
 40
0
 40
1
 40
1
 40
1
 40
1
 10
-206.371360
 20
599.625404
 30
0.0
 10
-111.503256
 20
599.127268
 30
0.0
 10
-309.610184
 20
606.917124
 30
0.0
 10
-218.103568
 20
581.882292
 30
0.0
  0
SPLINE
  5
269
100
AcDbEntity
  8
Capa_1
 62
7
100
AcDbSpline
 70
8
 71
3
 72
8
 73
4
 74
0
 40
0
 40
0
 40
0
 40
0
 40
1
 40
1
 40
1
 40
1
 10
-218.103568
 20
581.882292
 30
0.0
 10
-126.596944
 20
556.847468
 30
0.0
 10
-301.078488
 20
650.992188
 30
0.0
 10
-219.169368
 20
603.126748
 30
0.0
  0
SPLINE
  5
26a
100
AcDbEntity
  8
Capa_1
 62
7
100
AcDbSpline
 70
8
 71
3
 72
8
 73
4
 74
0
 40
0
 40
0
 40
0
 40
0
 40
1
 40
1
 40
1
 40
1
 10
-219.169368
 20
603.126748
 30
0.0
 10
-137.260248
 20
555.261300
 30
0.0
 10
-304.930952
 20
661.060980
 30
0.0
 10
-238.201312
 20
593.626868
 30
0.0
  0
SPLINE
  5
26b
100
AcDbEntity
  8
Capa_1
 62
7
100
AcDbSpline
 70
8
 71
3
 72
8
 73
4
 74
0
 40
0
 40
0
 40
0
 40
0
 40
1
 40
1
 40
1
 40
1
 10
-238.201312
 20
593.626868
 30
0.0
 10
-171.471672
 20
526.192756
 30
0.0
 10
-275.504752
 20
694.965252
 30
0.0
 10
-228.502104
 20
612.558004
 30
0.0
  0
SPLINE
  5
26c
100
AcDbEntity
  8
Capa_1
 62
7
100
AcDbSpline
 70
8
 71
3
 72
8
 73
4
 74
0
 40
0
 40
0
 40
0
 40
0
 40
1
 40
1
 40
1
 40
1
 10
-228.502104
 20
612.558004
 30
0.0
 10
-181.499448
 20
530.150756
 30
0.0
 10
-273.806696
 20
705.611316
 30
0.0
 10
-249.734184
 20
613.846844
 30
0.0
  0
SPLINE
  5
26d
100
AcDbEntity
  8
Capa_1
 62
7
100
AcDbSpline
 70
8
 71
3
 72
8
 73
4
 74
0
 40
0
 40
0
 40
0
 40
0
 40
1
 40
1
 40
1
 40
1
 10
-249.734184
 20
613.846844
 30
0.0
 10
-225.661672
 20
522.082372
 30
0.0
 10
-231.370720
 20
720.260172
 30
0.0
 10
-231.868856
 20
625.392076
 30
0.0
  0
SPLINE
  5
26e
100
AcDbEntity
  8
Capa_1
 62
7
100
AcDbSpline
 70
8
 71
3
 72
8
 73
4
 74
0
 40
0
 40
0
 40
0
 40
0
 40
1
 40
1
 40
1
 40
1
 10
-231.868856
 20
625.392076
 30
0.0
 10
-232.366984
 20
530.523980
 30
0.0
 10
-224.577128
 20
728.630908
 30
0.0
 10
-249.611960
 20
637.124284
 30
0.0
  0
SPLINE
  5
26f
100
AcDbEntity
  8
Capa_1
 62
7
100
AcDbSpline
 70
8
 71
3
 72
8
 73
4
 74
0
 40
0
 40
0
 40
0
 40
0
 40
1
 40
1
 40
1
 40
1
 10
-249.611960
 20
637.124284
 30
0.0
 10
-274.646792
 20
545.617668
 30
0.0
 10
-180.502064
 20
720.099204
 30
0.0
 10
-228.367512
 20
638.190092
 30
0.0
  0
SPLINE
  5
270
100
AcDbEntity
  8
Capa_1
 62
7
100
AcDbSpline
 70
8
 71
3
 72
8
 73
4
 74
0
 40
0
 40
0
 40
0
 40
0
 40
1
 40
1
 40
1
 40
1
 10
-228.367512
 20
638.190092
 30
0.0
 10
-276.232952
 20
556.280972
 30
0.0
 10
-170.433280
 20
723.951676
 30
0.0
 10
-237.867384
 20
657.222036
 30
0.0
  0
SPLINE
  5
271
100
AcDbEntity
  8
Capa_1
 62
7
100
AcDbSpline
 70
8
 71
3
 72
8
 73
4
 74
0
 40
0
 40
0
 40
0
 40
0
 40
1
 40
1
 40
1
 40
1
 10
-237.867384
 20
657.222036
 30
0.0
 10
-305.301496
 20
590.492388
 30
0.0
 10
-136.529008
 20
694.525476
 30
0.0
 10
-218.936256
 20
647.522820
 30
0.0
  0
SPLINE
  5
272
100
AcDbEntity
  8
Capa_1
 62
7
100
AcDbSpline
 70
8
 71
3
 72
8
 73
4
 74
0
 40
0
 40
0
 40
0
 40
0
 40
1
 40
1
 40
1
 40
1
 10
-218.936256
 20
647.522820
 30
0.0
 10
-301.343504
 20
600.520164
 30
0.0
 10
-125.882944
 20
692.827420
 30
0.0
 10
-217.647416
 20
668.754908
 30
0.0
  0
SPLINE
  5
273
100
AcDbEntity
  8
Capa_1
 62
7
100
AcDbSpline
 70
8
 71
3
 72
8
 73
4
 74
0
 40
0
 40
0
 40
0
 40
0
 40
1
 40
1
 40
1
 40
1
 10
-217.647416
 20
668.754908
 30
0.0
 10
-309.411888
 20
644.682396
 30
0.0
 10
-111.234080
 20
650.391444
 30
0.0
 10
-206.102176
 20
650.889572
 30
0.0
  0
SPLINE
  5
274
100
AcDbEntity
  8
Capa_1
 62
7
100
AcDbSpline
 70
8
 71
3
 72
8
 73
4
 74
0
 40
0
 40
0
 40
0
 40
0
 40
1
 40
1
 40
1
 40
1
 10
-206.102176
 20
650.889572
 30
0.0
 10
-300.970280
 20
651.387708
 30
0.0
 10
-102.863352
 20
643.597852
 30
0.0
 10
-194.369968
 20
668.632684
 30
0.0
  0
SPLINE
  5
275
100
AcDbEntity
  8
Capa_1
 62
7
100
AcDbSpline
 70
8
 71
3
 72
8
 73
4
 74
0
 40
0
 40
0
 40
0
 40
0
 40
1
 40
1
 40
1
 40
1
 10
-194.369968
 20
668.632684
 30
0.0
 10
-285.876592
 20
693.667508
 30
0.0
 10
-111.395048
 20
599.522788
 30
0.0
 10
-193.304168
 20
647.388236
 30
0.0
  0
SPLINE
  5
276
100
AcDbEntity
  8
Capa_1
 62
7
100
AcDbSpline
 70
8
 71
3
 72
8
 73
4
 74
0
 40
0
 40
0
 40
0
 40
0
 40
1
 40
1
 40
1
 40
1
 10
-193.304168
 20
647.388236
 30
0.0
 10
-275.213280
 20
695.253676
 30
0.0
 10
-107.542584
 20
589.454004
 30
0.0
 10
-174.272224
 20
656.888108
 30
0.0
  0
SPLINE
  5
277
100
AcDbEntity
  8
Capa_1
 62
7
100
AcDbSpline
 70
8
 71
3
 72
8
 73
4
 74
0
 40
0
 40
0
 40
0
 40
0
 40
1
 40
1
 40
1
 40
1
 10
-174.272224
 20
656.888108
 30
0.0
 10
-241.001864
 20
724.322220
 30
0.0
 10
-136.968784
 20
555.549724
 30
0.0
 10
-183.971432
 20
637.956972
 30
0.0
  0
SPLINE
  5
278
100
AcDbEntity
  8
Capa_1
 62
7
100
AcDbSpline
 70
8
 71
3
 72
8
 73
4
 74
0
 40
0
 40
0
 40
0
 40
0
 40
1
 40
1
 40
1
 40
1
 10
-183.971432
 20
637.956972
 30
0.0
 10
-230.974088
 20
720.364220
 30
0.0
 10
-138.666840
 20
544.903668
 30
0.0
 10
-162.739352
 20
636.668140
 30
0.0
  0
SPLINE
  5
279
100
AcDbEntity
  8
Capa_1
 62
7
100
AcDbSpline
 70
8
 71
3
 72
8
 73
4
 74
0
 40
0
 40
0
 40
0
 40
0
 40
1
 40
1
 40
1
 40
1
 10
-162.739352
 20
636.668140
 30
0.0
 10
-186.811864
 20
728.432612
 30
0.0
 10
-181.102816
 20
530.254804
 30
0.0
 10
-180.604680
 20
625.122900
 30
0.0
  0
SPLINE
  5
27a
100
AcDbEntity
  8
Capa_1
 62
7
100
AcDbSpline
 70
8
 71
3
 72
8
 73
4
 74
0
 40
0
 40
0
 40
0
 40
0
 40
1
 40
1
 40
1
 40
1
 10
-180.604680
 20
625.122900
 30
0.0
 10
-180.106552
 20
719.990996
 30
0.0
 10
-187.896408
 20
521.884068
 30
0.0
 10
-162.861576
 20
613.390692
 30
0.0
  0
LWPOLYLINE
  5
27b
100
AcDbEntity
  8
Capa_1
 62
7
100
AcDbPolyline
 90
2
 70
1
 10
-293.805576
 20
599.068708
 30
0.0
 10
-293.805576
 20
599.068708
 30
0.0
  0
SPLINE
  5
27c
100
AcDbEntity
  8
Capa_1
 62
7
100
AcDbSpline
 70
8
 71
3
 72
8
 73
4
 74
0
 40
0
 40
0
 40
0
 40
0
 40
1
 40
1
 40
1
 40
1
 10
-69.340025
 20
689.587007
 30
0.0
 10
-15.266072
 20
737.812571
 30
0.0
 10
-145.632949
 20
663.265673
 30
0.0
 10
-80.760544
 20
696.028976
 30
0.0
  0
SPLINE
  5
27d
100
AcDbEntity
  8
Capa_1
 62
7
100
AcDbSpline
 70
8
 71
3
 72
8
 73
4
 74
0
 40
0
 40
0
 40
0
 40
0
 40
1
 40
1
 40
1
 40
1
 10
-80.760544
 20
696.028976
 30
0.0
 10
-15.888140
 20
728.792274
 30
0.0
 10
-153.404395
 20
668.046899
 30
0.0
 10
-82.154484
 20
683.115162
 30
0.0
  0
SPLINE
  5
27e
100
AcDbEntity
  8
Capa_1
 62
7
100
AcDbSpline
 70
8
 71
3
 72
8
 73
4
 74
0
 40
0
 40
0
 40
0
 40
0
 40
1
 40
1
 40
1
 40
1
 10
-82.154484
 20
683.115162
 30
0.0
 10
-10.904572
 20
698.183430
 30
0.0
 10
-161.554708
 20
697.986018
 30
0.0
 10
-88.782852
 20
694.332378
 30
0.0
  0
SPLINE
  5
27f
100
AcDbEntity
  8
Capa_1
 62
7
100
AcDbSpline
 70
8
 71
3
 72
8
 73
4
 74
0
 40
0
 40
0
 40
0
 40
0
 40
1
 40
1
 40
1
 40
1
 10
-88.782852
 20
694.332378
 30
0.0
 10
-16.011000
 20
690.678739
 30
0.0
 10
-165.863858
 20
705.963439
 30
0.0
 10
-96.529346
 20
683.836878
 30
0.0
  0
SPLINE
  5
280
100
AcDbEntity
  8
Capa_1
 62
7
100
AcDbSpline
 70
8
 71
3
 72
8
 73
4
 74
0
 40
0
 40
0
 40
0
 40
0
 40
1
 40
1
 40
1
 40
1
 10
-96.529346
 20
683.836878
 30
0.0
 10
-27.194830
 20
661.710317
 30
0.0
 10
-157.761643
 20
735.915285
 30
0.0
 10
-96.589499
 20
696.823695
 30
0.0
  0
SPLINE
  5
281
100
AcDbEntity
  8
Capa_1
 62
7
100
AcDbSpline
 70
8
 71
3
 72
8
 73
4
 74
0
 40
0
 40
0
 40
0
 40
0
 40
1
 40
1
 40
1
 40
1
 10
-96.589499
 20
696.823695
 30
0.0
 10
-35.417359
 20
657.732107
 30
0.0
 10
-157.453865
 20
744.951360
 30
0.0
 10
-108.612879
 20
691.558770
 30
0.0
  0
SPLINE
  5
282
100
AcDbEntity
  8
Capa_1
 62
7
100
AcDbSpline
 70
8
 71
3
 72
8
 73
4
 74
0
 40
0
 40
0
 40
0
 40
0
 40
1
 40
1
 40
1
 40
1
 10
-108.612879
 20
691.558770
 30
0.0
 10
-59.771889
 20
638.166173
 30
0.0
 10
-135.270103
 20
766.890359
 30
0.0
 10
-102.088701
 20
702.835380
 30
0.0
  0
SPLINE
  5
283
100
AcDbEntity
  8
Capa_1
 62
7
100
AcDbSpline
 70
8
 71
3
 72
8
 73
4
 74
0
 40
0
 40
0
 40
0
 40
0
 40
1
 40
1
 40
1
 40
1
 10
-102.088701
 20
702.835380
 30
0.0
 10
-68.907299
 20
638.780403
 30
0.0
 10
-130.427867
 20
774.563879
 30
0.0
 10
-115.167309
 20
704.211755
 30
0.0
  0
SPLINE
  5
284
100
AcDbEntity
  8
Capa_1
 62
7
100
AcDbSpline
 70
8
 71
3
 72
8
 73
4
 74
0
 40
0
 40
0
 40
0
 40
0
 40
1
 40
1
 40
1
 40
1
 10
-115.167309
 20
704.211755
 30
0.0
 10
-99.906750
 20
633.859631
 30
0.0
 10
-100.106681
 20
782.611494
 30
0.0
 10
-103.806946
 20
710.756602
 30
0.0
  0
SPLINE
  5
285
100
AcDbEntity
  8
Capa_1
 62
7
100
AcDbSpline
 70
8
 71
3
 72
8
 73
4
 74
0
 40
0
 40
0
 40
0
 40
0
 40
1
 40
1
 40
1
 40
1
 10
-103.806946
 20
710.756602
 30
0.0
 10
-107.507211
 20
638.901715
 30
0.0
 10
-92.027461
 20
786.866345
 30
0.0
 10
-114.436382
 20
718.405487
 30
0.0
  0
SPLINE
  5
286
100
AcDbEntity
  8
Capa_1
 62
7
100
AcDbSpline
 70
8
 71
3
 72
8
 73
4
 74
0
 40
0
 40
0
 40
0
 40
0
 40
1
 40
1
 40
1
 40
1
 10
-114.436382
 20
718.405487
 30
0.0
 10
-136.845308
 20
649.944623
 30
0.0
 10
-61.693387
 20
778.866225
 30
0.0
 10
-101.283837
 20
718.464883
 30
0.0
  0
SPLINE
  5
287
100
AcDbEntity
  8
Capa_1
 62
7
100
AcDbSpline
 70
8
 71
3
 72
8
 73
4
 74
0
 40
0
 40
0
 40
0
 40
0
 40
1
 40
1
 40
1
 40
1
 10
-101.283837
 20
718.464883
 30
0.0
 10
-140.874286
 20
658.063544
 30
0.0
 10
-52.542001
 20
778.562323
 30
0.0
 10
-106.615954
 20
730.336760
 30
0.0
  0
SPLINE
  5
288
100
AcDbEntity
  8
Capa_1
 62
7
100
AcDbSpline
 70
8
 71
3
 72
8
 73
4
 74
0
 40
0
 40
0
 40
0
 40
0
 40
1
 40
1
 40
1
 40
1
 10
-106.615954
 20
730.336760
 30
0.0
 10
-160.689911
 20
682.111193
 30
0.0
 10
-30.323029
 20
756.658092
 30
0.0
 10
-95.195438
 20
723.894791
 30
0.0
  0
SPLINE
  5
289
100
AcDbEntity
  8
Capa_1
 62
7
100
AcDbSpline
 70
8
 71
3
 72
8
 73
4
 74
0
 40
0
 40
0
 40
0
 40
0
 40
1
 40
1
 40
1
 40
1
 10
-95.195438
 20
723.894791
 30
0.0
 10
-160.067839
 20
691.131492
 30
0.0
 10
-22.551588
 20
751.876868
 30
0.0
 10
-93.801495
 20
736.808602
 30
0.0
  0
SPLINE
  5
28a
100
AcDbEntity
  8
Capa_1
 62
7
100
AcDbSpline
 70
8
 71
3
 72
8
 73
4
 74
0
 40
0
 40
0
 40
0
 40
0
 40
1
 40
1
 40
1
 40
1
 10
-93.801495
 20
736.808602
 30
0.0
 10
-165.051411
 20
721.740334
 30
0.0
 10
-14.401271
 20
721.937748
 30
0.0
 10
-87.173127
 20
725.591387
 30
0.0
  0
SPLINE
  5
28b
100
AcDbEntity
  8
Capa_1
 62
7
100
AcDbSpline
 70
8
 71
3
 72
8
 73
4
 74
0
 40
0
 40
0
 40
0
 40
0
 40
1
 40
1
 40
1
 40
1
 10
-87.173127
 20
725.591387
 30
0.0
 10
-159.944978
 20
729.245025
 30
0.0
 10
-10.092125
 20
713.960328
 30
0.0
 10
-79.426632
 20
736.086887
 30
0.0
  0
SPLINE
  5
28c
100
AcDbEntity
  8
Capa_1
 62
7
100
AcDbSpline
 70
8
 71
3
 72
8
 73
4
 74
0
 40
0
 40
0
 40
0
 40
0
 40
1
 40
1
 40
1
 40
1
 10
-79.426632
 20
736.086887
 30
0.0
 10
-148.761148
 20
758.213448
 30
0.0
 10
-18.194335
 20
684.008480
 30
0.0
 10
-79.366479
 20
723.100069
 30
0.0
  0
SPLINE
  5
28d
100
AcDbEntity
  8
Capa_1
 62
7
100
AcDbSpline
 70
8
 71
3
 72
8
 73
4
 74
0
 40
0
 40
0
 40
0
 40
0
 40
1
 40
1
 40
1
 40
1
 10
-79.366479
 20
723.100069
 30
0.0
 10
-140.538619
 20
762.191656
 30
0.0
 10
-18.502118
 20
674.972406
 30
0.0
 10
-67.343100
 20
728.364998
 30
0.0
  0
SPLINE
  5
28e
100
AcDbEntity
  8
Capa_1
 62
7
100
AcDbSpline
 70
8
 71
3
 72
8
 73
4
 74
0
 40
0
 40
0
 40
0
 40
0
 40
1
 40
1
 40
1
 40
1
 10
-67.343100
 20
728.364998
 30
0.0
 10
-116.184090
 20
781.757593
 30
0.0
 10
-40.685875
 20
653.033405
 30
0.0
 10
-73.867277
 20
717.088387
 30
0.0
  0
SPLINE
  5
28f
100
AcDbEntity
  8
Capa_1
 62
7
100
AcDbSpline
 70
8
 71
3
 72
8
 73
4
 74
0
 40
0
 40
0
 40
0
 40
0
 40
1
 40
1
 40
1
 40
1
 10
-73.867277
 20
717.088387
 30
0.0
 10
-107.048684
 20
781.143362
 30
0.0
 10
-45.528111
 20
645.359888
 30
0.0
 10
-60.788670
 20
715.712008
 30
0.0
  0
SPLINE
  5
290
100
AcDbEntity
  8
Capa_1
 62
7
100
AcDbSpline
 70
8
 71
3
 72
8
 73
4
 74
0
 40
0
 40
0
 40
0
 40
0
 40
1
 40
1
 40
1
 40
1
 10
-60.788670
 20
715.712008
 30
0.0
 10
-76.049229
 20
786.064135
 30
0.0
 10
-75.849297
 20
637.312269
 30
0.0
 10
-72.149032
 20
709.167161
 30
0.0
  0
SPLINE
  5
291
100
AcDbEntity
  8
Capa_1
 62
7
100
AcDbSpline
 70
8
 71
3
 72
8
 73
4
 74
0
 40
0
 40
0
 40
0
 40
0
 40
1
 40
1
 40
1
 40
1
 10
-72.149032
 20
709.167161
 30
0.0
 10
-68.448768
 20
781.022048
 30
0.0
 10
-83.928522
 20
633.057421
 30
0.0
 10
-61.519596
 20
701.518281
 30
0.0
  0
SPLINE
  5
292
100
AcDbEntity
  8
Capa_1
 62
7
100
AcDbSpline
 70
8
 71
3
 72
8
 73
4
 74
0
 40
0
 40
0
 40
0
 40
0
 40
1
 40
1
 40
1
 40
1
 10
-61.519596
 20
701.518281
 30
0.0
 10
-39.110671
 20
769.979141
 30
0.0
 10
-114.262591
 20
641.057539
 30
0.0
 10
-74.672142
 20
701.458881
 30
0.0
  0
SPLINE
  5
293
100
AcDbEntity
  8
Capa_1
 62
7
100
AcDbSpline
 70
8
 71
3
 72
8
 73
4
 74
0
 40
0
 40
0
 40
0
 40
0
 40
1
 40
1
 40
1
 40
1
 10
-74.672142
 20
701.458881
 30
0.0
 10
-35.081693
 20
761.860220
 30
0.0
 10
-123.413978
 20
641.361444
 30
0.0
 10
-69.340025
 20
689.587007
 30
0.0
  0
LWPOLYLINE
  5
294
100
AcDbEntity
  8
Capa_1
 62
7
100
AcDbPolyline
 90
2
 70
1
 10
-162.861576
 20
613.390692
 30
0.0
 10
-162.861576
 20
613.390692
 30
0.0
  0
SPLINE
  5
295
100
AcDbEntity
  8
Capa_1
 62
7
100
AcDbSpline
 70
8
 71
3
 72
8
 73
4
 74
0
 40
0
 40
0
 40
0
 40
0
 40
1
 40
1
 40
1
 40
1
 10
-184.808936
 20
782.677624
 30
0.0
 10
-129.280464
 20
841.907994
 30
0.0
 10
-291.484768
 20
784.160864
 30
0.0
 10
-210.338016
 20
786.778501
 30
0.0
  0
SPLINE
  5
296
100
AcDbEntity
  8
Capa_1
 62
7
100
AcDbSpline
 70
8
 71
3
 72
8
 73
4
 74
0
 40
0
 40
0
 40
0
 40
0
 40
1
 40
1
 40
1
 40
1
 10
-210.338016
 20
786.778501
 30
0.0
 10
-129.191256
 20
789.396138
 30
0.0
 10
-294.780096
 20
836.569295
 30
0.0
 10
-235.549728
 20
781.040824
 30
0.0
  0
SPLINE
  5
297
100
AcDbEntity
  8
Capa_1
 62
7
100
AcDbSpline
 70
8
 71
3
 72
8
 73
4
 74
0
 40
0
 40
0
 40
0
 40
0
 40
1
 40
1
 40
1
 40
1
 10
-235.549728
 20
781.040824
 30
0.0
 10
-176.319352
 20
725.512356
 30
0.0
 10
-234.066488
 20
887.716657
 30
0.0
 10
-231.448848
 20
806.569905
 30
0.0
  0
SPLINE
  5
298
100
AcDbEntity
  8
Capa_1
 62
7
100
AcDbSpline
 70
8
 71
3
 72
8
 73
4
 74
0
 40
0
 40
0
 40
0
 40
0
 40
1
 40
1
 40
1
 40
1
 10
-231.448848
 20
806.569905
 30
0.0
 10
-228.831208
 20
725.423148
 30
0.0
 10
-181.658056
 20
891.011990
 30
0.0
 10
-237.186528
 20
831.781616
 30
0.0
  0
SPLINE
  5
299
100
AcDbEntity
  8
Capa_1
 62
7
100
AcDbSpline
 70
8
 71
3
 72
8
 73
4
 74
0
 40
0
 40
0
 40
0
 40
0
 40
1
 40
1
 40
1
 40
1
 10
-237.186528
 20
831.781616
 30
0.0
 10
-292.714992
 20
772.551245
 30
0.0
 10
-130.510688
 20
830.298376
 30
0.0
 10
-211.657440
 20
827.680739
 30
0.0
  0
SPLINE
  5
29a
100
AcDbEntity
  8
Capa_1
 62
7
100
AcDbSpline
 70
8
 71
3
 72
8
 73
4
 74
0
 40
0
 40
0
 40
0
 40
0
 40
1
 40
1
 40
1
 40
1
 10
-211.657440
 20
827.680739
 30
0.0
 10
-292.804200
 20
825.063101
 30
0.0
 10
-127.215360
 20
777.889945
 30
0.0
 10
-186.445736
 20
833.418416
 30
0.0
  0
SPLINE
  5
29b
100
AcDbEntity
  8
Capa_1
 62
7
100
AcDbSpline
 70
8
 71
3
 72
8
 73
4
 74
0
 40
0
 40
0
 40
0
 40
0
 40
1
 40
1
 40
1
 40
1
 10
-186.445736
 20
833.418416
 30
0.0
 10
-245.676104
 20
888.946883
 30
0.0
 10
-187.928976
 20
726.742580
 30
0.0
 10
-190.546608
 20
807.889334
 30
0.0
  0
SPLINE
  5
29c
100
AcDbEntity
  8
Capa_1
 62
7
100
AcDbSpline
 70
8
 71
3
 72
8
 73
4
 74
0
 40
0
 40
0
 40
0
 40
0
 40
1
 40
1
 40
1
 40
1
 10
-190.546608
 20
807.889334
 30
0.0
 10
-193.164248
 20
889.036092
 30
0.0
 10
-240.337408
 20
723.447252
 30
0.0
 10
-184.808936
 20
782.677624
 30
0.0
  0
LWPOLYLINE
  5
29d
100
AcDbEntity
  8
Capa_1
 62
7
100
AcDbPolyline
 90
2
 70
1
 10
-69.340025
 20
689.587007
 30
0.0
 10
-69.340025
 20
689.587007
 30
0.0
  0
LWPOLYLINE
  5
29e
100
AcDbEntity
  8
Capa_1
 62
7
100
AcDbPolyline
 90
2
 70
1
 10
-184.808936
 20
782.677624
 30
0.0
 10
-184.808936
 20
782.677624
 30
0.0
  0
ENDSEC
  0
SECTION
  2
OBJECTS
  0
DICTIONARY
  5
C
330
0
100
AcDbDictionary
  3
ACAD_GROUP
350
D
  3
ACAD_MLINESTYLE
350
17
  0
DICTIONARY
  5
D
330
C
100
AcDbDictionary
  0
DICTIONARY
  5
1A
330
C
100
AcDbDictionary
  0
DICTIONARY
  5
17
330
C
100
AcDbDictionary
  3
STANDARD
350
18
  0
DICTIONARY
  5
19
330
C
100
AcDbDictionary
  0
ENDSEC
  0
EOF
