  0
SECTION
  2
HEADER
  9
$ACADVER
  1
AC1014
  9
$ACADMAINTVER
 70
     9
  9
$DWGCODEPAGE
  3
UNDEFINED
  9
$INSBASE
 10
0.0
 20
0.0
 30
0.0
  9
$EXTMIN
 10
1.000000000000000E+20
 20
1.000000000000000E+20
 30
1.000000000000000E+20
  9
$EXTMAX
 10
-1.000000000000000E+20
 20
-1.000000000000000E+20
 30
-1.000000000000000E+20
  9
$LIMMIN
 10
0.0
 20
0.0
  9
$LIMMAX
 10
12.0
 20
9.0
  9
$ORTHOMODE
 70
     0
  9
$REGENMODE
 70
     1
  9
$FILLMODE
 70
     1
  9
$QTEXTMODE
 70
     0
  9
$MIRRTEXT
 70
     1
  9
$DRAGMODE
 70
     2
  9
$LTSCALE
 40
1.0
  9
$OSMODE
 70
    37
  9
$ATTMODE
 70
     1
  9
$TEXTSIZE
 40
0.2
  9
$TRACEWID
 40
0.05
  9
$TEXTSTYLE
  7
STANDARD
  9
$CLAYER
  8
0
  9
$CELTYPE
  6
BYLAYER
  9
$CECOLOR
 62
   256
  9
$CELTSCALE
 40
1.0
  9
$DELOBJ
 70
     1
  9
$DISPSILH
 70
     0
  9
$DIMSCALE
 40
1.0
  9
$DIMASZ
 40
0.18
  9
$DIMEXO
 40
0.0625
  9
$DIMDLI
 40
0.38
  9
$DIMRND
 40
0.0
  9
$DIMDLE
 40
0.0
  9
$DIMEXE
 40
0.18
  9
$DIMTP
 40
0.0
  9
$DIMTM
 40
0.0
  9
$DIMTXT
 40
0.18
  9
$DIMCEN
 40
0.09
  9
$DIMTSZ
 40
0.0
  9
$DIMTOL
 70
     0
  9
$DIMLIM
 70
     0
  9
$DIMTIH
 70
     1
  9
$DIMTOH
 70
     1
  9
$DIMSE1
 70
     0
  9
$DIMSE2
 70
     0
  9
$DIMTAD
 70
     0
  9
$DIMZIN
 70
     0
  9
$DIMBLK
  1

  9
$DIMASO
 70
     1
  9
$DIMSHO
 70
     1
  9
$DIMPOST
  1

  9
$DIMAPOST
  1

  9
$DIMALT
 70
     0
  9
$DIMALTD
 70
     2
  9
$DIMALTF
 40
25.4
  9
$DIMLFAC
 40
1.0
  9
$DIMTOFL
 70
     0
  9
$DIMTVP
 40
0.0
  9
$DIMTIX
 70
     0
  9
$DIMSOXD
 70
     0
  9
$DIMSAH
 70
     0
  9
$DIMBLK1
  1

  9
$DIMBLK2
  1

  9
$DIMSTYLE
  2
STANDARD
  9
$DIMCLRD
 70
     0
  9
$DIMCLRE
 70
     0
  9
$DIMCLRT
 70
     0
  9
$DIMTFAC
 40
1.0
  9
$DIMGAP
 40
0.09
  9
$DIMJUST
 70
     0
  9
$DIMSD1
 70
     0
  9
$DIMSD2
 70
     0
  9
$DIMTOLJ
 70
     1
  9
$DIMTZIN
 70
     0
  9
$DIMALTZ
 70
     0
  9
$DIMALTTZ
 70
     0
  9
$DIMFIT
 70
     3
  9
$DIMUPT
 70
     0
  9
$DIMUNIT
 70
     2
  9
$DIMDEC
 70
     4
  9
$DIMTDEC
 70
     4
  9
$DIMALTU
 70
     2
  9
$DIMALTTD
 70
     2
  9
$DIMTXSTY
  7
STANDARD
  9
$DIMAUNIT
 70
     0
  9
$LUNITS
 70
     2
  9
$LUPREC
 70
     4
  9
$SKETCHINC
 40
0.1
  9
$FILLETRAD
 40
0.5
  9
$AUNITS
 70
     0
  9
$AUPREC
 70
     0
  9
$MENU
  1
.
  9
$ELEVATION
 40
0.0
  9
$PELEVATION
 40
0.0
  9
$THICKNESS
 40
0.0
  9
$LIMCHECK
 70
     0
  9
$CHAMFERA
 40
0.5
  9
$CHAMFERB
 40
0.5
  9
$CHAMFERC
 40
1.0
  9
$CHAMFERD
 40
0.0
  9
$SKPOLY
 70
     0
  9
$TDCREATE
 40
2457928.764305556
  9
$TDUPDATE
 40
2457928.764305556
  9
$TDINDWG
 40
0.0000000116
  9
$TDUSRTIMER
 40
0.0000000116
  9
$USRTIMER
 70
     1
  9
$ANGBASE
 50
0.0
  9
$ANGDIR
 70
     0
  9
$PDMODE
 70
     0
  9
$PDSIZE
 40
0.0
  9
$PLINEWID
 40
0.0
  9
$COORDS
 70
     1
  9
$SPLFRAME
 70
     0
  9
$SPLINETYPE
 70
     6
  9
$SPLINESEGS
 70
     8
  9
$ATTDIA
 70
     0
  9
$ATTREQ
 70
     1
  9
$HANDLING
 70
     1
  9
$HANDSEED
  5
21A
  9
$SURFTAB1
 70
     6
  9
$SURFTAB2
 70
     6
  9
$SURFTYPE
 70
     6
  9
$SURFU
 70
     6
  9
$SURFV
 70
     6
  9
$UCSNAME
  2

  9
$UCSORG
 10
0.0
 20
0.0
 30
0.0
  9
$UCSXDIR
 10
1.0
 20
0.0
 30
0.0
  9
$UCSYDIR
 10
0.0
 20
1.0
 30
0.0
  9
$PUCSNAME
  2

  9
$PUCSORG
 10
0.0
 20
0.0
 30
0.0
  9
$PUCSXDIR
 10
1.0
 20
0.0
 30
0.0
  9
$PUCSYDIR
 10
0.0
 20
1.0
 30
0.0
  9
$USERI1
 70
     0
  9
$USERI2
 70
     0
  9
$USERI3
 70
     0
  9
$USERI4
 70
     0
  9
$USERI5
 70
     0
  9
$USERR1
 40
0.0
  9
$USERR2
 40
0.0
  9
$USERR3
 40
0.0
  9
$USERR4
 40
0.0
  9
$USERR5
 40
0.0
  9
$WORLDVIEW
 70
     1
  9
$SHADEDGE
 70
     3
  9
$SHADEDIF
 70
    70
  9
$TILEMODE
 70
     1
  9
$MAXACTVP
 70
    64
  9
$PINSBASE
 10
0.0
 20
0.0
 30
0.0
  9
$PLIMCHECK
 70
     0
  9
$PEXTMIN
 10
1.000000000000000E+20
 20
1.000000000000000E+20
 30
1.000000000000000E+20
  9
$PEXTMAX
 10
-1.000000000000000E+20
 20
-1.000000000000000E+20
 30
-1.000000000000000E+20
  9
$PLIMMIN
 10
0.0
 20
0.0
  9
$PLIMMAX
 10
12.0
 20
9.0
  9
$UNITMODE
 70
     0
  9
$VISRETAIN
 70
     1
  9
$PLINEGEN
 70
     0
  9
$PSLTSCALE
 70
     1
  9
$TREEDEPTH
 70
  3020
  9
$PICKSTYLE
 70
     1
  9
$CMLSTYLE
  2
STANDARD
  9
$CMLJUST
 70
     0
  9
$CMLSCALE
 40
1.0
  9
$PROXYGRAPHICS
 70
     1
  9
$MEASUREMENT
 70
     0
  0
ENDSEC
  0
SECTION
  2
CLASSES
  0
CLASS
  1
ACDBDICTIONARYWDFLT
  2
AcDbDictionaryWithDefault
  3
ObjectDBX Classes
 90
        0
280
     0
281
     0
  0
CLASS
  1
VISUALSTYLE
  2
AcDbVisualStyle
  3
ObjectDBX Classes
 90
     4095
280
     0
281
     0
  0
CLASS
  1
MATERIAL
  2
AcDbMaterial
  3
ObjectDBX Classes
 90
     1153
280
     0
281
     0
  0
CLASS
  1
SUN
  2
AcDbSun
  3
SCENEOE
 90
     1024
280
     0
281
     0
  0
CLASS
  1
DICTIONARYVAR
  2
AcDbDictionaryVar
  3
ObjectDBX Classes
 90
        0
280
     0
281
     0
  0
CLASS
  1
XRECORD
  2
AcDbXrecord
  3
AutoCAD 2000
 90
        0
280
     0
281
     0
  0
CLASS
  1
LWPOLYLINE
  2
AcDbPolyline
  3
AutoCAD 2000
 90
        0
280
     0
281
     1
  0
CLASS
  1
HATCH
  2
AcDbHatch
  3
AutoCAD 2000
 90
        0
280
     0
281
     1
  0
CLASS
  1
ACDBPLACEHOLDER
  2
AcDbPlaceHolder
  3
ObjectDBX Classes
 90
        0
280
     0
281
     0
  0
CLASS
  1
LAYOUT
  2
AcDbLayout
  3
ObjectDBX Classes
 90
        0
280
     0
281
     0
  0
ENDSEC
  0
SECTION
  2
TABLES
  0
TABLE
  2
VPORT
  5
8
330
0
100
AcDbSymbolTable
 70
     1
  0
VPORT
  5
29
330
8
100
AcDbSymbolTableRecord
100
AcDbViewportTableRecord
  2
*ACTIVE
 70
     0
 10
0.0
 20
0.0
 11
1.0
 21
1.0
 12
0.0
 22
0.0
 13
0.0
 23
0.0
 14
0.5
 24
0.5
 15
0.5
 25
0.5
 16
0.0
 26
0.0
 36
1.0
 17
418.8452789762964
 27
272.7471121211719
 37
0.0
 40
314.9011114823505
 41
2.072829218013359
 42
50.0
 43
0.0
 44
0.0
 50
0.0
 51
0.0
 71
     0
 72
   100
 73
     1
 74
     3
 75
     0
 76
     0
 77
     0
 78
     0
  0
ENDTAB
  0
TABLE
  2
LTYPE
  5
5
330
0
100
AcDbSymbolTable
 70
     1
  0
LTYPE
  5
14
330
5
100
AcDbSymbolTableRecord
100
AcDbLinetypeTableRecord
  2
BYBLOCK
 70
     0
  3

 72
    65
 73
     0
 40
0.0
  0
LTYPE
  5
15
330
5
100
AcDbSymbolTableRecord
100
AcDbLinetypeTableRecord
  2
BYLAYER
 70
     0
  3

 72
    65
 73
     0
 40
0.0
  0
LTYPE
  5
16
330
5
100
AcDbSymbolTableRecord
100
AcDbLinetypeTableRecord
  2
CONTINUOUS
 70
     0
  3
Solid line
 72
    65
 73
     0
 40
0.0
  0
ENDTAB
  0
TABLE
  2
LAYER
  5
2
330
0
100
AcDbSymbolTable
 70
     2
  0
LAYER
  5
10
330
2
100
AcDbSymbolTableRecord
100
AcDbLayerTableRecord
  2
0
 70
     0
 62
     7
  6
CONTINUOUS
  0
LAYER
  5
40
330
2
100
AcDbSymbolTableRecord
100
AcDbLayerTableRecord
  2
_U_00D5_U_00BA_U_2264_U_20
 70
     0
 62
     7
  6
CONTINUOUS
  0
ENDTAB
  0
TABLE
  2
STYLE
  5
3
330
0
100
AcDbSymbolTable
 70
     1
  0
STYLE
  5
11
330
3
100
AcDbSymbolTableRecord
100
AcDbTextStyleTableRecord
  2
STANDARD
 70
     0
 40
0.0
 41
1.0
 50
0.0
 71
     0
 42
0.2
  3
txt
  4

  0
ENDTAB
  0
TABLE
  2
VIEW
  5
6
330
0
100
AcDbSymbolTable
 70
     0
  0
ENDTAB
  0
TABLE
  2
UCS
  5
7
330
0
100
AcDbSymbolTable
 70
     0
  0
ENDTAB
  0
TABLE
  2
APPID
  5
9
330
0
100
AcDbSymbolTable
 70
     1
  0
APPID
  5
12
330
9
100
AcDbSymbolTableRecord
100
AcDbRegAppTableRecord
  2
ACAD
 70
     0
  0
ENDTAB
  0
TABLE
  2
DIMSTYLE
  5
A
330
0
100
AcDbSymbolTable
 70
     1
  0
DIMSTYLE
105
27
330
A
100
AcDbSymbolTableRecord
100
AcDbDimStyleTableRecord
  2
STANDARD
 70
     0
  3

  4

  5

  6

  7

 40
1.0
 41
0.18
 42
0.0625
 43
0.38
 44
0.18
 45
0.0
 46
0.0
 47
0.0
 48
0.0
140
0.18
141
0.09
142
0.0
143
25.4
144
1.0
145
0.0
146
1.0
147
0.09
 71
     0
 72
     0
 73
     1
 74
     1
 75
     0
 76
     0
 77
     0
 78
     0
170
     0
171
     2
172
     0
173
     0
174
     0
175
     0
176
     0
177
     0
178
     0
270
     2
271
     4
272
     4
273
     2
274
     2
340
11
275
     0
280
     0
281
     0
282
     0
283
     1
284
     0
285
     0
286
     0
287
     3
288
     0
  0
ENDTAB
  0
TABLE
  2
BLOCK_RECORD
  5
1
330
0
100
AcDbSymbolTable
 70
     1
  0
BLOCK_RECORD
  5
1F
330
1
100
AcDbSymbolTableRecord
100
AcDbBlockTableRecord
  2
*MODEL_SPACE
  0
BLOCK_RECORD
  5
1B
330
1
100
AcDbSymbolTableRecord
100
AcDbBlockTableRecord
  2
*PAPER_SPACE
  0
ENDTAB
  0
ENDSEC
  0
SECTION
  2
BLOCKS
  0
BLOCK
  5
20
330
1F
100
AcDbEntity
  8
0
100
AcDbBlockBegin
  2
*MODEL_SPACE
 70
     0
 10
0.0
 20
0.0
 30
0.0
  3
*MODEL_SPACE
  1

  0
ENDBLK
  5
21
330
1F
100
AcDbEntity
  8
0
100
AcDbBlockEnd
  0
BLOCK
  5
1C
330
1B
100
AcDbEntity
 67
     1
  8
0
100
AcDbBlockBegin
  2
*PAPER_SPACE
 70
     0
 10
0.0
 20
0.0
 30
0.0
  3
*PAPER_SPACE
  1

  0
ENDBLK
  5
1D
330
1B
100
AcDbEntity
 67
     1
  8
0
100
AcDbBlockEnd
  0
ENDSEC
  0
SECTION
  2
ENTITIES
  0
POLYLINE
  5
41
330
1F
100
AcDbEntity
  8
_U_00D5_U_00BA_U_2264_U_20
 62
    23
100
AcDb2dPolyline
 66
     1
 10
0.0
 20
0.0
 30
0.0
  0
VERTEX
  5
42
330
41
100
AcDbEntity
  8
_U_00D5_U_00BA_U_2264_U_20
 62
    23
100
AcDbVertex
100
AcDb2dVertex
 10
301.9621772963031
 20
318.0575924412304
 30
0.0
  0
VERTEX
  5
43
330
41
100
AcDbEntity
  8
_U_00D5_U_00BA_U_2264_U_20
 62
    23
100
AcDbVertex
100
AcDb2dVertex
 10
295.9622035604863
 20
318.0575924412304
 30
0.0
  0
VERTEX
  5
44
330
41
100
AcDbEntity
  8
_U_00D5_U_00BA_U_2264_U_20
 62
    23
100
AcDbVertex
100
AcDb2dVertex
 10
295.9622035604863
 20
321.0575793091388
 30
0.0
  0
VERTEX
  5
45
330
41
100
AcDbEntity
  8
_U_00D5_U_00BA_U_2264_U_20
 62
    23
100
AcDbVertex
100
AcDb2dVertex
 10
301.9621772963031
 20
321.0575793091388
 30
0.0
  0
VERTEX
  5
46
330
41
100
AcDbEntity
  8
_U_00D5_U_00BA_U_2264_U_20
 62
    23
100
AcDbVertex
100
AcDb2dVertex
 10
301.9621772963031
 20
318.0575924412304
 30
0.0
  0
SEQEND
  5
47
330
41
100
AcDbEntity
  8
_U_00D5_U_00BA_U_2264_U_20
 62
    23
  0
POLYLINE
  5
48
330
1F
100
AcDbEntity
  8
_U_00D5_U_00BA_U_2264_U_20
 62
    23
100
AcDb2dPolyline
 66
     1
 10
0.0
 20
0.0
 30
0.0
  0
VERTEX
  5
49
330
48
100
AcDbEntity
  8
_U_00D5_U_00BA_U_2264_U_20
 62
    23
100
AcDbVertex
100
AcDb2dVertex
 10
346.919294204907
 20
292.1764394904025
 30
0.0
  0
VERTEX
  5
4A
330
48
100
AcDbEntity
  8
_U_00D5_U_00BA_U_2264_U_20
 62
    23
100
AcDbVertex
100
AcDb2dVertex
 10
340.9192851913133
 20
292.1764394904025
 30
0.0
  0
VERTEX
  5
4B
330
48
100
AcDbEntity
  8
_U_00D5_U_00BA_U_2264_U_20
 62
    23
100
AcDbVertex
100
AcDb2dVertex
 10
340.9192851913133
 20
295.1764263583109
 30
0.0
  0
VERTEX
  5
4C
330
48
100
AcDbEntity
  8
_U_00D5_U_00BA_U_2264_U_20
 62
    23
100
AcDbVertex
100
AcDb2dVertex
 10
346.919294204907
 20
295.1764263583109
 30
0.0
  0
VERTEX
  5
4D
330
48
100
AcDbEntity
  8
_U_00D5_U_00BA_U_2264_U_20
 62
    23
100
AcDbVertex
100
AcDb2dVertex
 10
346.919294204907
 20
292.1764394904025
 30
0.0
  0
SEQEND
  5
4E
330
48
100
AcDbEntity
  8
_U_00D5_U_00BA_U_2264_U_20
 62
    23
  0
POLYLINE
  5
4F
330
1F
100
AcDbEntity
  8
_U_00D5_U_00BA_U_2264_U_20
 62
    23
100
AcDb2dPolyline
 66
     1
 10
0.0
 20
0.0
 30
0.0
  0
VERTEX
  5
50
330
4F
100
AcDbEntity
  8
_U_00D5_U_00BA_U_2264_U_20
 62
    23
100
AcDbVertex
100
AcDb2dVertex
 10
316.2258997101829
 20
238.7243280763017
 30
0.0
  0
VERTEX
  5
51
330
4F
100
AcDbEntity
  8
_U_00D5_U_00BA_U_2264_U_20
 62
    23
100
AcDbVertex
100
AcDb2dVertex
 10
310.2258906965893
 20
238.7243280763017
 30
0.0
  0
VERTEX
  5
52
330
4F
100
AcDbEntity
  8
_U_00D5_U_00BA_U_2264_U_20
 62
    23
100
AcDbVertex
100
AcDb2dVertex
 10
310.2258906965893
 20
241.7243149442101
 30
0.0
  0
VERTEX
  5
53
330
4F
100
AcDbEntity
  8
_U_00D5_U_00BA_U_2264_U_20
 62
    23
100
AcDbVertex
100
AcDb2dVertex
 10
316.2258997101829
 20
241.7243149442101
 30
0.0
  0
VERTEX
  5
54
330
4F
100
AcDbEntity
  8
_U_00D5_U_00BA_U_2264_U_20
 62
    23
100
AcDbVertex
100
AcDb2dVertex
 10
316.2258997101829
 20
238.7243280763017
 30
0.0
  0
SEQEND
  5
55
330
4F
100
AcDbEntity
  8
_U_00D5_U_00BA_U_2264_U_20
 62
    23
  0
POLYLINE
  5
56
330
1F
100
AcDbEntity
  8
_U_00D5_U_00BA_U_2264_U_20
 62
    23
100
AcDb2dPolyline
 66
     1
 10
0.0
 20
0.0
 30
0.0
  0
VERTEX
  5
57
330
56
100
AcDbEntity
  8
_U_00D5_U_00BA_U_2264_U_20
 62
    23
100
AcDbVertex
100
AcDb2dVertex
 10
313.2259128422746
 20
201.5900581903425
 30
0.0
  0
VERTEX
  5
58
330
56
100
AcDbEntity
  8
_U_00D5_U_00BA_U_2264_U_20
 62
    23
100
AcDbVertex
100
AcDb2dVertex
 10
307.2259038286809
 20
201.5900581903425
 30
0.0
  0
VERTEX
  5
59
330
56
100
AcDbEntity
  8
_U_00D5_U_00BA_U_2264_U_20
 62
    23
100
AcDbVertex
100
AcDb2dVertex
 10
307.2259038286809
 20
204.5900803360278
 30
0.0
  0
VERTEX
  5
5A
330
56
100
AcDbEntity
  8
_U_00D5_U_00BA_U_2264_U_20
 62
    23
100
AcDbVertex
100
AcDb2dVertex
 10
313.2259128422746
 20
204.5900803360278
 30
0.0
  0
VERTEX
  5
5B
330
56
100
AcDbEntity
  8
_U_00D5_U_00BA_U_2264_U_20
 62
    23
100
AcDbVertex
100
AcDb2dVertex
 10
313.2259128422746
 20
201.5900581903425
 30
0.0
  0
SEQEND
  5
5C
330
56
100
AcDbEntity
  8
_U_00D5_U_00BA_U_2264_U_20
 62
    23
  0
POLYLINE
  5
5D
330
1F
100
AcDbEntity
  8
_U_00D5_U_00BA_U_2264_U_20
 62
    23
100
AcDb2dPolyline
 66
     1
 10
0.0
 20
0.0
 30
0.0
  0
VERTEX
  5
5E
330
5D
100
AcDbEntity
  8
_U_00D5_U_00BA_U_2264_U_20
 62
    23
100
AcDbVertex
100
AcDb2dVertex
 10
273.598738853248
 20
219.0253233010874
 30
0.0
  0
VERTEX
  5
5F
330
5D
100
AcDbEntity
  8
_U_00D5_U_00BA_U_2264_U_20
 62
    23
100
AcDbVertex
100
AcDb2dVertex
 10
267.5987298396543
 20
219.0253233010874
 30
0.0
  0
VERTEX
  5
60
330
5D
100
AcDbEntity
  8
_U_00D5_U_00BA_U_2264_U_20
 62
    23
100
AcDbVertex
100
AcDb2dVertex
 10
267.5987298396543
 20
222.0253101689958
 30
0.0
  0
VERTEX
  5
61
330
5D
100
AcDbEntity
  8
_U_00D5_U_00BA_U_2264_U_20
 62
    23
100
AcDbVertex
100
AcDb2dVertex
 10
273.598738853248
 20
222.0253101689958
 30
0.0
  0
VERTEX
  5
62
330
5D
100
AcDbEntity
  8
_U_00D5_U_00BA_U_2264_U_20
 62
    23
100
AcDbVertex
100
AcDb2dVertex
 10
273.598738853248
 20
219.0253233010874
 30
0.0
  0
SEQEND
  5
63
330
5D
100
AcDbEntity
  8
_U_00D5_U_00BA_U_2264_U_20
 62
    23
  0
POLYLINE
  5
64
330
1F
100
AcDbEntity
  8
_U_00D5_U_00BA_U_2264_U_20
 62
    23
100
AcDb2dPolyline
 66
     1
 10
0.0
 20
0.0
 30
0.0
  0
VERTEX
  5
65
330
64
100
AcDbEntity
  8
_U_00D5_U_00BA_U_2264_U_20
 62
    23
100
AcDbVertex
100
AcDb2dVertex
 10
391.1429254577697
 20
319.4575910166245
 30
0.0
  0
VERTEX
  5
66
330
64
100
AcDbEntity
  8
_U_00D5_U_00BA_U_2264_U_20
 62
    23
100
AcDbVertex
100
AcDb2dVertex
 10
385.142951570381
 20
319.4575910166245
 30
0.0
  0
VERTEX
  5
67
330
64
100
AcDbEntity
  8
_U_00D5_U_00BA_U_2264_U_20
 62
    23
100
AcDbVertex
100
AcDb2dVertex
 10
385.142951570381
 20
322.457577884533
 30
0.0
  0
VERTEX
  5
68
330
64
100
AcDbEntity
  8
_U_00D5_U_00BA_U_2264_U_20
 62
    23
100
AcDbVertex
100
AcDb2dVertex
 10
391.1429254577697
 20
322.457577884533
 30
0.0
  0
VERTEX
  5
69
330
64
100
AcDbEntity
  8
_U_00D5_U_00BA_U_2264_U_20
 62
    23
100
AcDbVertex
100
AcDb2dVertex
 10
391.1429254577697
 20
319.4575910166245
 30
0.0
  0
SEQEND
  5
6A
330
64
100
AcDbEntity
  8
_U_00D5_U_00BA_U_2264_U_20
 62
    23
  0
POLYLINE
  5
6B
330
1F
100
AcDbEntity
  8
_U_00D5_U_00BA_U_2264_U_20
 62
    23
100
AcDb2dPolyline
 66
     1
 10
0.0
 20
0.0
 30
0.0
  0
VERTEX
  5
6C
330
6B
100
AcDbEntity
  8
_U_00D5_U_00BA_U_2264_U_20
 62
    23
100
AcDbVertex
100
AcDb2dVertex
 10
335.5672583834104
 20
232.197304353931
 30
0.0
  0
VERTEX
  5
6D
330
6B
100
AcDbEntity
  8
_U_00D5_U_00BA_U_2264_U_20
 62
    23
100
AcDbVertex
100
AcDb2dVertex
 10
329.5672493698168
 20
232.197304353931
 30
0.0
  0
VERTEX
  5
6E
330
6B
100
AcDbEntity
  8
_U_00D5_U_00BA_U_2264_U_20
 62
    23
100
AcDbVertex
100
AcDb2dVertex
 10
329.5672493698168
 20
235.1973264996163
 30
0.0
  0
VERTEX
  5
6F
330
6B
100
AcDbEntity
  8
_U_00D5_U_00BA_U_2264_U_20
 62
    23
100
AcDbVertex
100
AcDb2dVertex
 10
335.5672583834104
 20
235.1973264996163
 30
0.0
  0
VERTEX
  5
70
330
6B
100
AcDbEntity
  8
_U_00D5_U_00BA_U_2264_U_20
 62
    23
100
AcDbVertex
100
AcDb2dVertex
 10
335.5672583834104
 20
232.197304353931
 30
0.0
  0
SEQEND
  5
71
330
6B
100
AcDbEntity
  8
_U_00D5_U_00BA_U_2264_U_20
 62
    23
  0
POLYLINE
  5
72
330
1F
100
AcDbEntity
  8
_U_00D5_U_00BA_U_2264_U_20
 62
    23
100
AcDb2dPolyline
 66
     1
 10
0.0
 20
0.0
 30
0.0
  0
VERTEX
  5
73
330
72
100
AcDbEntity
  8
_U_00D5_U_00BA_U_2264_U_20
 62
    23
100
AcDbVertex
100
AcDb2dVertex
 10
341.0933457424282
 20
193.5282747849046
 30
0.0
  0
VERTEX
  5
74
330
72
100
AcDbEntity
  8
_U_00D5_U_00BA_U_2264_U_20
 62
    23
100
AcDbVertex
100
AcDb2dVertex
 10
335.0933367288345
 20
193.5282747849046
 30
0.0
  0
VERTEX
  5
75
330
72
100
AcDbEntity
  8
_U_00D5_U_00BA_U_2264_U_20
 62
    23
100
AcDbVertex
100
AcDb2dVertex
 10
335.0933367288345
 20
196.528261652813
 30
0.0
  0
VERTEX
  5
76
330
72
100
AcDbEntity
  8
_U_00D5_U_00BA_U_2264_U_20
 62
    23
100
AcDbVertex
100
AcDb2dVertex
 10
341.0933457424282
 20
196.528261652813
 30
0.0
  0
VERTEX
  5
77
330
72
100
AcDbEntity
  8
_U_00D5_U_00BA_U_2264_U_20
 62
    23
100
AcDbVertex
100
AcDb2dVertex
 10
341.0933457424282
 20
193.5282747849046
 30
0.0
  0
SEQEND
  5
78
330
72
100
AcDbEntity
  8
_U_00D5_U_00BA_U_2264_U_20
 62
    23
  0
POLYLINE
  5
79
330
1F
100
AcDbEntity
  8
_U_00D5_U_00BA_U_2264_U_20
 62
    23
100
AcDb2dPolyline
 66
     1
 10
0.0
 20
0.0
 30
0.0
  0
VERTEX
  5
7A
330
79
100
AcDbEntity
  8
_U_00D5_U_00BA_U_2264_U_20
 62
    23
100
AcDbVertex
100
AcDb2dVertex
 10
363.1046768536684
 20
226.4868906107269
 30
0.0
  0
VERTEX
  5
7B
330
79
100
AcDbEntity
  8
_U_00D5_U_00BA_U_2264_U_20
 62
    23
100
AcDbVertex
100
AcDb2dVertex
 10
357.1047029662794
 20
226.4868906107269
 30
0.0
  0
VERTEX
  5
7C
330
79
100
AcDbEntity
  8
_U_00D5_U_00BA_U_2264_U_20
 62
    23
100
AcDbVertex
100
AcDb2dVertex
 10
357.1047029662794
 20
229.4869127564122
 30
0.0
  0
VERTEX
  5
7D
330
79
100
AcDbEntity
  8
_U_00D5_U_00BA_U_2264_U_20
 62
    23
100
AcDbVertex
100
AcDb2dVertex
 10
363.1046768536684
 20
229.4869127564122
 30
0.0
  0
VERTEX
  5
7E
330
79
100
AcDbEntity
  8
_U_00D5_U_00BA_U_2264_U_20
 62
    23
100
AcDbVertex
100
AcDb2dVertex
 10
363.1046768536684
 20
226.4868906107269
 30
0.0
  0
SEQEND
  5
7F
330
79
100
AcDbEntity
  8
_U_00D5_U_00BA_U_2264_U_20
 62
    23
  0
POLYLINE
  5
80
330
1F
100
AcDbEntity
  8
_U_00D5_U_00BA_U_2264_U_20
 62
    23
100
AcDb2dPolyline
 66
     1
 10
0.0
 20
0.0
 30
0.0
  0
VERTEX
  5
81
330
80
100
AcDbEntity
  8
_U_00D5_U_00BA_U_2264_U_20
 62
    23
100
AcDbVertex
100
AcDb2dVertex
 10
399.5259485112297
 20
250.8555088779206
 30
0.0
  0
VERTEX
  5
82
330
80
100
AcDbEntity
  8
_U_00D5_U_00BA_U_2264_U_20
 62
    23
100
AcDbVertex
100
AcDb2dVertex
 10
393.5259393460632
 20
250.8555088779206
 30
0.0
  0
VERTEX
  5
83
330
80
100
AcDbEntity
  8
_U_00D5_U_00BA_U_2264_U_20
 62
    23
100
AcDbVertex
100
AcDb2dVertex
 10
393.5259393460632
 20
253.8555310236059
 30
0.0
  0
VERTEX
  5
84
330
80
100
AcDbEntity
  8
_U_00D5_U_00BA_U_2264_U_20
 62
    23
100
AcDbVertex
100
AcDb2dVertex
 10
399.5259485112297
 20
253.8555310236059
 30
0.0
  0
VERTEX
  5
85
330
80
100
AcDbEntity
  8
_U_00D5_U_00BA_U_2264_U_20
 62
    23
100
AcDbVertex
100
AcDb2dVertex
 10
399.5259485112297
 20
250.8555088779206
 30
0.0
  0
SEQEND
  5
86
330
80
100
AcDbEntity
  8
_U_00D5_U_00BA_U_2264_U_20
 62
    23
  0
POLYLINE
  5
87
330
1F
100
AcDbEntity
  8
_U_00D5_U_00BA_U_2264_U_20
 62
    23
100
AcDb2dPolyline
 66
     1
 10
0.0
 20
0.0
 30
0.0
  0
VERTEX
  5
88
330
87
100
AcDbEntity
  8
_U_00D5_U_00BA_U_2264_U_20
 62
    23
100
AcDbVertex
100
AcDb2dVertex
 10
437.653394612809
 20
253.6555060287089
 30
0.0
  0
VERTEX
  5
89
330
87
100
AcDbEntity
  8
_U_00D5_U_00BA_U_2264_U_20
 62
    23
100
AcDbVertex
100
AcDb2dVertex
 10
431.6533854476421
 20
253.6555060287089
 30
0.0
  0
VERTEX
  5
8A
330
87
100
AcDbEntity
  8
_U_00D5_U_00BA_U_2264_U_20
 62
    23
100
AcDbVertex
100
AcDb2dVertex
 10
431.6533854476421
 20
256.6555281743942
 30
0.0
  0
VERTEX
  5
8B
330
87
100
AcDbEntity
  8
_U_00D5_U_00BA_U_2264_U_20
 62
    23
100
AcDbVertex
100
AcDb2dVertex
 10
437.653394612809
 20
256.6555281743942
 30
0.0
  0
VERTEX
  5
8C
330
87
100
AcDbEntity
  8
_U_00D5_U_00BA_U_2264_U_20
 62
    23
100
AcDbVertex
100
AcDb2dVertex
 10
437.653394612809
 20
253.6555060287089
 30
0.0
  0
SEQEND
  5
8D
330
87
100
AcDbEntity
  8
_U_00D5_U_00BA_U_2264_U_20
 62
    23
  0
SPLINE
  5
8E
330
1F
100
AcDbEntity
  8
_U_00D5_U_00BA_U_2264_U_20
 62
    23
100
AcDbSpline
210
0.0
220
0.0
230
1.0
 70
    11
 71
     3
 72
    38
 73
    34
 74
     0
 42
0.0000000001
 43
0.0000000001
 12
1.0
 22
0.0
 32
0.0
 13
1.0
 23
0.0
 33
0.0
 40
0.0
 40
0.0
 40
0.0
 40
0.0
 40
1.0
 40
1.0
 40
1.0
 40
2.0
 40
2.0
 40
2.0
 40
3.0
 40
3.0
 40
3.0
 40
4.0
 40
4.0
 40
4.0
 40
5.0
 40
5.0
 40
5.0
 40
6.0
 40
6.0
 40
6.0
 40
7.0
 40
7.0
 40
7.0
 40
8.0
 40
8.0
 40
8.0
 40
9.0
 40
9.0
 40
9.0
 40
10.0
 40
10.0
 40
10.0
 40
11.0
 40
11.0
 40
11.0
 40
11.0
 10
418.7407662842038
 20
327.7208810835882
 30
0.0
 10
418.7407662842038
 20
327.5935988646132
 30
0.0
 10
418.7453523953138
 20
327.4664577567457
 30
0.0
 10
418.7453523953138
 20
327.3380466489107
 30
0.0
 10
418.7453523953138
 20
325.7747825221262
 30
0.0
 10
418.6859798953285
 20
324.2209022839912
 30
0.0
 10
418.5919646175743
 20
322.6730545457023
 30
0.0
 10
418.6229737842331
 20
323.5483314678166
 30
0.0
 10
418.6584985064464
 20
324.4225500566245
 30
0.0
 10
418.6584985064464
 20
325.3053764229907
 30
0.0
 10
418.6584985064464
 20
365.7470529641188
 30
0.0
 10
385.8740482368649
 20
398.5308329559228
 30
0.0
 10
345.4340292427993
 20
398.5308329559228
 30
0.0
 10
305.7692138658441
 20
398.5308329559228
 30
0.0
 10
273.4924469115153
 20
366.9880546304753
 30
0.0
 10
272.267073331666
 20
327.6201277528253
 30
0.0
 10
233.3776282127074
 20
321.4442942992728
 30
0.0
 10
203.6470700823082
 20
287.7696101583856
 30
0.0
 10
203.6470700823082
 20
247.1423464726512
 30
0.0
 10
203.6470700823082
 20
202.1313251209781
 30
0.0
 10
240.1357213736273
 20
165.6426738296589
 30
0.0
 10
285.1467427253006
 20
165.6426738296589
 30
0.0
 10
317.7211482831471
 20
165.6426738296589
 30
0.0
 10
345.8207089551565
 20
184.7595600086132
 30
0.0
 10
358.8680979658385
 20
212.3806481928294
 30
0.0
 10
370.2123024074472
 20
203.2773589806292
 30
0.0
 10
384.6130087927357
 20
197.8269777307911
 30
0.0
 10
400.2902062888165
 20
197.8269777307911
 30
0.0
 10
436.8796118352246
 20
197.8269777307911
 30
0.0
 10
466.539615161143
 20
227.4882150296255
 30
0.0
 10
466.539615161143
 20
264.0771257628313
 30
0.0
 10
466.539615161143
 20
294.2628377705074
 30
0.0
 10
446.3511659995234
 20
319.7303940652203
 30
0.0
 10
418.7407662842038
 20
327.7208810835882
 30
0.0
  0
SPLINE
  5
8F
330
1F
100
AcDbEntity
  8
_U_00D5_U_00BA_U_2264_U_20
 62
    23
100
AcDbSpline
210
0.0
220
0.0
230
1.0
 70
    11
 71
     3
 72
    14
 73
    10
 74
     0
 42
0.0000000001
 43
0.0000000001
 12
1.0
 22
0.0
 32
0.0
 13
1.0
 23
0.0
 33
0.0
 40
0.0
 40
0.0
 40
0.0
 40
0.0
 40
1.0
 40
1.0
 40
1.0
 40
2.0
 40
2.0
 40
2.0
 40
3.0
 40
3.0
 40
3.0
 40
3.0
 10
463.6870540507449
 20
277.0477412652566
 30
0.0
 10
463.6870540507449
 20
277.0477412652566
 30
0.0
 10
461.1100476625003
 20
257.022699276138
 30
0.0
 10
436.2260910020547
 20
265.091361848067
 30
0.0
 10
436.2260910020547
 20
265.091361848067
 30
0.0
 10
441.6440521118113
 20
272.9376333145586
 30
0.0
 10
450.423456276283
 20
277.0477412652566
 30
0.0
 10
459.2039893296434
 20
281.1573906048552
 30
0.0
 10
463.6870540507449
 20
277.0477412652566
 30
0.0
 10
463.6870540507449
 20
277.0477412652566
 30
0.0
  0
SPLINE
  5
90
330
1F
100
AcDbEntity
  8
_U_00D5_U_00BA_U_2264_U_20
 62
    23
100
AcDbSpline
210
0.0
220
0.0
230
1.0
 70
    11
 71
     3
 72
    14
 73
    10
 74
     0
 42
0.0000000001
 43
0.0000000001
 12
1.0
 22
0.0
 32
0.0
 13
1.0
 23
0.0
 33
0.0
 40
0.0
 40
0.0
 40
0.0
 40
0.0
 40
1.0
 40
1.0
 40
1.0
 40
2.0
 40
2.0
 40
2.0
 40
3.0
 40
3.0
 40
3.0
 40
3.0
 10
455.653386830531
 20
295.3547907982049
 30
0.0
 10
455.653386830531
 20
295.3547907982049
 30
0.0
 10
458.082402941035
 20
288.2561965348606
 30
0.0
 10
452.1052890536406
 20
281.9043975302419
 30
0.0
 10
446.1270815551348
 20
275.5527396367306
 30
0.0
 10
440.1488387788518
 20
274.6422202155155
 30
0.0
 10
440.1488387788518
 20
274.6422202155155
 30
0.0
 10
440.3345057232499
 20
289.4262545605656
 30
0.0
 10
455.653386830531
 20
295.3547907982049
 30
0.0
 10
455.653386830531
 20
295.3547907982049
 30
0.0
  0
SPLINE
  5
91
330
1F
100
AcDbEntity
  8
_U_00D5_U_00BA_U_2264_U_20
 62
    23
100
AcDbSpline
210
0.0
220
0.0
230
1.0
 70
    11
 71
     3
 72
    14
 73
    10
 74
     0
 42
0.0000000001
 43
0.0000000001
 12
1.0
 22
0.0
 32
0.0
 13
1.0
 23
0.0
 33
0.0
 40
0.0
 40
0.0
 40
0.0
 40
0.0
 40
1.0
 40
1.0
 40
1.0
 40
2.0
 40
2.0
 40
2.0
 40
3.0
 40
3.0
 40
3.0
 40
3.0
 10
438.2813743348742
 20
282.6519689000586
 30
0.0
 10
430.6224982256776
 20
274.8050977113601
 30
0.0
 10
420.72020239482
 20
272.8996391488613
 30
0.0
 10
420.72020239482
 20
272.8996391488613
 30
0.0
 10
428.395482670679
 20
291.7978031111734
 30
0.0
 10
446.6861284994396
 20
300.300100116484
 30
0.0
 10
446.6861284994396
 20
300.300100116484
 30
0.0
 10
446.6861284994396
 20
300.300100116484
 30
0.0
 10
445.9403209996261
 20
290.4981698109965
 30
0.0
 10
438.2813743348742
 20
282.6519689000586
 30
0.0
  0
SPLINE
  5
92
330
1F
100
AcDbEntity
  8
_U_00D5_U_00BA_U_2264_U_20
 62
    23
100
AcDbSpline
210
0.0
220
0.0
230
1.0
 70
    11
 71
     3
 72
    14
 73
    10
 74
     0
 42
0.0000000001
 43
0.0000000001
 12
1.0
 22
0.0
 32
0.0
 13
1.0
 23
0.0
 33
0.0
 40
0.0
 40
0.0
 40
0.0
 40
0.0
 40
1.0
 40
1.0
 40
1.0
 40
2.0
 40
2.0
 40
2.0
 40
3.0
 40
3.0
 40
3.0
 40
3.0
 10
276.2835540625304
 20
208.9235318921389
 30
0.0
 10
297.9550451763113
 20
205.4360414255566
 30
0.0
 10
305.5672485932189
 20
188.7467954624458
 30
0.0
 10
305.5672485932189
 20
188.7467954624458
 30
0.0
 10
268.8394492524454
 20
169.8140592787935
 30
0.0
 10
245.8941481711621
 20
197.1725749697085
 30
0.0
 10
245.8941481711621
 20
197.1725749697085
 30
0.0
 10
245.8941481711621
 20
197.1725749697085
 30
0.0
 10
254.6128743376177
 20
212.4110929142749
 30
0.0
 10
276.2835540625304
 20
208.9235318921389
 30
0.0
  0
SPLINE
  5
93
330
1F
100
AcDbEntity
  8
_U_00D5_U_00BA_U_2264_U_20
 62
    23
100
AcDbSpline
210
0.0
220
0.0
230
1.0
 70
    11
 71
     3
 72
    14
 73
    10
 74
     0
 42
0.0000000001
 43
0.0000000001
 12
1.0
 22
0.0
 32
0.0
 13
1.0
 23
0.0
 33
0.0
 40
0.0
 40
0.0
 40
0.0
 40
0.0
 40
1.0
 40
1.0
 40
1.0
 40
2.0
 40
2.0
 40
2.0
 40
3.0
 40
3.0
 40
3.0
 40
3.0
 10
268.4613067620926
 20
258.742808398921
 30
0.0
 10
268.4613067620926
 20
258.742808398921
 30
0.0
 10
279.9193523031068
 20
260.7363908480605
 30
0.0
 10
290.1325509314353
 20
247.5346000737551
 30
0.0
 10
300.3447617820112
 20
234.3303751328452
 30
0.0
 10
300.8693070464067
 20
217.6411291697344
 30
0.0
 10
300.8693070464067
 20
217.6411291697344
 30
0.0
 10
267.5158976195453
 20
223.6205359616315
 30
0.0
 10
268.4613067620926
 20
258.742808398921
 30
0.0
 10
268.4613067620926
 20
258.742808398921
 30
0.0
  0
SPLINE
  5
94
330
1F
100
AcDbEntity
  8
_U_00D5_U_00BA_U_2264_U_20
 62
    23
100
AcDbSpline
210
0.0
220
0.0
230
1.0
 70
    11
 71
     3
 72
    14
 73
    10
 74
     0
 42
0.0000000001
 43
0.0000000001
 12
1.0
 22
0.0
 32
0.0
 13
1.0
 23
0.0
 33
0.0
 40
0.0
 40
0.0
 40
0.0
 40
0.0
 40
1.0
 40
1.0
 40
1.0
 40
2.0
 40
2.0
 40
2.0
 40
3.0
 40
3.0
 40
3.0
 40
3.0
 10
305.8933916404538
 20
267.2726573479731
 30
0.0
 10
305.8933916404538
 20
267.2726573479731
 30
0.0
 10
301.1605956500865
 20
278.837594552927
 30
0.0
 10
312.4943575831603
 20
284.6914477369161
 30
0.0
 10
323.8281195162342
 20
290.5454420320127
 30
0.0
 10
331.4257179335144
 20
290.1805992635428
 30
0.0
 10
331.4257179335144
 20
290.1805992635428
 30
0.0
 10
326.2184711219179
 20
266.0155690467108
 30
0.0
 10
305.8933916404538
 20
267.2726573479731
 30
0.0
 10
305.8933916404538
 20
267.2726573479731
 30
0.0
  0
SPLINE
  5
95
330
1F
100
AcDbEntity
  8
_U_00D5_U_00BA_U_2264_U_20
 62
    23
100
AcDbSpline
210
0.0
220
0.0
230
1.0
 70
    11
 71
     3
 72
    14
 73
    10
 74
     0
 42
0.0000000001
 43
0.0000000001
 12
1.0
 22
0.0
 32
0.0
 13
1.0
 23
0.0
 33
0.0
 40
0.0
 40
0.0
 40
0.0
 40
0.0
 40
1.0
 40
1.0
 40
1.0
 40
2.0
 40
2.0
 40
2.0
 40
3.0
 40
3.0
 40
3.0
 40
3.0
 10
330.1898315761556
 20
276.4290748921512
 30
0.0
 10
329.8238599188256
 20
257.9539973079342
 30
0.0
 10
321.8357717892854
 20
258.6607170121264
 30
0.0
 10
321.8357717892854
 20
258.6607170121264
 30
0.0
 10
321.8357717892854
 20
258.6607170121264
 30
0.0
 10
317.6007805084402
 20
261.8990405406211
 30
0.0
 10
320.4648421020385
 20
268.0027309404585
 30
0.0
 10
323.330314806712
 20
274.105257173659
 30
0.0
 10
330.1898315761556
 20
276.4290748921512
 30
0.0
 10
330.1898315761556
 20
276.4290748921512
 30
0.0
  0
SPLINE
  5
96
330
1F
100
AcDbEntity
  8
_U_00D5_U_00BA_U_2264_U_20
 62
    23
100
AcDbSpline
210
0.0
220
0.0
230
1.0
 70
    11
 71
     3
 72
    14
 73
    10
 74
     0
 42
0.0000000001
 43
0.0000000001
 12
1.0
 22
0.0
 32
0.0
 13
1.0
 23
0.0
 33
0.0
 40
0.0
 40
0.0
 40
0.0
 40
0.0
 40
1.0
 40
1.0
 40
1.0
 40
2.0
 40
2.0
 40
2.0
 40
3.0
 40
3.0
 40
3.0
 40
3.0
 10
281.8556083648199
 20
305.7225766448117
 30
0.0
 10
281.8556083648199
 20
305.7225766448117
 30
0.0
 10
288.8971231851759
 20
313.6424728316472
 30
0.0
 10
308.2096246369174
 20
308.5792299052658
 30
0.0
 10
327.5211030331294
 20
303.515493090008
 30
0.0
 10
330.9274546128928
 20
292.0912789370195
 30
0.0
 10
330.9274546128928
 20
292.0912789370195
 30
0.0
 10
290.3240387043278
 20
282.4849286265424
 30
0.0
 10
281.8556083648199
 20
305.7225766448117
 30
0.0
 10
281.8556083648199
 20
305.7225766448117
 30
0.0
  0
SPLINE
  5
97
330
1F
100
AcDbEntity
  8
_U_00D5_U_00BA_U_2264_U_20
 62
    23
100
AcDbSpline
210
0.0
220
0.0
230
1.0
 70
    11
 71
     3
 72
    14
 73
    10
 74
     0
 42
0.0000000001
 43
0.0000000001
 12
1.0
 22
0.0
 32
0.0
 13
1.0
 23
0.0
 33
0.0
 40
0.0
 40
0.0
 40
0.0
 40
0.0
 40
1.0
 40
1.0
 40
1.0
 40
2.0
 40
2.0
 40
2.0
 40
3.0
 40
3.0
 40
3.0
 40
3.0
 10
296.3034454962249
 20
288.1789382034983
 30
0.0
 10
303.0292947690786
 20
289.0508637368092
 30
0.0
 10
307.3879346578805
 20
287.0578810098767
 30
0.0
 10
307.3879346578805
 20
287.0578810098767
 30
0.0
 10
302.5314900595565
 20
276.4710907244126
 30
0.0
 10
291.8202750550445
 20
279.8337684164014
 30
0.0
 10
291.8202750550445
 20
279.8337684164014
 30
0.0
 10
291.8202750550445
 20
279.8337684164014
 30
0.0
 10
289.578231223355
 20
287.3070479479643
 30
0.0
 10
296.3034454962249
 20
288.1789382034983
 30
0.0
  0
SPLINE
  5
98
330
1F
100
AcDbEntity
  8
_U_00D5_U_00BA_U_2264_U_20
 62
    23
100
AcDbSpline
210
0.0
220
0.0
230
1.0
 70
    11
 71
     3
 72
    14
 73
    10
 74
     0
 42
0.0000000001
 43
0.0000000001
 12
1.0
 22
0.0
 32
0.0
 13
1.0
 23
0.0
 33
0.0
 40
0.0
 40
0.0
 40
0.0
 40
0.0
 40
1.0
 40
1.0
 40
1.0
 40
2.0
 40
2.0
 40
2.0
 40
3.0
 40
3.0
 40
3.0
 40
3.0
 10
358.2040643548933
 20
289.5485978907776
 30
0.0
 10
358.2040643548933
 20
289.5485978907776
 30
0.0
 10
365.4008015753164
 20
299.1813007005825
 30
0.0
 10
383.4731837930205
 20
302.7095369994585
 30
0.0
 10
401.5468360107246
 20
306.2384788538722
 30
0.0
 10
408.0245062868829
 20
296.1289968895643
 30
0.0
 10
408.0245062868829
 20
296.1289968895643
 30
0.0
 10
408.0245062868829
 20
296.1289968895643
 30
0.0
 10
393.7956026793288
 20
271.2084225253412
 30
0.0
 10
358.2040643548933
 20
289.5485978907776
 30
0.0
  0
SPLINE
  5
99
330
1F
100
AcDbEntity
  8
_U_00D5_U_00BA_U_2264_U_20
 62
    23
100
AcDbSpline
210
0.0
220
0.0
230
1.0
 70
    11
 71
     3
 72
    14
 73
    10
 74
     0
 42
0.0000000001
 43
0.0000000001
 12
1.0
 22
0.0
 32
0.0
 13
1.0
 23
0.0
 33
0.0
 40
0.0
 40
0.0
 40
0.0
 40
0.0
 40
1.0
 40
1.0
 40
1.0
 40
2.0
 40
2.0
 40
2.0
 40
3.0
 40
3.0
 40
3.0
 40
3.0
 10
394.3243107347522
 20
271.8625430642087
 30
0.0
 10
394.3243107347522
 20
271.8625430642087
 30
0.0
 10
381.3698874046575
 20
269.2486714642275
 30
0.0
 10
375.01822935069
 20
280.7062231163654
 30
0.0
 10
375.01822935069
 20
280.7062231163654
 30
0.0
 10
383.4883532374614
 20
282.4498977941028
 30
0.0
 10
389.466525458189
 20
279.7100492528911
 30
0.0
 10
395.4436393455837
 20
276.9694598783648
 30
0.0
 10
394.3243107347522
 20
271.8625430642087
 30
0.0
 10
394.3243107347522
 20
271.8625430642087
 30
0.0
  0
SPLINE
  5
9A
330
1F
100
AcDbEntity
  8
_U_00D5_U_00BA_U_2264_U_20
 62
    23
100
AcDbSpline
210
0.0
220
0.0
230
1.0
 70
    11
 71
     3
 72
    14
 73
    10
 74
     0
 42
0.0000000001
 43
0.0000000001
 12
1.0
 22
0.0
 32
0.0
 13
1.0
 23
0.0
 33
0.0
 40
0.0
 40
0.0
 40
0.0
 40
0.0
 40
1.0
 40
1.0
 40
1.0
 40
2.0
 40
2.0
 40
2.0
 40
3.0
 40
3.0
 40
3.0
 40
3.0
 10
376.8869637946673
 20
325.3053764229907
 30
0.0
 10
368.915067963327
 20
312.9876114594653
 30
0.0
 10
357.2072201884761
 20
311.219947893451
 30
0.0
 10
357.2072201884761
 20
311.219947893451
 30
0.0
 10
360.4474135209994
 20
342.1084637720859
 30
0.0
 10
383.3634699041591
 20
347.6805180743755
 30
0.0
 10
383.3634699041591
 20
347.6805180743755
 30
0.0
 10
383.3634699041591
 20
347.6805180743755
 30
0.0
 10
384.8574485148969
 20
337.6247288864756
 30
0.0
 10
376.8869637946673
 20
325.3053764229907
 30
0.0
  0
SPLINE
  5
9B
330
1F
100
AcDbEntity
  8
_U_00D5_U_00BA_U_2264_U_20
 62
    23
100
AcDbSpline
210
0.0
220
0.0
230
1.0
 70
    11
 71
     3
 72
    14
 73
    10
 74
     0
 42
0.0000000001
 43
0.0000000001
 12
1.0
 22
0.0
 32
0.0
 13
1.0
 23
0.0
 33
0.0
 40
0.0
 40
0.0
 40
0.0
 40
0.0
 40
1.0
 40
1.0
 40
1.0
 40
2.0
 40
2.0
 40
2.0
 40
3.0
 40
3.0
 40
3.0
 40
3.0
 10
371.2145440738631
 20
279.5647400899315
 30
0.0
 10
381.9640357378425
 20
273.2888235833768
 30
0.0
 10
382.7950743487459
 20
265.8102876630591
 30
0.0
 10
382.7950743487459
 20
265.8102876630591
 30
0.0
 10
382.7950743487459
 20
265.8102876630591
 30
0.0
 10
363.4013629647051
 20
255.2817762649971
 30
0.0
 10
354.5379271335879
 20
286.31087408449
 30
0.0
 10
354.5379271335879
 20
286.31087408449
 30
0.0
 10
360.4636060209954
 20
285.8394218742955
 30
0.0
 10
371.2145440738631
 20
279.5647400899315
 30
0.0
  0
SPLINE
  5
9C
330
1F
100
AcDbEntity
  8
_U_00D5_U_00BA_U_2264_U_20
 62
    23
100
AcDbSpline
210
0.0
220
0.0
230
1.0
 70
    11
 71
     3
 72
    14
 73
    10
 74
     0
 42
0.0000000001
 43
0.0000000001
 12
1.0
 22
0.0
 32
0.0
 13
1.0
 23
0.0
 33
0.0
 40
0.0
 40
0.0
 40
0.0
 40
0.0
 40
1.0
 40
1.0
 40
1.0
 40
2.0
 40
2.0
 40
2.0
 40
3.0
 40
3.0
 40
3.0
 40
3.0
 10
357.2072201884761
 20
266.3301762609067
 30
0.0
 10
357.7068593550178
 20
260.9028666771467
 30
0.0
 10
352.7242876679204
 20
255.4219348725325
 30
0.0
 10
352.7242876679204
 20
255.4219348725325
 30
0.0
 10
352.7242876679204
 20
255.4219348725325
 30
0.0
 10
344.245908995333
 20
257.9015745314938
 30
0.0
 10
352.7242876679204
 20
279.1223920456612
 30
0.0
 10
352.7242876679204
 20
279.1223920456612
 30
0.0
 10
356.7088510219341
 20
271.7592497335106
 30
0.0
 10
357.2072201884761
 20
266.3301762609067
 30
0.0
  0
SPLINE
  5
9D
330
1F
100
AcDbEntity
  8
_U_00D5_U_00BA_U_2264_U_20
 62
    23
100
AcDbSpline
210
0.0
220
0.0
230
1.0
 70
    11
 71
     3
 72
    14
 73
    10
 74
     0
 42
0.0000000001
 43
0.0000000001
 12
1.0
 22
0.0
 32
0.0
 13
1.0
 23
0.0
 33
0.0
 40
0.0
 40
0.0
 40
0.0
 40
0.0
 40
1.0
 40
1.0
 40
1.0
 40
2.0
 40
2.0
 40
2.0
 40
3.0
 40
3.0
 40
3.0
 40
3.0
 10
396.6901443452721
 20
268.0776609385468
 30
0.0
 10
385.3415654592203
 20
247.929746452563
 30
0.0
 10
370.7991835184115
 20
244.9861687498821
 30
0.0
 10
370.7991835184115
 20
244.9861687498821
 30
0.0
 10
370.8717851850599
 20
247.5931259055953
 30
0.0
 10
371.1084990738897
 20
250.0808441754617
 30
0.0
 10
371.4597951849129
 20
252.4731007810968
 30
0.0
 10
380.9419326825423
 20
255.9215034708985
 30
0.0
 10
389.4977815692923
 20
261.2844663896335
 30
0.0
 10
396.6901443452721
 20
268.0776609385468
 30
0.0
  0
SPLINE
  5
9E
330
1F
100
AcDbEntity
  8
_U_00D5_U_00BA_U_2264_U_20
 62
    23
100
AcDbSpline
210
0.0
220
0.0
230
1.0
 70
    11
 71
     3
 72
    14
 73
    10
 74
     0
 42
0.0000000001
 43
0.0000000001
 12
1.0
 22
0.0
 32
0.0
 13
1.0
 23
0.0
 33
0.0
 40
0.0
 40
0.0
 40
0.0
 40
0.0
 40
1.0
 40
1.0
 40
1.0
 40
2.0
 40
2.0
 40
2.0
 40
3.0
 40
3.0
 40
3.0
 40
3.0
 10
402.4902696215997
 20
241.926068550174
 30
0.0
 10
425.2045371159213
 20
243.0477254660026
 30
0.0
 10
440.1488387788518
 20
234.2671220789034
 30
0.0
 10
440.1488387788518
 20
234.2671220789034
 30
0.0
 10
440.1488387788518
 20
234.2671220789034
 30
0.0
 10
403.4579037880245
 20
207.7211947005908
 30
0.0
 10
368.0951418524205
 20
228.559671668957
 30
0.0
 10
368.0951418524205
 20
228.559671668957
 30
0.0
 10
379.773779627279
 20
240.8067399676194
 30
0.0
 10
402.4902696215997
 20
241.926068550174
 30
0.0
  0
SPLINE
  5
9F
330
1F
100
AcDbEntity
  8
_U_00D5_U_00BA_U_2264_U_20
 62
    23
100
AcDbSpline
210
0.0
220
0.0
230
1.0
 70
    11
 71
     3
 72
    14
 73
    10
 74
     0
 42
0.0000000001
 43
0.0000000001
 12
1.0
 22
0.0
 32
0.0
 13
1.0
 23
0.0
 33
0.0
 40
0.0
 40
0.0
 40
0.0
 40
0.0
 40
1.0
 40
1.0
 40
1.0
 40
2.0
 40
2.0
 40
2.0
 40
3.0
 40
3.0
 40
3.0
 40
3.0
 10
439.4007029457053
 20
314.9707869644258
 30
0.0
 10
439.4007029457053
 20
314.9707869644258
 30
0.0
 10
442.9523637781509
 20
307.3112407709482
 30
0.0
 10
439.4007029457053
 20
300.300100116484
 30
0.0
 10
435.852569891037
 20
293.2889241842428
 30
0.0
 10
428.5671443373028
 20
292.3656342077979
 30
0.0
 10
428.5671443373028
 20
292.3656342077979
 30
0.0
 10
428.4853704484341
 20
308.9727887841141
 30
0.0
 10
439.4007029457053
 20
314.9707869644258
 30
0.0
 10
439.4007029457053
 20
314.9707869644258
 30
0.0
  0
SPLINE
  5
A0
330
1F
100
AcDbEntity
  8
_U_00D5_U_00BA_U_2264_U_20
 62
    23
100
AcDbSpline
210
0.0
220
0.0
230
1.0
 70
    11
 71
     3
 72
    20
 73
    16
 74
     0
 42
0.0000000001
 43
0.0000000001
 12
1.0
 22
0.0
 32
0.0
 13
1.0
 23
0.0
 33
0.0
 40
0.0
 40
0.0
 40
0.0
 40
0.0
 40
1.0
 40
1.0
 40
1.0
 40
2.0
 40
2.0
 40
2.0
 40
3.0
 40
3.0
 40
3.0
 40
4.0
 40
4.0
 40
4.0
 40
5.0
 40
5.0
 40
5.0
 40
5.0
 10
424.8310512826811
 20
322.0695576166544
 30
0.0
 10
424.8310512826811
 20
322.0695576166544
 30
0.0
 10
433.2368990583573
 20
309.1793048899566
 30
0.0
 10
424.8310512826811
 20
294.5711302626422
 30
0.0
 10
416.4238629514496
 20
279.9622148020133
 30
0.0
 10
404.6553373988363
 20
277.0477412652566
 30
0.0
 10
404.6553373988363
 20
277.0477412652566
 30
0.0
 10
404.5074882322065
 20
278.7520106662215
 30
0.0
 10
404.4632851766618
 20
280.3923214577071
 30
0.0
 10
404.4690354544382
 20
281.9973191945379
 30
0.0
 10
411.682917674857
 20
291.8142072774216
 30
0.0
 10
416.4949123958763
 20
303.4955611460721
 30
0.0
 10
418.0727815621485
 20
316.1846952667897
 30
0.0
 10
421.7984676723281
 20
320.124446832945
 30
0.0
 10
424.8310512826811
 20
322.0695576166544
 30
0.0
 10
424.8310512826811
 20
322.0695576166544
 30
0.0
  0
SPLINE
  5
A1
330
1F
100
AcDbEntity
  8
_U_00D5_U_00BA_U_2264_U_20
 62
    23
100
AcDbSpline
210
0.0
220
0.0
230
1.0
 70
    11
 71
     3
 72
    14
 73
    10
 74
     0
 42
0.0000000001
 43
0.0000000001
 12
1.0
 22
0.0
 32
0.0
 13
1.0
 23
0.0
 33
0.0
 40
0.0
 40
0.0
 40
0.0
 40
0.0
 40
1.0
 40
1.0
 40
1.0
 40
2.0
 40
2.0
 40
2.0
 40
3.0
 40
3.0
 40
3.0
 40
3.0
 10
416.4934660069877
 20
318.9425001964323
 30
0.0
 10
416.4934660069877
 20
318.9425001964323
 30
0.0
 10
409.8651243419782
 20
301.0079134317594
 30
0.0
 10
386.4623051811622
 20
307.7330218712988
 30
0.0
 10
386.4623051811622
 20
307.7330218712988
 30
0.0
 10
392.954086568428
 20
315.4550802854038
 30
0.0
 10
402.5434332326976
 20
319.9386740599066
 30
0.0
 10
412.1329210080778
 20
324.4229028343933
 30
0.0
 10
416.4934660069877
 20
318.9425001964323
 30
0.0
 10
416.4934660069877
 20
318.9425001964323
 30
0.0
  0
SPLINE
  5
A2
330
1F
100
AcDbEntity
  8
_U_00D5_U_00BA_U_2264_U_20
 62
    23
100
AcDbSpline
210
0.0
220
0.0
230
1.0
 70
    11
 71
     3
 72
    14
 73
    10
 74
     0
 42
0.0000000001
 43
0.0000000001
 12
1.0
 22
0.0
 32
0.0
 13
1.0
 23
0.0
 33
0.0
 40
0.0
 40
0.0
 40
0.0
 40
0.0
 40
1.0
 40
1.0
 40
1.0
 40
2.0
 40
2.0
 40
2.0
 40
3.0
 40
3.0
 40
3.0
 40
3.0
 10
410.1160904530266
 20
354.4384085225016
 30
0.0
 10
410.1160904530266
 20
354.4384085225016
 30
0.0
 10
412.0092018414421
 20
353.0681490783996
 30
0.0
 10
413.1296946189397
 20
345.8450506212021
 30
0.0
 10
414.2501873964376
 20
338.6209733055037
 30
0.0
 10
410.1160904530266
 20
333.6394337103711
 30
0.0
 10
410.1160904530266
 20
333.6394337103711
 30
0.0
 10
404.2369782322741
 20
341.9840037752612
 30
0.0
 10
410.1160904530266
 20
354.4384085225016
 30
0.0
 10
410.1160904530266
 20
354.4384085225016
 30
0.0
  0
SPLINE
  5
A3
330
1F
100
AcDbEntity
  8
_U_00D5_U_00BA_U_2264_U_20
 62
    23
100
AcDbSpline
210
0.0
220
0.0
230
1.0
 70
    11
 71
     3
 72
    14
 73
    10
 74
     0
 42
0.0000000001
 43
0.0000000001
 12
1.0
 22
0.0
 32
0.0
 13
1.0
 23
0.0
 33
0.0
 40
0.0
 40
0.0
 40
0.0
 40
0.0
 40
1.0
 40
1.0
 40
1.0
 40
2.0
 40
2.0
 40
2.0
 40
3.0
 40
3.0
 40
3.0
 40
3.0
 10
405.6575085096968
 20
363.9041065756907
 30
0.0
 10
405.6575085096968
 20
363.9041065756907
 30
0.0
 10
408.0245062868829
 20
355.8085974110479
 30
0.0
 10
406.1558776762388
 20
345.5952839609075
 30
0.0
 10
404.412132398897
 20
336.0666153151153
 30
0.0
 10
395.5685226788855
 20
331.8950887548731
 30
0.0
 10
395.5685226788855
 20
331.8950887548731
 30
0.0
 10
390.0887549024778
 20
352.1968496258209
 30
0.0
 10
405.6575085096968
 20
363.9041065756907
 30
0.0
 10
405.6575085096968
 20
363.9041065756907
 30
0.0
  0
SPLINE
  5
A4
330
1F
100
AcDbEntity
  8
_U_00D5_U_00BA_U_2264_U_20
 62
    23
100
AcDbSpline
210
0.0
220
0.0
230
1.0
 70
    11
 71
     3
 72
    14
 73
    10
 74
     0
 42
0.0000000001
 43
0.0000000001
 12
1.0
 22
0.0
 32
0.0
 13
1.0
 23
0.0
 33
0.0
 40
0.0
 40
0.0
 40
0.0
 40
0.0
 40
1.0
 40
1.0
 40
1.0
 40
2.0
 40
2.0
 40
2.0
 40
3.0
 40
3.0
 40
3.0
 40
3.0
 10
396.4404129564455
 20
359.7944571322736
 30
0.0
 10
395.6934060121878
 20
348.5849697179676
 30
0.0
 10
388.4686582362163
 20
346.2185717227839
 30
0.0
 10
388.4686582362163
 20
346.2185717227839
 30
0.0
 10
380.3731137937956
 20
361.0397979652956
 30
0.0
 10
392.4544474018863
 20
380.2204315716117
 30
0.0
 10
392.4544474018863
 20
380.2204315716117
 30
0.0
 10
392.4544474018863
 20
380.2204315716117
 30
0.0
 10
397.1861499007034
 20
371.0039004628046
 30
0.0
 10
396.4404129564455
 20
359.7944571322736
 30
0.0
  0
SPLINE
  5
A5
330
1F
100
AcDbEntity
  8
_U_00D5_U_00BA_U_2264_U_20
 62
    23
100
AcDbSpline
210
0.0
220
0.0
230
1.0
 70
    11
 71
     3
 72
    14
 73
    10
 74
     0
 42
0.0000000001
 43
0.0000000001
 12
1.0
 22
0.0
 32
0.0
 13
1.0
 23
0.0
 33
0.0
 40
0.0
 40
0.0
 40
0.0
 40
0.0
 40
1.0
 40
1.0
 40
1.0
 40
2.0
 40
2.0
 40
2.0
 40
3.0
 40
3.0
 40
3.0
 40
3.0
 10
383.4731837930205
 20
386.1993093478945
 30
0.0
 10
383.4731837930205
 20
386.1993093478945
 30
0.0
 10
390.1995624024502
 20
377.4799832389633
 30
0.0
 10
383.4731837930205
 20
360.7900312986915
 30
0.0
 10
376.7478987947018
 20
344.101305387911
 30
0.0
 10
366.1757132417894
 20
341.6100946181338
 30
0.0
 10
366.1757132417894
 20
341.6100946181338
 30
0.0
 10
359.916236021132
 20
374.782609072971
 30
0.0
 10
383.4731837930205
 20
386.1993093478945
 30
0.0
 10
383.4731837930205
 20
386.1993093478945
 30
0.0
  0
SPLINE
  5
A6
330
1F
100
AcDbEntity
  8
_U_00D5_U_00BA_U_2264_U_20
 62
    23
100
AcDbSpline
210
0.0
220
0.0
230
1.0
 70
    11
 71
     3
 72
    14
 73
    10
 74
     0
 42
0.0000000001
 43
0.0000000001
 12
1.0
 22
0.0
 32
0.0
 13
1.0
 23
0.0
 33
0.0
 40
0.0
 40
0.0
 40
0.0
 40
0.0
 40
1.0
 40
1.0
 40
1.0
 40
2.0
 40
2.0
 40
2.0
 40
3.0
 40
3.0
 40
3.0
 40
3.0
 10
363.9347629645717
 20
392.9244532351021
 30
0.0
 10
363.9347629645717
 20
392.9244532351021
 30
0.0
 10
368.1680962968467
 20
389.6862001803563
 30
0.0
 10
368.4166987967847
 20
382.7111485154334
 30
0.0
 10
368.6665360189444
 20
375.7362379616215
 30
0.0
 10
365.1171682420543
 20
371.2531026849646
 30
0.0
 10
365.1171682420543
 20
371.2531026849646
 30
0.0
 10
356.5863665775202
 20
386.4472415700548
 30
0.0
 10
363.9347629645717
 20
392.9244532351021
 30
0.0
 10
363.9347629645717
 20
392.9244532351021
 30
0.0
  0
SPLINE
  5
A7
330
1F
100
AcDbEntity
  8
_U_00D5_U_00BA_U_2264_U_20
 62
    23
100
AcDbSpline
210
0.0
220
0.0
230
1.0
 70
    11
 71
     3
 72
    14
 73
    10
 74
     0
 42
0.0000000001
 43
0.0000000001
 12
1.0
 22
0.0
 32
0.0
 13
1.0
 23
0.0
 33
0.0
 40
0.0
 40
0.0
 40
0.0
 40
0.0
 40
1.0
 40
1.0
 40
1.0
 40
2.0
 40
2.0
 40
2.0
 40
3.0
 40
3.0
 40
3.0
 40
3.0
 10
354.0698968559269
 20
388.8744585138925
 30
0.0
 10
354.0698968559269
 20
388.8744585138925
 30
0.0
 10
364.5744549088565
 20
372.8059951845763
 30
0.0
 10
362.7069904648789
 20
343.3543337403012
 30
0.0
 10
360.837127132013
 20
313.9038458805346
 30
0.0
 10
345.4340292427993
 20
306.4876810697367
 30
0.0
 10
345.4340292427993
 20
306.4876810697367
 30
0.0
 10
323.3039975851612
 20
344.8004403700746
 30
0.0
 10
354.0698968559269
 20
388.8744585138925
 30
0.0
 10
354.0698968559269
 20
388.8744585138925
 30
0.0
  0
SPLINE
  5
A8
330
1F
100
AcDbEntity
  8
_U_00D5_U_00BA_U_2264_U_20
 62
    23
100
AcDbSpline
210
0.0
220
0.0
230
1.0
 70
    11
 71
     3
 72
    14
 73
    10
 74
     0
 42
0.0000000001
 43
0.0000000001
 12
1.0
 22
0.0
 32
0.0
 13
1.0
 23
0.0
 33
0.0
 40
0.0
 40
0.0
 40
0.0
 40
0.0
 40
1.0
 40
1.0
 40
1.0
 40
2.0
 40
2.0
 40
2.0
 40
3.0
 40
3.0
 40
3.0
 40
3.0
 10
341.7634471142214
 20
395.165967956764
 30
0.0
 10
341.7634471142214
 20
395.165967956764
 30
0.0
 10
345.5006336855445
 20
392.1768818464002
 30
0.0
 10
345.4340292427993
 20
385.4510676814151
 30
0.0
 10
345.3664017445246
 20
378.7253593497632
 30
0.0
 10
341.7634471142214
 20
373.2454504622443
 30
0.0
 10
341.7634471142214
 20
373.2454504622443
 30
0.0
 10
335.0381622857977
 20
389.1878310138142
 30
0.0
 10
341.7634471142214
 20
395.165967956764
 30
0.0
 10
341.7634471142214
 20
395.165967956764
 30
0.0
  0
SPLINE
  5
A9
330
1F
100
AcDbEntity
  8
_U_00D5_U_00BA_U_2264_U_20
 62
    23
100
AcDbSpline
210
0.0
220
0.0
230
1.0
 70
    11
 71
     3
 72
    14
 73
    10
 74
     0
 42
0.0000000001
 43
0.0000000001
 12
1.0
 22
0.0
 32
0.0
 13
1.0
 23
0.0
 33
0.0
 40
0.0
 40
0.0
 40
0.0
 40
0.0
 40
1.0
 40
1.0
 40
1.0
 40
2.0
 40
2.0
 40
2.0
 40
3.0
 40
3.0
 40
3.0
 40
3.0
 10
327.0786138777516
 20
395.165967956764
 30
0.0
 10
327.0786138777516
 20
395.165967956764
 30
0.0
 10
335.7857336556145
 20
391.1807079577603
 30
0.0
 10
337.4285138914814
 20
372.9962482400844
 30
0.0
 10
339.0696007940583
 20
354.8123882446303
 30
0.0
 10
334.0419884223234
 20
342.7619845887466
 30
0.0
 10
334.0419884223234
 20
342.7619845887466
 30
0.0
 10
313.3668122831244
 20
377.7903924055524
 30
0.0
 10
327.0786138777516
 20
395.165967956764
 30
0.0
 10
327.0786138777516
 20
395.165967956764
 30
0.0
  0
SPLINE
  5
AA
330
1F
100
AcDbEntity
  8
_U_00D5_U_00BA_U_2264_U_20
 62
    23
100
AcDbSpline
210
0.0
220
0.0
230
1.0
 70
    11
 71
     3
 72
    14
 73
    10
 74
     0
 42
0.0000000001
 43
0.0000000001
 12
1.0
 22
0.0
 32
0.0
 13
1.0
 23
0.0
 33
0.0
 40
0.0
 40
0.0
 40
0.0
 40
0.0
 40
1.0
 40
1.0
 40
1.0
 40
2.0
 40
2.0
 40
2.0
 40
3.0
 40
3.0
 40
3.0
 40
3.0
 10
310.6262934641519
 20
386.1993093478945
 30
0.0
 10
310.6262934641519
 20
386.1993093478945
 30
0.0
 10
315.1106280719692
 20
387.6938524030764
 30
0.0
 10
317.8499827243047
 20
382.0884604600334
 30
0.0
 10
320.5897254321858
 20
376.4844090725456
 30
0.0
 10
318.597977427444
 20
373.2454504622443
 30
0.0
 10
318.597977427444
 20
373.2454504622443
 30
0.0
 10
308.6339457372032
 20
382.7111485154334
 30
0.0
 10
310.6262934641519
 20
386.1993093478945
 30
0.0
 10
310.6262934641519
 20
386.1993093478945
 30
0.0
  0
SPLINE
  5
AB
330
1F
100
AcDbEntity
  8
_U_00D5_U_00BA_U_2264_U_20
 62
    23
100
AcDbSpline
210
0.0
220
0.0
230
1.0
 70
    11
 71
     3
 72
    14
 73
    10
 74
     0
 42
0.0000000001
 43
0.0000000001
 12
1.0
 22
0.0
 32
0.0
 13
1.0
 23
0.0
 33
0.0
 40
0.0
 40
0.0
 40
0.0
 40
0.0
 40
1.0
 40
1.0
 40
1.0
 40
2.0
 40
2.0
 40
2.0
 40
3.0
 40
3.0
 40
3.0
 40
3.0
 10
315.8569647195953
 20
371.2531026849646
 30
0.0
 10
325.8216314098199
 20
361.2890001874555
 30
0.0
 10
325.8216314098199
 20
344.5991100974331
 30
0.0
 10
325.8216314098199
 20
344.5991100974331
 30
0.0
 10
301.6584003596086
 20
355.0615904667902
 30
0.0
 10
299.1688476453446
 20
379.4723310162431
 30
0.0
 10
299.1688476453446
 20
379.4723310162431
 30
0.0
 10
299.1688476453446
 20
379.4723310162431
 30
0.0
 10
305.8933916404538
 20
381.2166054602515
 30
0.0
 10
315.8569647195953
 20
371.2531026849646
 30
0.0
  0
SPLINE
  5
AC
330
1F
100
AcDbEntity
  8
_U_00D5_U_00BA_U_2264_U_20
 62
    23
100
AcDbSpline
210
0.0
220
0.0
230
1.0
 70
    11
 71
     3
 72
    14
 73
    10
 74
     0
 42
0.0000000001
 43
0.0000000001
 12
1.0
 22
0.0
 32
0.0
 13
1.0
 23
0.0
 33
0.0
 40
0.0
 40
0.0
 40
0.0
 40
0.0
 40
1.0
 40
1.0
 40
1.0
 40
2.0
 40
2.0
 40
2.0
 40
3.0
 40
3.0
 40
3.0
 40
3.0
 10
289.2047453995501
 20
363.2820182425129
 30
0.0
 10
289.2047453995501
 20
363.2820182425129
 30
0.0
 10
307.3879346578805
 20
357.8015096327718
 30
0.0
 10
317.6007805084402
 20
345.3466814672499
 30
0.0
 10
327.8139791367686
 20
332.8912626183475
 30
0.0
 10
327.0664077669519
 20
319.9386740599066
 30
0.0
 10
327.0664077669519
 20
319.9386740599066
 30
0.0
 10
288.4501537521346
 20
331.7655487581779
 30
0.0
 10
289.2047453995501
 20
363.2820182425129
 30
0.0
 10
289.2047453995501
 20
363.2820182425129
 30
0.0
  0
SPLINE
  5
AD
330
1F
100
AcDbEntity
  8
_U_00D5_U_00BA_U_2264_U_20
 62
    23
100
AcDbSpline
210
0.0
220
0.0
230
1.0
 70
    11
 71
     3
 72
    14
 73
    10
 74
     0
 42
0.0000000001
 43
0.0000000001
 12
1.0
 22
0.0
 32
0.0
 13
1.0
 23
0.0
 33
0.0
 40
0.0
 40
0.0
 40
0.0
 40
0.0
 40
1.0
 40
1.0
 40
1.0
 40
2.0
 40
2.0
 40
2.0
 40
3.0
 40
3.0
 40
3.0
 40
3.0
 10
279.7389417521539
 20
352.944429911764
 30
0.0
 10
279.7389417521539
 20
352.944429911764
 30
0.0
 10
281.7319597568634
 20
355.6842785221901
 30
0.0
 10
286.21505964249
 20
352.944429911764
 30
0.0
 10
290.6987239725466
 20
350.2038316211115
 30
0.0
 10
291.8202750550445
 20
343.3543337403012
 30
0.0
 10
291.8202750550445
 20
343.3543337403012
 30
0.0
 10
277.3720145903171
 20
342.857693197416
 30
0.0
 10
279.7389417521539
 20
352.944429911764
 30
0.0
 10
279.7389417521539
 20
352.944429911764
 30
0.0
  0
SPLINE
  5
AE
330
1F
100
AcDbEntity
  8
_U_00D5_U_00BA_U_2264_U_20
 62
    23
100
AcDbSpline
210
0.0
220
0.0
230
1.0
 70
    11
 71
     3
 72
    14
 73
    10
 74
     0
 42
0.0000000001
 43
0.0000000001
 12
1.0
 22
0.0
 32
0.0
 13
1.0
 23
0.0
 33
0.0
 40
0.0
 40
0.0
 40
0.0
 40
0.0
 40
1.0
 40
1.0
 40
1.0
 40
2.0
 40
2.0
 40
2.0
 40
3.0
 40
3.0
 40
3.0
 40
3.0
 10
273.8845241237348
 20
337.2506433404637
 30
0.0
 10
273.8845241237348
 20
337.2506433404637
 30
0.0
 10
276.3752762824126
 20
340.9874065784643
 30
0.0
 10
282.2303289108156
 20
337.9982147102805
 30
0.0
 10
288.0825240392914
 20
335.0096931198573
 30
0.0
 10
292.442963094714
 20
327.6606971962348
 30
0.0
 10
292.442963094714
 20
327.6606971962348
 30
0.0
 10
272.1407788904436
 20
325.7926683550032
 30
0.0
 10
273.8845241237348
 20
337.2506433404637
 30
0.0
 10
273.8845241237348
 20
337.2506433404637
 30
0.0
  0
SPLINE
  5
AF
330
1F
100
AcDbEntity
  8
_U_00D5_U_00BA_U_2264_U_20
 62
    23
100
AcDbSpline
210
0.0
220
0.0
230
1.0
 70
    11
 71
     3
 72
    14
 73
    10
 74
     0
 42
0.0000000001
 43
0.0000000001
 12
1.0
 22
0.0
 32
0.0
 13
1.0
 23
0.0
 33
0.0
 40
0.0
 40
0.0
 40
0.0
 40
0.0
 40
1.0
 40
1.0
 40
1.0
 40
2.0
 40
2.0
 40
2.0
 40
3.0
 40
3.0
 40
3.0
 40
3.0
 10
272.4510469380836
 20
319.601489068509
 30
0.0
 10
273.1059435880425
 20
311.1107984517912
 30
0.0
 10
275.2039482567401
 20
303.0292242135249
 30
0.0
 10
278.508558727988
 20
295.5965494031482
 30
0.0
 10
267.6542570604599
 20
306.4941721806823
 30
0.0
 10
265.6237740567063
 20
322.8878609291111
 30
0.0
 10
265.6237740567063
 20
322.8878609291111
 30
0.0
 10
265.6237740567063
 20
322.8878609291111
 30
0.0
 10
268.4059912079483
 20
322.1381728926816
 30
0.0
 10
272.4510469380836
 20
319.601489068509
 30
0.0
  0
SPLINE
  5
B0
330
1F
100
AcDbEntity
  8
_U_00D5_U_00BA_U_2264_U_20
 62
    23
100
AcDbSpline
210
0.0
220
0.0
230
1.0
 70
    11
 71
     3
 72
    17
 73
    13
 74
     0
 42
0.0000000001
 43
0.0000000001
 12
1.0
 22
0.0
 32
0.0
 13
1.0
 23
0.0
 33
0.0
 40
0.0
 40
0.0
 40
0.0
 40
0.0
 40
1.0
 40
1.0
 40
1.0
 40
2.0
 40
2.0
 40
2.0
 40
3.0
 40
3.0
 40
3.0
 40
4.0
 40
4.0
 40
4.0
 40
4.0
 10
278.853751774737
 20
294.8329972004058
 30
0.0
 10
283.0717391671272
 20
285.6326941017917
 30
0.0
 10
289.1287217903784
 20
277.4548115326492
 30
0.0
 10
296.5713802116115
 20
270.7807147584751
 30
0.0
 10
301.4261314766454
 20
258.8261697856832
 30
0.0
 10
298.3920662762731
 20
251.3430477543713
 30
0.0
 10
298.3920662762731
 20
251.3430477543713
 30
0.0
 10
262.520141080331
 20
263.031845233943
 30
0.0
 10
256.9157723344215
 20
308.5212332400787
 30
0.0
 10
256.9157723344215
 20
308.5212332400787
 30
0.0
 10
256.9157723344215
 20
308.5212332400787
 30
0.0
 10
266.9177276348059
 20
305.8399458084841
 30
0.0
 10
278.853751774737
 20
294.8329972004058
 30
0.0
  0
SPLINE
  5
B1
330
1F
100
AcDbEntity
  8
_U_00D5_U_00BA_U_2264_U_20
 62
    23
100
AcDbSpline
210
0.0
220
0.0
230
1.0
 70
    11
 71
     3
 72
    14
 73
    10
 74
     0
 42
0.0000000001
 43
0.0000000001
 12
1.0
 22
0.0
 32
0.0
 13
1.0
 23
0.0
 33
0.0
 40
0.0
 40
0.0
 40
0.0
 40
0.0
 40
1.0
 40
1.0
 40
1.0
 40
2.0
 40
2.0
 40
2.0
 40
3.0
 40
3.0
 40
3.0
 40
3.0
 10
240.1644727617827
 20
309.8074609850421
 30
0.0
 10
240.1644727617827
 20
309.8074609850421
 30
0.0
 10
247.1401592504848
 20
311.8004437119747
 30
0.0
 10
250.8761110996172
 20
307.4410277120815
 30
0.0
 10
254.6128743376177
 20
303.0822467121722
 30
0.0
 10
255.3604457074345
 20
292.6203397568554
 30
0.0
 10
255.3604457074345
 20
292.6203397568554
 30
0.0
 10
237.1754925602602
 20
300.3423981709604
 30
0.0
 10
240.1644727617827
 20
309.8074609850421
 30
0.0
 10
240.1644727617827
 20
309.8074609850421
 30
0.0
  0
SPLINE
  5
B2
330
1F
100
AcDbEntity
  8
_U_00D5_U_00BA_U_2264_U_20
 62
    23
100
AcDbSpline
210
0.0
220
0.0
230
1.0
 70
    11
 71
     3
 72
    14
 73
    10
 74
     0
 42
0.0000000001
 43
0.0000000001
 12
1.0
 22
0.0
 32
0.0
 13
1.0
 23
0.0
 33
0.0
 40
0.0
 40
0.0
 40
0.0
 40
0.0
 40
1.0
 40
1.0
 40
1.0
 40
2.0
 40
2.0
 40
2.0
 40
3.0
 40
3.0
 40
3.0
 40
3.0
 10
226.4642775557483
 20
292.8689775282899
 30
0.0
 10
226.4642775557483
 20
292.8689775282899
 30
0.0
 10
237.6743203253118
 20
298.1008482281471
 30
0.0
 10
249.8799372361428
 20
291.1252322949988
 30
0.0
 10
262.0851308136513
 20
284.151486084025
 30
0.0
 10
268.4583787066117
 20
265.6972929437196
 30
0.0
 10
268.4583787066117
 20
265.6972929437196
 30
0.0
 10
221.7724037865591
 20
267.1732445727316
 30
0.0
 10
226.4642775557483
 20
292.8689775282899
 30
0.0
 10
226.4642775557483
 20
292.8689775282899
 30
0.0
  0
SPLINE
  5
B3
330
1F
100
AcDbEntity
  8
_U_00D5_U_00BA_U_2264_U_20
 62
    23
100
AcDbSpline
210
0.0
220
0.0
230
1.0
 70
    11
 71
     3
 72
    14
 73
    10
 74
     0
 42
0.0000000001
 43
0.0000000001
 12
1.0
 22
0.0
 32
0.0
 13
1.0
 23
0.0
 33
0.0
 40
0.0
 40
0.0
 40
0.0
 40
0.0
 40
1.0
 40
1.0
 40
1.0
 40
2.0
 40
2.0
 40
2.0
 40
3.0
 40
3.0
 40
3.0
 40
3.0
 10
258.8467720073798
 20
257.7454703688097
 30
0.0
 10
242.1586549331291
 20
244.5442440389344
 30
0.0
 10
229.2036322080837
 20
259.0497603355345
 30
0.0
 10
229.2036322080837
 20
259.0497603355345
 30
0.0
 10
229.2036322080837
 20
259.0497603355345
 30
0.0
 10
234.6853401237893
 20
265.2188910114801
 30
0.0
 10
243.9040582219335
 20
263.9746085432245
 30
0.0
 10
253.122987986739
 20
262.7287385750092
 30
0.0
 10
258.8467720073798
 20
257.7454703688097
 30
0.0
 10
258.8467720073798
 20
257.7454703688097
 30
0.0
  0
SPLINE
  5
B4
330
1F
100
AcDbEntity
  8
_U_00D5_U_00BA_U_2264_U_20
 62
    23
100
AcDbSpline
210
0.0
220
0.0
230
1.0
 70
    11
 71
     3
 72
    14
 73
    10
 74
     0
 42
0.0000000001
 43
0.0000000001
 12
1.0
 22
0.0
 32
0.0
 13
1.0
 23
0.0
 33
0.0
 40
0.0
 40
0.0
 40
0.0
 40
0.0
 40
1.0
 40
1.0
 40
1.0
 40
2.0
 40
2.0
 40
2.0
 40
3.0
 40
3.0
 40
3.0
 40
3.0
 10
222.2298859971099
 20
276.9267384905659
 30
0.0
 10
228.9556647144099
 20
275.1829932572747
 30
0.0
 10
232.6929923968405
 20
267.4609348431698
 30
0.0
 10
232.6929923968405
 20
267.4609348431698
 30
0.0
 10
214.7564300766626
 20
259.7396172623792
 30
0.0
 10
209.7757018703982
 20
272.1938013890909
 30
0.0
 10
209.7757018703982
 20
272.1938013890909
 30
0.0
 10
209.7757018703982
 20
272.1938013890909
 30
0.0
 10
215.50467172424
 20
278.6704131683032
 30
0.0
 10
222.2298859971099
 20
276.9267384905659
 30
0.0
  0
SPLINE
  5
B5
330
1F
100
AcDbEntity
  8
_U_00D5_U_00BA_U_2264_U_20
 62
    23
100
AcDbSpline
210
0.0
220
0.0
230
1.0
 70
    11
 71
     3
 72
    14
 73
    10
 74
     0
 42
0.0000000001
 43
0.0000000001
 12
1.0
 22
0.0
 32
0.0
 13
1.0
 23
0.0
 33
0.0
 40
0.0
 40
0.0
 40
0.0
 40
0.0
 40
1.0
 40
1.0
 40
1.0
 40
2.0
 40
2.0
 40
2.0
 40
3.0
 40
3.0
 40
3.0
 40
3.0
 10
231.1977791016533
 20
253.7607396371353
 30
0.0
 10
244.3996051537355
 20
243.5463768421698
 30
0.0
 10
243.9024001664203
 20
231.0389585501495
 30
0.0
 10
243.9024001664203
 20
231.0389585501495
 30
0.0
 10
213.3764340007581
 20
226.314276448464
 30
0.0
 10
205.5417336450824
 20
256.2520562402432
 30
0.0
 10
205.5417336450824
 20
256.2520562402432
 30
0.0
 10
205.5417336450824
 20
256.2520562402432
 30
0.0
 10
217.9948241607109
 20
263.9746085432245
 30
0.0
 10
231.1977791016533
 20
253.7607396371353
 30
0.0
  0
SPLINE
  5
B6
330
1F
100
AcDbEntity
  8
_U_00D5_U_00BA_U_2264_U_20
 62
    23
100
AcDbSpline
210
0.0
220
0.0
230
1.0
 70
    11
 71
     3
 72
    14
 73
    10
 74
     0
 42
0.0000000001
 43
0.0000000001
 12
1.0
 22
0.0
 32
0.0
 13
1.0
 23
0.0
 33
0.0
 40
0.0
 40
0.0
 40
0.0
 40
0.0
 40
1.0
 40
1.0
 40
1.0
 40
2.0
 40
2.0
 40
2.0
 40
3.0
 40
3.0
 40
3.0
 40
3.0
 10
208.77889300694
 20
228.2809419538457
 30
0.0
 10
208.77889300694
 20
228.2809419538457
 30
0.0
 10
211.2696804433947
 20
232.8375607264856
 30
0.0
 10
219.9889357765036
 20
230.5324755075154
 30
0.0
 10
228.7070622207523
 20
228.228342788521
 30
0.0
 10
232.6929923968405
 20
219.8692030017804
 30
0.0
 10
232.6929923968405
 20
219.8692030017804
 30
0.0
 10
215.7538739401045
 20
212.3818829150201
 30
0.0
 10
208.77889300694
 20
228.2809419538457
 30
0.0
 10
208.77889300694
 20
228.2809419538457
 30
0.0
  0
SPLINE
  5
B7
330
1F
100
AcDbEntity
  8
_U_00D5_U_00BA_U_2264_U_20
 62
    23
100
AcDbSpline
210
0.0
220
0.0
230
1.0
 70
    11
 71
     3
 72
    14
 73
    10
 74
     0
 42
0.0000000001
 43
0.0000000001
 12
1.0
 22
0.0
 32
0.0
 13
1.0
 23
0.0
 33
0.0
 40
0.0
 40
0.0
 40
0.0
 40
0.0
 40
1.0
 40
1.0
 40
1.0
 40
2.0
 40
2.0
 40
2.0
 40
3.0
 40
3.0
 40
3.0
 40
3.0
 10
218.7423955305277
 20
201.5680448575708
 30
0.0
 10
218.7423955305277
 20
201.5680448575708
 30
0.0
 10
216.5014453099213
 20
209.6705035397487
 30
0.0
 10
229.4540338683621
 20
213.1592287285217
 30
0.0
 10
242.4078218712168
 20
216.6466486395502
 30
0.0
 10
250.8761110996172
 20
211.4585929385752
 30
0.0
 10
250.8761110996172
 20
211.4585929385752
 30
0.0
 10
240.3192010911686
 20
190.6655537468276
 30
0.0
 10
218.7423955305277
 20
201.5680448575708
 30
0.0
 10
218.7423955305277
 20
201.5680448575708
 30
0.0
  0
SPLINE
  5
B8
330
1F
100
AcDbEntity
  8
_U_00D5_U_00BA_U_2264_U_20
 62
    23
100
AcDbSpline
210
0.0
220
0.0
230
1.0
 70
    11
 71
     3
 72
    14
 73
    10
 74
     0
 42
0.0000000001
 43
0.0000000001
 12
1.0
 22
0.0
 32
0.0
 13
1.0
 23
0.0
 33
0.0
 40
0.0
 40
0.0
 40
0.0
 40
0.0
 40
1.0
 40
1.0
 40
1.0
 40
2.0
 40
2.0
 40
2.0
 40
3.0
 40
3.0
 40
3.0
 40
3.0
 10
228.2086930668001
 20
193.2297542369649
 30
0.0
 10
228.2086930668001
 20
193.2297542369649
 30
0.0
 10
233.1907265508089
 20
196.717315259101
 30
0.0
 10
242.905026858532
 20
193.2297542369649
 30
0.0
 10
252.620526610669
 20
189.7424048814902
 30
0.0
 10
255.3604457074345
 20
179.7793962467788
 30
0.0
 10
255.3604457074345
 20
179.7793962467788
 30
0.0
 10
234.4384309634218
 20
177.3237454760944
 30
0.0
 10
228.2086930668001
 20
193.2297542369649
 30
0.0
 10
228.2086930668001
 20
193.2297542369649
 30
0.0
  0
SPLINE
  5
B9
330
1F
100
AcDbEntity
  8
_U_00D5_U_00BA_U_2264_U_20
 62
    23
100
AcDbSpline
210
0.0
220
0.0
230
1.0
 70
    11
 71
     3
 72
    14
 73
    10
 74
     0
 42
0.0000000001
 43
0.0000000001
 12
1.0
 22
0.0
 32
0.0
 13
1.0
 23
0.0
 33
0.0
 40
0.0
 40
0.0
 40
0.0
 40
0.0
 40
1.0
 40
1.0
 40
1.0
 40
2.0
 40
2.0
 40
2.0
 40
3.0
 40
3.0
 40
3.0
 40
3.0
 10
260.0932416978019
 20
174.5481605469054
 30
0.0
 10
260.0932416978019
 20
174.5481605469054
 30
0.0
 10
264.82557907707
 20
179.2809565372729
 30
0.0
 10
275.7303279655333
 20
179.5214451422486
 30
0.0
 10
286.6358882428648
 20
179.7618984694475
 30
0.0
 10
291.4054436767389
 20
176.0433738420927
 30
0.0
 10
291.4054436767389
 20
176.0433738420927
 30
0.0
 10
280.6207450629906
 20
161.0965678345286
 30
0.0
 10
260.0932416978019
 20
174.5481605469054
 30
0.0
 10
260.0932416978019
 20
174.5481605469054
 30
0.0
  0
SPLINE
  5
BA
330
1F
100
AcDbEntity
  8
_U_00D5_U_00BA_U_2264_U_20
 62
    23
100
AcDbSpline
210
0.0
220
0.0
230
1.0
 70
    11
 71
     3
 72
    14
 73
    10
 74
     0
 42
0.0000000001
 43
0.0000000001
 12
1.0
 22
0.0
 32
0.0
 13
1.0
 23
0.0
 33
0.0
 40
0.0
 40
0.0
 40
0.0
 40
0.0
 40
1.0
 40
1.0
 40
1.0
 40
2.0
 40
2.0
 40
2.0
 40
3.0
 40
3.0
 40
3.0
 40
3.0
 10
297.6731051835042
 20
168.0715487676931
 30
0.0
 10
297.6731051835042
 20
168.0715487676931
 30
0.0
 10
293.9702791668601
 20
171.807641727933
 30
0.0
 10
298.0022468417737
 20
177.7859549087469
 30
0.0
 10
302.0331209056042
 20
183.7640917006763
 30
0.0
 10
307.420672434823
 20
186.0062413656966
 30
0.0
 10
307.420672434823
 20
186.0062413656966
 30
0.0
 10
308.418116298265
 20
169.0683223533744
 30
0.0
 10
297.6731051835042
 20
168.0715487676931
 30
0.0
 10
297.6731051835042
 20
168.0715487676931
 30
0.0
  0
SPLINE
  5
BB
330
1F
100
AcDbEntity
  8
_U_00D5_U_00BA_U_2264_U_20
 62
    23
100
AcDbSpline
210
0.0
220
0.0
230
1.0
 70
    11
 71
     3
 72
    14
 73
    10
 74
     0
 42
0.0000000001
 43
0.0000000001
 12
1.0
 22
0.0
 32
0.0
 13
1.0
 23
0.0
 33
0.0
 40
0.0
 40
0.0
 40
0.0
 40
0.0
 40
1.0
 40
1.0
 40
1.0
 40
2.0
 40
2.0
 40
2.0
 40
3.0
 40
3.0
 40
3.0
 40
3.0
 10
392.8857182351121
 20
200.0610135071294
 30
0.0
 10
392.8857182351121
 20
200.0610135071294
 30
0.0
 10
366.1715857417904
 20
202.8819656573832
 30
0.0
 10
366.5450715750306
 20
225.8600397933859
 30
0.0
 10
366.5450715750306
 20
225.8600397933859
 30
0.0
 10
378.6555799053362
 20
223.2455684711977
 30
0.0
 10
386.1440996256861
 20
216.1457042078859
 30
0.0
 10
393.6314551793699
 20
209.0469335556573
 30
0.0
 10
392.8857182351121
 20
200.0610135071294
 30
0.0
 10
392.8857182351121
 20
200.0610135071294
 30
0.0
  0
SPLINE
  5
BC
330
1F
100
AcDbEntity
  8
_U_00D5_U_00BA_U_2264_U_20
 62
    23
100
AcDbSpline
210
0.0
220
0.0
230
1.0
 70
    11
 71
     3
 72
    14
 73
    10
 74
     0
 42
0.0000000001
 43
0.0000000001
 12
1.0
 22
0.0
 32
0.0
 13
1.0
 23
0.0
 33
0.0
 40
0.0
 40
0.0
 40
0.0
 40
0.0
 40
1.0
 40
1.0
 40
1.0
 40
2.0
 40
2.0
 40
2.0
 40
3.0
 40
3.0
 40
3.0
 40
3.0
 10
420.72020239482
 20
203.6302073049606
 30
0.0
 10
420.72020239482
 20
203.6302073049606
 30
0.0
 10
399.4229374001442
 20
198.3978074384503
 30
0.0
 10
391.2037796244214
 20
217.2674316792682
 30
0.0
 10
391.2037796244214
 20
217.2674316792682
 30
0.0
 10
400.7944315664681
 20
220.6298977045957
 30
0.0
 10
411.9711371192294
 20
215.3987325602761
 30
0.0
 10
423.1491479497682
 20
210.1674263048489
 30
0.0
 10
420.72020239482
 20
203.6302073049606
 30
0.0
 10
420.72020239482
 20
203.6302073049606
 30
0.0
  0
SPLINE
  5
BD
330
1F
100
AcDbEntity
  8
_U_00D5_U_00BA_U_2264_U_20
 62
    23
100
AcDbSpline
210
0.0
220
0.0
230
1.0
 70
    11
 71
     3
 72
    14
 73
    10
 74
     0
 42
0.0000000001
 43
0.0000000001
 12
1.0
 22
0.0
 32
0.0
 13
1.0
 23
0.0
 33
0.0
 40
0.0
 40
0.0
 40
0.0
 40
0.0
 40
1.0
 40
1.0
 40
1.0
 40
2.0
 40
2.0
 40
2.0
 40
3.0
 40
3.0
 40
3.0
 40
3.0
 10
414.556398507472
 20
219.1348960760697
 30
0.0
 10
414.556398507472
 20
219.1348960760697
 30
0.0
 10
423.5226337830084
 20
224.9263075949852
 30
0.0
 10
433.7037651693518
 20
225.8600397933859
 30
0.0
 10
443.8860960001396
 20
226.7937719917866
 30
0.0
 10
446.6861284994396
 20
221.5637004585502
 30
0.0
 10
446.6861284994396
 20
221.5637004585502
 30
0.0
 10
446.6861284994396
 20
221.5637004585502
 30
0.0
 10
433.2368990583573
 20
205.1241858779572
 30
0.0
 10
414.556398507472
 20
219.1348960760697
 30
0.0
  0
SPLINE
  5
BE
330
1F
100
AcDbEntity
  8
_U_00D5_U_00BA_U_2264_U_20
 62
    23
100
AcDbSpline
210
0.0
220
0.0
230
1.0
 70
    11
 71
     3
 72
    14
 73
    10
 74
     0
 42
0.0000000001
 43
0.0000000001
 12
1.0
 22
0.0
 32
0.0
 13
1.0
 23
0.0
 33
0.0
 40
0.0
 40
0.0
 40
0.0
 40
0.0
 40
1.0
 40
1.0
 40
1.0
 40
2.0
 40
2.0
 40
2.0
 40
3.0
 40
3.0
 40
3.0
 40
3.0
 10
438.0935554460322
 20
228.559671668957
 30
0.0
 10
438.0935554460322
 20
228.559671668957
 30
0.0
 10
442.2042279450045
 20
232.3984935154649
 30
0.0
 10
446.6861284994396
 20
233.5189862646565
 30
0.0
 10
451.1714862760959
 20
234.6406079027083
 30
0.0
 10
453.97398821984
 20
231.0399110501253
 30
0.0
 10
453.97398821984
 20
231.0399110501253
 30
0.0
 10
453.97398821984
 20
231.0399110501253
 30
0.0
 10
450.0499704430432
 20
222.4799348796195
 30
0.0
 10
438.0935554460322
 20
228.559671668957
 30
0.0
  0
SPLINE
  5
BF
330
1F
100
AcDbEntity
  8
_U_00D5_U_00BA_U_2264_U_20
 62
    23
100
AcDbSpline
210
0.0
220
0.0
230
1.0
 70
    11
 71
     3
 72
    14
 73
    10
 74
     0
 42
0.0000000001
 43
0.0000000001
 12
1.0
 22
0.0
 32
0.0
 13
1.0
 23
0.0
 33
0.0
 40
0.0
 40
0.0
 40
0.0
 40
0.0
 40
1.0
 40
1.0
 40
1.0
 40
2.0
 40
2.0
 40
2.0
 40
3.0
 40
3.0
 40
3.0
 40
3.0
 10
423.3370726719434
 20
245.4988254034699
 30
0.0
 10
423.3370726719434
 20
245.4988254034699
 30
0.0
 10
430.6224982256776
 20
249.9596650118866
 30
0.0
 10
442.3921526671796
 20
249.7718108500125
 30
0.0
 10
454.1594082197936
 20
249.5861791880816
 30
0.0
 10
459.5774046073278
 20
239.8706794359447
 30
0.0
 10
459.5774046073278
 20
239.8706794359447
 30
0.0
 10
459.5774046073278
 20
239.8706794359447
 30
0.0
 10
446.750334054979
 20
228.8829924940417
 30
0.0
 10
423.3370726719434
 20
245.4988254034699
 30
0.0
  0
SPLINE
  5
C0
330
1F
100
AcDbEntity
  8
_U_00D5_U_00BA_U_2264_U_20
 62
    23
100
AcDbSpline
210
0.0
220
0.0
230
1.0
 70
    11
 71
     3
 72
    14
 73
    10
 74
     0
 42
0.0000000001
 43
0.0000000001
 12
1.0
 22
0.0
 32
0.0
 13
1.0
 23
0.0
 33
0.0
 40
0.0
 40
0.0
 40
0.0
 40
0.0
 40
1.0
 40
1.0
 40
1.0
 40
2.0
 40
2.0
 40
2.0
 40
3.0
 40
3.0
 40
3.0
 40
3.0
 10
444.0297471112149
 20
254.4655190635993
 30
0.0
 10
444.0297471112149
 20
254.4655190635993
 30
0.0
 10
448.7613437766988
 20
259.3237628285441
 30
0.0
 10
454.4922187752657
 20
262.0637524808633
 30
0.0
 10
460.2205890516114
 20
264.8030718554219
 30
0.0
 10
465.8265454390989
 20
260.942025009481
 30
0.0
 10
465.8265454390989
 20
260.942025009481
 30
0.0
 10
465.8265454390989
 20
260.942025009481
 30
0.0
 10
459.4736173851318
 20
245.6237087336171
 30
0.0
 10
444.0297471112149
 20
254.4655190635993
 30
0.0
  0
POLYLINE
  5
C1
330
1F
100
AcDbEntity
  8
_U_00D5_U_00BA_U_2264_U_20
 62
    23
100
AcDb2dPolyline
 66
     1
 10
0.0
 20
0.0
 30
0.0
  0
VERTEX
  5
C2
330
C1
100
AcDbEntity
  8
_U_00D5_U_00BA_U_2264_U_20
 62
    23
100
AcDbVertex
100
AcDb2dVertex
 10
546.9060618077182
 20
378.0575862943746
 30
0.0
  0
VERTEX
  5
C3
330
C1
100
AcDbEntity
  8
_U_00D5_U_00BA_U_2264_U_20
 62
    23
100
AcDbVertex
100
AcDb2dVertex
 10
540.9060526425513
 20
378.0575862943746
 30
0.0
  0
VERTEX
  5
C4
330
C1
100
AcDbEntity
  8
_U_00D5_U_00BA_U_2264_U_20
 62
    23
100
AcDbVertex
100
AcDb2dVertex
 10
540.9060526425513
 20
381.0576085158468
 30
0.0
  0
VERTEX
  5
C5
330
C1
100
AcDbEntity
  8
_U_00D5_U_00BA_U_2264_U_20
 62
    23
100
AcDbVertex
100
AcDb2dVertex
 10
546.9060618077182
 20
381.0576085158468
 30
0.0
  0
VERTEX
  5
C6
330
C1
100
AcDbEntity
  8
_U_00D5_U_00BA_U_2264_U_20
 62
    23
100
AcDbVertex
100
AcDb2dVertex
 10
546.9060618077182
 20
378.0575862943746
 30
0.0
  0
SEQEND
  5
C7
330
C1
100
AcDbEntity
  8
_U_00D5_U_00BA_U_2264_U_20
 62
    23
  0
POLYLINE
  5
C8
330
1F
100
AcDbEntity
  8
_U_00D5_U_00BA_U_2264_U_20
 62
    23
100
AcDb2dPolyline
 66
     1
 10
0.0
 20
0.0
 30
0.0
  0
VERTEX
  5
C9
330
C8
100
AcDbEntity
  8
_U_00D5_U_00BA_U_2264_U_20
 62
    23
100
AcDbVertex
100
AcDb2dVertex
 10
591.8631445742566
 20
352.1764237930087
 30
0.0
  0
VERTEX
  5
CA
330
C8
100
AcDbEntity
  8
_U_00D5_U_00BA_U_2264_U_20
 62
    23
100
AcDbVertex
100
AcDb2dVertex
 10
585.8631706868675
 20
352.1764237930087
 30
0.0
  0
VERTEX
  5
CB
330
C8
100
AcDbEntity
  8
_U_00D5_U_00BA_U_2264_U_20
 62
    23
100
AcDbVertex
100
AcDb2dVertex
 10
585.8631706868675
 20
355.1764196334282
 30
0.0
  0
VERTEX
  5
CC
330
C8
100
AcDbEntity
  8
_U_00D5_U_00BA_U_2264_U_20
 62
    23
100
AcDbVertex
100
AcDb2dVertex
 10
591.8631445742566
 20
355.1764196334282
 30
0.0
  0
VERTEX
  5
CD
330
C8
100
AcDbEntity
  8
_U_00D5_U_00BA_U_2264_U_20
 62
    23
100
AcDbVertex
100
AcDb2dVertex
 10
591.8631445742566
 20
352.1764237930087
 30
0.0
  0
SEQEND
  5
CE
330
C8
100
AcDbEntity
  8
_U_00D5_U_00BA_U_2264_U_20
 62
    23
  0
POLYLINE
  5
CF
330
1F
100
AcDbEntity
  8
_U_00D5_U_00BA_U_2264_U_20
 62
    23
100
AcDb2dPolyline
 66
     1
 10
0.0
 20
0.0
 30
0.0
  0
VERTEX
  5
D0
330
CF
100
AcDbEntity
  8
_U_00D5_U_00BA_U_2264_U_20
 62
    23
100
AcDbVertex
100
AcDb2dVertex
 10
561.1697493041519
 20
298.7243123789079
 30
0.0
  0
VERTEX
  5
D1
330
CF
100
AcDbEntity
  8
_U_00D5_U_00BA_U_2264_U_20
 62
    23
100
AcDbVertex
100
AcDb2dVertex
 10
555.1697754167632
 20
298.7243123789079
 30
0.0
  0
VERTEX
  5
D2
330
CF
100
AcDbEntity
  8
_U_00D5_U_00BA_U_2264_U_20
 62
    23
100
AcDbVertex
100
AcDb2dVertex
 10
555.1697754167632
 20
301.7243345245931
 30
0.0
  0
VERTEX
  5
D3
330
CF
100
AcDbEntity
  8
_U_00D5_U_00BA_U_2264_U_20
 62
    23
100
AcDbVertex
100
AcDb2dVertex
 10
561.1697493041519
 20
301.7243345245931
 30
0.0
  0
VERTEX
  5
D4
330
CF
100
AcDbEntity
  8
_U_00D5_U_00BA_U_2264_U_20
 62
    23
100
AcDbVertex
100
AcDb2dVertex
 10
561.1697493041519
 20
298.7243123789079
 30
0.0
  0
SEQEND
  5
D5
330
CF
100
AcDbEntity
  8
_U_00D5_U_00BA_U_2264_U_20
 62
    23
  0
POLYLINE
  5
D6
330
1F
100
AcDbEntity
  8
_U_00D5_U_00BA_U_2264_U_20
 62
    23
100
AcDb2dPolyline
 66
     1
 10
0.0
 20
0.0
 30
0.0
  0
VERTEX
  5
D7
330
D6
100
AcDbEntity
  8
_U_00D5_U_00BA_U_2264_U_20
 62
    23
100
AcDbVertex
100
AcDb2dVertex
 10
558.1697623604575
 20
261.5900777707255
 30
0.0
  0
VERTEX
  5
D8
330
D6
100
AcDbEntity
  8
_U_00D5_U_00BA_U_2264_U_20
 62
    23
100
AcDbVertex
100
AcDb2dVertex
 10
552.169753195291
 20
261.5900777707255
 30
0.0
  0
VERTEX
  5
D9
330
D6
100
AcDbEntity
  8
_U_00D5_U_00BA_U_2264_U_20
 62
    23
100
AcDbVertex
100
AcDb2dVertex
 10
552.169753195291
 20
264.590064638634
 30
0.0
  0
VERTEX
  5
DA
330
D6
100
AcDbEntity
  8
_U_00D5_U_00BA_U_2264_U_20
 62
    23
100
AcDbVertex
100
AcDb2dVertex
 10
558.1697623604575
 20
264.590064638634
 30
0.0
  0
VERTEX
  5
DB
330
D6
100
AcDbEntity
  8
_U_00D5_U_00BA_U_2264_U_20
 62
    23
100
AcDbVertex
100
AcDb2dVertex
 10
558.1697623604575
 20
261.5900777707255
 30
0.0
  0
SEQEND
  5
DC
330
D6
100
AcDbEntity
  8
_U_00D5_U_00BA_U_2264_U_20
 62
    23
  0
POLYLINE
  5
DD
330
1F
100
AcDbEntity
  8
_U_00D5_U_00BA_U_2264_U_20
 62
    23
100
AcDb2dPolyline
 66
     1
 10
0.0
 20
0.0
 30
0.0
  0
VERTEX
  5
DE
330
DD
100
AcDbEntity
  8
_U_00D5_U_00BA_U_2264_U_20
 62
    23
100
AcDbVertex
100
AcDb2dVertex
 10
399.8118396222691
 20
179.1304968188892
 30
0.0
  0
VERTEX
  5
DF
330
DD
100
AcDbEntity
  8
_U_00D5_U_00BA_U_2264_U_20
 62
    23
100
AcDbVertex
100
AcDb2dVertex
 10
399.8118396222691
 20
186.13048969586
 30
0.0
  0
VERTEX
  5
E0
330
DD
100
AcDbEntity
  8
_U_00D5_U_00BA_U_2264_U_20
 62
    23
100
AcDbVertex
100
AcDb2dVertex
 10
405.811848787436
 20
186.13048969586
 30
0.0
  0
VERTEX
  5
E1
330
DD
100
AcDbEntity
  8
_U_00D5_U_00BA_U_2264_U_20
 62
    23
100
AcDbVertex
100
AcDb2dVertex
 10
405.811848787436
 20
179.1304968188892
 30
0.0
  0
VERTEX
  5
E2
330
DD
100
AcDbEntity
  8
_U_00D5_U_00BA_U_2264_U_20
 62
    23
100
AcDbVertex
100
AcDb2dVertex
 10
399.8118396222691
 20
179.1304968188892
 30
0.0
  0
SEQEND
  5
E3
330
DD
100
AcDbEntity
  8
_U_00D5_U_00BA_U_2264_U_20
 62
    23
  0
POLYLINE
  5
E4
330
1F
100
AcDbEntity
  8
_U_00D5_U_00BA_U_2264_U_20
 62
    23
100
AcDb2dPolyline
 66
     1
 10
0.0
 20
0.0
 30
0.0
  0
VERTEX
  5
E5
330
E4
100
AcDbEntity
  8
_U_00D5_U_00BA_U_2264_U_20
 62
    23
100
AcDbVertex
100
AcDb2dVertex
 10
409.7638771197812
 20
179.1304968188892
 30
0.0
  0
VERTEX
  5
E6
330
E4
100
AcDbEntity
  8
_U_00D5_U_00BA_U_2264_U_20
 62
    23
100
AcDbVertex
100
AcDb2dVertex
 10
409.7638771197812
 20
186.13048969586
 30
0.0
  0
VERTEX
  5
E7
330
E4
100
AcDbEntity
  8
_U_00D5_U_00BA_U_2264_U_20
 62
    23
100
AcDbVertex
100
AcDb2dVertex
 10
415.7638862849481
 20
186.13048969586
 30
0.0
  0
VERTEX
  5
E8
330
E4
100
AcDbEntity
  8
_U_00D5_U_00BA_U_2264_U_20
 62
    23
100
AcDbVertex
100
AcDb2dVertex
 10
415.7638862849481
 20
179.1304968188892
 30
0.0
  0
VERTEX
  5
E9
330
E4
100
AcDbEntity
  8
_U_00D5_U_00BA_U_2264_U_20
 62
    23
100
AcDbVertex
100
AcDb2dVertex
 10
409.7638771197812
 20
179.1304968188892
 30
0.0
  0
SEQEND
  5
EA
330
E4
100
AcDbEntity
  8
_U_00D5_U_00BA_U_2264_U_20
 62
    23
  0
POLYLINE
  5
EB
330
1F
100
AcDbEntity
  8
_U_00D5_U_00BA_U_2264_U_20
 62
    23
100
AcDb2dPolyline
 66
     1
 10
0.0
 20
0.0
 30
0.0
  0
VERTEX
  5
EC
330
EB
100
AcDbEntity
  8
_U_00D5_U_00BA_U_2264_U_20
 62
    23
100
AcDbVertex
100
AcDb2dVertex
 10
399.8118396222691
 20
169.4603995655939
 30
0.0
  0
VERTEX
  5
ED
330
EB
100
AcDbEntity
  8
_U_00D5_U_00BA_U_2264_U_20
 62
    23
100
AcDbVertex
100
AcDb2dVertex
 10
399.8118396222691
 20
176.4603924425648
 30
0.0
  0
VERTEX
  5
EE
330
EB
100
AcDbEntity
  8
_U_00D5_U_00BA_U_2264_U_20
 62
    23
100
AcDbVertex
100
AcDb2dVertex
 10
405.811848787436
 20
176.4603924425648
 30
0.0
  0
VERTEX
  5
EF
330
EB
100
AcDbEntity
  8
_U_00D5_U_00BA_U_2264_U_20
 62
    23
100
AcDbVertex
100
AcDb2dVertex
 10
405.811848787436
 20
169.4603995655939
 30
0.0
  0
VERTEX
  5
F0
330
EB
100
AcDbEntity
  8
_U_00D5_U_00BA_U_2264_U_20
 62
    23
100
AcDbVertex
100
AcDb2dVertex
 10
399.8118396222691
 20
169.4603995655939
 30
0.0
  0
SEQEND
  5
F1
330
EB
100
AcDbEntity
  8
_U_00D5_U_00BA_U_2264_U_20
 62
    23
  0
POLYLINE
  5
F2
330
1F
100
AcDbEntity
  8
_U_00D5_U_00BA_U_2264_U_20
 62
    23
100
AcDb2dPolyline
 66
     1
 10
0.0
 20
0.0
 30
0.0
  0
VERTEX
  5
F3
330
F2
100
AcDbEntity
  8
_U_00D5_U_00BA_U_2264_U_20
 62
    23
100
AcDbVertex
100
AcDb2dVertex
 10
409.7638771197812
 20
169.4603995655939
 30
0.0
  0
VERTEX
  5
F4
330
F2
100
AcDbEntity
  8
_U_00D5_U_00BA_U_2264_U_20
 62
    23
100
AcDbVertex
100
AcDb2dVertex
 10
409.7638771197812
 20
176.4603924425648
 30
0.0
  0
VERTEX
  5
F5
330
F2
100
AcDbEntity
  8
_U_00D5_U_00BA_U_2264_U_20
 62
    23
100
AcDbVertex
100
AcDb2dVertex
 10
415.7638862849481
 20
176.4603924425648
 30
0.0
  0
VERTEX
  5
F6
330
F2
100
AcDbEntity
  8
_U_00D5_U_00BA_U_2264_U_20
 62
    23
100
AcDbVertex
100
AcDb2dVertex
 10
415.7638862849481
 20
169.4603995655939
 30
0.0
  0
VERTEX
  5
F7
330
F2
100
AcDbEntity
  8
_U_00D5_U_00BA_U_2264_U_20
 62
    23
100
AcDbVertex
100
AcDb2dVertex
 10
409.7638771197812
 20
169.4603995655939
 30
0.0
  0
SEQEND
  5
F8
330
F2
100
AcDbEntity
  8
_U_00D5_U_00BA_U_2264_U_20
 62
    23
  0
POLYLINE
  5
F9
330
1F
100
AcDbEntity
  8
_U_00D5_U_00BA_U_2264_U_20
 62
    23
100
AcDb2dPolyline
 66
     1
 10
0.0
 20
0.0
 30
0.0
  0
VERTEX
  5
FA
330
F9
100
AcDbEntity
  8
_U_00D5_U_00BA_U_2264_U_20
 62
    23
100
AcDbVertex
100
AcDb2dVertex
 10
418.3238535065302
 20
179.1304968188892
 30
0.0
  0
VERTEX
  5
FB
330
F9
100
AcDbEntity
  8
_U_00D5_U_00BA_U_2264_U_20
 62
    23
100
AcDbVertex
100
AcDb2dVertex
 10
418.3238535065302
 20
186.13048969586
 30
0.0
  0
VERTEX
  5
FC
330
F9
100
AcDbEntity
  8
_U_00D5_U_00BA_U_2264_U_20
 62
    23
100
AcDbVertex
100
AcDb2dVertex
 10
424.323862671697
 20
186.13048969586
 30
0.0
  0
VERTEX
  5
FD
330
F9
100
AcDbEntity
  8
_U_00D5_U_00BA_U_2264_U_20
 62
    23
100
AcDbVertex
100
AcDb2dVertex
 10
424.323862671697
 20
179.1304968188892
 30
0.0
  0
VERTEX
  5
FE
330
F9
100
AcDbEntity
  8
_U_00D5_U_00BA_U_2264_U_20
 62
    23
100
AcDbVertex
100
AcDb2dVertex
 10
418.3238535065302
 20
179.1304968188892
 30
0.0
  0
SEQEND
  5
FF
330
F9
100
AcDbEntity
  8
_U_00D5_U_00BA_U_2264_U_20
 62
    23
  0
POLYLINE
  5
100
330
1F
100
AcDbEntity
  8
_U_00D5_U_00BA_U_2264_U_20
 62
    23
100
AcDb2dPolyline
 66
     1
 10
0.0
 20
0.0
 30
0.0
  0
VERTEX
  5
101
330
100
100
AcDbEntity
  8
_U_00D5_U_00BA_U_2264_U_20
 62
    23
100
AcDbVertex
100
AcDb2dVertex
 10
418.3238535065302
 20
169.4603995655939
 30
0.0
  0
VERTEX
  5
102
330
100
100
AcDbEntity
  8
_U_00D5_U_00BA_U_2264_U_20
 62
    23
100
AcDbVertex
100
AcDb2dVertex
 10
418.3238535065302
 20
176.4603924425648
 30
0.0
  0
VERTEX
  5
103
330
100
100
AcDbEntity
  8
_U_00D5_U_00BA_U_2264_U_20
 62
    23
100
AcDbVertex
100
AcDb2dVertex
 10
424.323862671697
 20
176.4603924425648
 30
0.0
  0
VERTEX
  5
104
330
100
100
AcDbEntity
  8
_U_00D5_U_00BA_U_2264_U_20
 62
    23
100
AcDbVertex
100
AcDb2dVertex
 10
424.323862671697
 20
169.4603995655939
 30
0.0
  0
VERTEX
  5
105
330
100
100
AcDbEntity
  8
_U_00D5_U_00BA_U_2264_U_20
 62
    23
100
AcDbVertex
100
AcDb2dVertex
 10
418.3238535065302
 20
169.4603995655939
 30
0.0
  0
SEQEND
  5
106
330
100
100
AcDbEntity
  8
_U_00D5_U_00BA_U_2264_U_20
 62
    23
  0
POLYLINE
  5
107
330
1F
100
AcDbEntity
  8
_U_00D5_U_00BA_U_2264_U_20
 62
    23
100
AcDb2dPolyline
 66
     1
 10
0.0
 20
0.0
 30
0.0
  0
VERTEX
  5
108
330
107
100
AcDbEntity
  8
_U_00D5_U_00BA_U_2264_U_20
 62
    23
100
AcDbVertex
100
AcDb2dVertex
 10
427.5791548931052
 20
179.1304968188892
 30
0.0
  0
VERTEX
  5
109
330
107
100
AcDbEntity
  8
_U_00D5_U_00BA_U_2264_U_20
 62
    23
100
AcDbVertex
100
AcDb2dVertex
 10
427.5791548931052
 20
186.13048969586
 30
0.0
  0
VERTEX
  5
10A
330
107
100
AcDbEntity
  8
_U_00D5_U_00BA_U_2264_U_20
 62
    23
100
AcDbVertex
100
AcDb2dVertex
 10
433.579164058272
 20
186.13048969586
 30
0.0
  0
VERTEX
  5
10B
330
107
100
AcDbEntity
  8
_U_00D5_U_00BA_U_2264_U_20
 62
    23
100
AcDbVertex
100
AcDb2dVertex
 10
433.579164058272
 20
179.1304968188892
 30
0.0
  0
VERTEX
  5
10C
330
107
100
AcDbEntity
  8
_U_00D5_U_00BA_U_2264_U_20
 62
    23
100
AcDbVertex
100
AcDb2dVertex
 10
427.5791548931052
 20
179.1304968188892
 30
0.0
  0
SEQEND
  5
10D
330
107
100
AcDbEntity
  8
_U_00D5_U_00BA_U_2264_U_20
 62
    23
  0
POLYLINE
  5
10E
330
1F
100
AcDbEntity
  8
_U_00D5_U_00BA_U_2264_U_20
 62
    23
100
AcDb2dPolyline
 66
     1
 10
0.0
 20
0.0
 30
0.0
  0
VERTEX
  5
10F
330
10E
100
AcDbEntity
  8
_U_00D5_U_00BA_U_2264_U_20
 62
    23
100
AcDbVertex
100
AcDb2dVertex
 10
427.5791548931052
 20
169.4603995655939
 30
0.0
  0
VERTEX
  5
110
330
10E
100
AcDbEntity
  8
_U_00D5_U_00BA_U_2264_U_20
 62
    23
100
AcDbVertex
100
AcDb2dVertex
 10
427.5791548931052
 20
176.4603924425648
 30
0.0
  0
VERTEX
  5
111
330
10E
100
AcDbEntity
  8
_U_00D5_U_00BA_U_2264_U_20
 62
    23
100
AcDbVertex
100
AcDb2dVertex
 10
433.579164058272
 20
176.4603924425648
 30
0.0
  0
VERTEX
  5
112
330
10E
100
AcDbEntity
  8
_U_00D5_U_00BA_U_2264_U_20
 62
    23
100
AcDbVertex
100
AcDb2dVertex
 10
433.579164058272
 20
169.4603995655939
 30
0.0
  0
VERTEX
  5
113
330
10E
100
AcDbEntity
  8
_U_00D5_U_00BA_U_2264_U_20
 62
    23
100
AcDbVertex
100
AcDb2dVertex
 10
427.5791548931052
 20
169.4603995655939
 30
0.0
  0
SEQEND
  5
114
330
10E
100
AcDbEntity
  8
_U_00D5_U_00BA_U_2264_U_20
 62
    23
  0
POLYLINE
  5
115
330
1F
100
AcDbEntity
  8
_U_00D5_U_00BA_U_2264_U_20
 62
    23
100
AcDb2dPolyline
 66
     1
 10
0.0
 20
0.0
 30
0.0
  0
VERTEX
  5
116
330
115
100
AcDbEntity
  8
_U_00D5_U_00BA_U_2264_U_20
 62
    23
100
AcDbVertex
100
AcDb2dVertex
 10
435.7577079466163
 20
179.1304968188892
 30
0.0
  0
VERTEX
  5
117
330
115
100
AcDbEntity
  8
_U_00D5_U_00BA_U_2264_U_20
 62
    23
100
AcDbVertex
100
AcDb2dVertex
 10
435.7577079466163
 20
186.13048969586
 30
0.0
  0
VERTEX
  5
118
330
115
100
AcDbEntity
  8
_U_00D5_U_00BA_U_2264_U_20
 62
    23
100
AcDbVertex
100
AcDb2dVertex
 10
441.757681834005
 20
186.13048969586
 30
0.0
  0
VERTEX
  5
119
330
115
100
AcDbEntity
  8
_U_00D5_U_00BA_U_2264_U_20
 62
    23
100
AcDbVertex
100
AcDb2dVertex
 10
441.757681834005
 20
179.1304968188892
 30
0.0
  0
VERTEX
  5
11A
330
115
100
AcDbEntity
  8
_U_00D5_U_00BA_U_2264_U_20
 62
    23
100
AcDbVertex
100
AcDb2dVertex
 10
435.7577079466163
 20
179.1304968188892
 30
0.0
  0
SEQEND
  5
11B
330
115
100
AcDbEntity
  8
_U_00D5_U_00BA_U_2264_U_20
 62
    23
  0
POLYLINE
  5
11C
330
1F
100
AcDbEntity
  8
_U_00D5_U_00BA_U_2264_U_20
 62
    23
100
AcDb2dPolyline
 66
     1
 10
0.0
 20
0.0
 30
0.0
  0
VERTEX
  5
11D
330
11C
100
AcDbEntity
  8
_U_00D5_U_00BA_U_2264_U_20
 62
    23
100
AcDbVertex
100
AcDb2dVertex
 10
435.7577079466163
 20
169.4603995655939
 30
0.0
  0
VERTEX
  5
11E
330
11C
100
AcDbEntity
  8
_U_00D5_U_00BA_U_2264_U_20
 62
    23
100
AcDbVertex
100
AcDb2dVertex
 10
435.7577079466163
 20
176.4603924425648
 30
0.0
  0
VERTEX
  5
11F
330
11C
100
AcDbEntity
  8
_U_00D5_U_00BA_U_2264_U_20
 62
    23
100
AcDbVertex
100
AcDb2dVertex
 10
441.757681834005
 20
176.4603924425648
 30
0.0
  0
VERTEX
  5
120
330
11C
100
AcDbEntity
  8
_U_00D5_U_00BA_U_2264_U_20
 62
    23
100
AcDbVertex
100
AcDb2dVertex
 10
441.757681834005
 20
169.4603995655939
 30
0.0
  0
VERTEX
  5
121
330
11C
100
AcDbEntity
  8
_U_00D5_U_00BA_U_2264_U_20
 62
    23
100
AcDbVertex
100
AcDb2dVertex
 10
435.7577079466163
 20
169.4603995655939
 30
0.0
  0
SEQEND
  5
122
330
11C
100
AcDbEntity
  8
_U_00D5_U_00BA_U_2264_U_20
 62
    23
  0
POLYLINE
  5
123
330
1F
100
AcDbEntity
  8
_U_00D5_U_00BA_U_2264_U_20
 62
    23
100
AcDb2dPolyline
 66
     1
 10
0.0
 20
0.0
 30
0.0
  0
VERTEX
  5
124
330
123
100
AcDbEntity
  8
_U_00D5_U_00BA_U_2264_U_20
 62
    23
100
AcDbVertex
100
AcDb2dVertex
 10
379.9597993494546
 20
179.1304968188892
 30
0.0
  0
VERTEX
  5
125
330
123
100
AcDbEntity
  8
_U_00D5_U_00BA_U_2264_U_20
 62
    23
100
AcDbVertex
100
AcDb2dVertex
 10
379.9597993494546
 20
186.13048969586
 30
0.0
  0
VERTEX
  5
126
330
123
100
AcDbEntity
  8
_U_00D5_U_00BA_U_2264_U_20
 62
    23
100
AcDbVertex
100
AcDb2dVertex
 10
385.9598085146212
 20
186.13048969586
 30
0.0
  0
VERTEX
  5
127
330
123
100
AcDbEntity
  8
_U_00D5_U_00BA_U_2264_U_20
 62
    23
100
AcDbVertex
100
AcDb2dVertex
 10
385.9598085146212
 20
179.1304968188892
 30
0.0
  0
VERTEX
  5
128
330
123
100
AcDbEntity
  8
_U_00D5_U_00BA_U_2264_U_20
 62
    23
100
AcDbVertex
100
AcDb2dVertex
 10
379.9597993494546
 20
179.1304968188892
 30
0.0
  0
SEQEND
  5
129
330
123
100
AcDbEntity
  8
_U_00D5_U_00BA_U_2264_U_20
 62
    23
  0
POLYLINE
  5
12A
330
1F
100
AcDbEntity
  8
_U_00D5_U_00BA_U_2264_U_20
 62
    23
100
AcDb2dPolyline
 66
     1
 10
0.0
 20
0.0
 30
0.0
  0
VERTEX
  5
12B
330
12A
100
AcDbEntity
  8
_U_00D5_U_00BA_U_2264_U_20
 62
    23
100
AcDbVertex
100
AcDb2dVertex
 10
389.9118368469663
 20
179.1304968188892
 30
0.0
  0
VERTEX
  5
12C
330
12A
100
AcDbEntity
  8
_U_00D5_U_00BA_U_2264_U_20
 62
    23
100
AcDbVertex
100
AcDb2dVertex
 10
389.9118368469663
 20
186.13048969586
 30
0.0
  0
VERTEX
  5
12D
330
12A
100
AcDbEntity
  8
_U_00D5_U_00BA_U_2264_U_20
 62
    23
100
AcDbVertex
100
AcDb2dVertex
 10
395.9118460121332
 20
186.13048969586
 30
0.0
  0
VERTEX
  5
12E
330
12A
100
AcDbEntity
  8
_U_00D5_U_00BA_U_2264_U_20
 62
    23
100
AcDbVertex
100
AcDb2dVertex
 10
395.9118460121332
 20
179.1304968188892
 30
0.0
  0
VERTEX
  5
12F
330
12A
100
AcDbEntity
  8
_U_00D5_U_00BA_U_2264_U_20
 62
    23
100
AcDbVertex
100
AcDb2dVertex
 10
389.9118368469663
 20
179.1304968188892
 30
0.0
  0
SEQEND
  5
130
330
12A
100
AcDbEntity
  8
_U_00D5_U_00BA_U_2264_U_20
 62
    23
  0
POLYLINE
  5
131
330
1F
100
AcDbEntity
  8
_U_00D5_U_00BA_U_2264_U_20
 62
    23
100
AcDb2dPolyline
 66
     1
 10
0.0
 20
0.0
 30
0.0
  0
VERTEX
  5
132
330
131
100
AcDbEntity
  8
_U_00D5_U_00BA_U_2264_U_20
 62
    23
100
AcDbVertex
100
AcDb2dVertex
 10
379.9597993494546
 20
169.4603995655939
 30
0.0
  0
VERTEX
  5
133
330
131
100
AcDbEntity
  8
_U_00D5_U_00BA_U_2264_U_20
 62
    23
100
AcDbVertex
100
AcDb2dVertex
 10
379.9597993494546
 20
176.4603924425648
 30
0.0
  0
VERTEX
  5
134
330
131
100
AcDbEntity
  8
_U_00D5_U_00BA_U_2264_U_20
 62
    23
100
AcDbVertex
100
AcDb2dVertex
 10
385.9598085146212
 20
176.4603924425648
 30
0.0
  0
VERTEX
  5
135
330
131
100
AcDbEntity
  8
_U_00D5_U_00BA_U_2264_U_20
 62
    23
100
AcDbVertex
100
AcDb2dVertex
 10
385.9598085146212
 20
169.4603995655939
 30
0.0
  0
VERTEX
  5
136
330
131
100
AcDbEntity
  8
_U_00D5_U_00BA_U_2264_U_20
 62
    23
100
AcDbVertex
100
AcDb2dVertex
 10
379.9597993494546
 20
169.4603995655939
 30
0.0
  0
SEQEND
  5
137
330
131
100
AcDbEntity
  8
_U_00D5_U_00BA_U_2264_U_20
 62
    23
  0
POLYLINE
  5
138
330
1F
100
AcDbEntity
  8
_U_00D5_U_00BA_U_2264_U_20
 62
    23
100
AcDb2dPolyline
 66
     1
 10
0.0
 20
0.0
 30
0.0
  0
VERTEX
  5
139
330
138
100
AcDbEntity
  8
_U_00D5_U_00BA_U_2264_U_20
 62
    23
100
AcDbVertex
100
AcDb2dVertex
 10
389.9118368469663
 20
169.4603995655939
 30
0.0
  0
VERTEX
  5
13A
330
138
100
AcDbEntity
  8
_U_00D5_U_00BA_U_2264_U_20
 62
    23
100
AcDbVertex
100
AcDb2dVertex
 10
389.9118368469663
 20
176.4603924425648
 30
0.0
  0
VERTEX
  5
13B
330
138
100
AcDbEntity
  8
_U_00D5_U_00BA_U_2264_U_20
 62
    23
100
AcDbVertex
100
AcDb2dVertex
 10
395.9118460121332
 20
176.4603924425648
 30
0.0
  0
VERTEX
  5
13C
330
138
100
AcDbEntity
  8
_U_00D5_U_00BA_U_2264_U_20
 62
    23
100
AcDbVertex
100
AcDb2dVertex
 10
395.9118460121332
 20
169.4603995655939
 30
0.0
  0
VERTEX
  5
13D
330
138
100
AcDbEntity
  8
_U_00D5_U_00BA_U_2264_U_20
 62
    23
100
AcDbVertex
100
AcDb2dVertex
 10
389.9118368469663
 20
169.4603995655939
 30
0.0
  0
SEQEND
  5
13E
330
138
100
AcDbEntity
  8
_U_00D5_U_00BA_U_2264_U_20
 62
    23
  0
POLYLINE
  5
13F
330
1F
100
AcDbEntity
  8
_U_00D5_U_00BA_U_2264_U_20
 62
    23
100
AcDb2dPolyline
 66
     1
 10
0.0
 20
0.0
 30
0.0
  0
VERTEX
  5
140
330
13F
100
AcDbEntity
  8
_U_00D5_U_00BA_U_2264_U_20
 62
    23
100
AcDbVertex
100
AcDb2dVertex
 10
518.5425873703645
 20
279.0253076036936
 30
0.0
  0
VERTEX
  5
141
330
13F
100
AcDbEntity
  8
_U_00D5_U_00BA_U_2264_U_20
 62
    23
100
AcDbVertex
100
AcDb2dVertex
 10
512.5426134829754
 20
279.0253076036936
 30
0.0
  0
VERTEX
  5
142
330
13F
100
AcDbEntity
  8
_U_00D5_U_00BA_U_2264_U_20
 62
    23
100
AcDbVertex
100
AcDb2dVertex
 10
512.5426134829754
 20
282.0253297493788
 30
0.0
  0
VERTEX
  5
143
330
13F
100
AcDbEntity
  8
_U_00D5_U_00BA_U_2264_U_20
 62
    23
100
AcDbVertex
100
AcDb2dVertex
 10
518.5425873703645
 20
282.0253297493788
 30
0.0
  0
VERTEX
  5
144
330
13F
100
AcDbEntity
  8
_U_00D5_U_00BA_U_2264_U_20
 62
    23
100
AcDbVertex
100
AcDb2dVertex
 10
518.5425873703645
 20
279.0253076036936
 30
0.0
  0
SEQEND
  5
145
330
13F
100
AcDbEntity
  8
_U_00D5_U_00BA_U_2264_U_20
 62
    23
  0
POLYLINE
  5
146
330
1F
100
AcDbEntity
  8
_U_00D5_U_00BA_U_2264_U_20
 62
    23
100
AcDb2dPolyline
 66
     1
 10
0.0
 20
0.0
 30
0.0
  0
VERTEX
  5
147
330
146
100
AcDbEntity
  8
_U_00D5_U_00BA_U_2264_U_20
 62
    23
100
AcDbVertex
100
AcDb2dVertex
 10
636.0868023409785
 20
379.4575849051357
 30
0.0
  0
VERTEX
  5
148
330
146
100
AcDbEntity
  8
_U_00D5_U_00BA_U_2264_U_20
 62
    23
100
AcDbVertex
100
AcDb2dVertex
 10
630.0867931758116
 20
379.4575849051357
 30
0.0
  0
VERTEX
  5
149
330
146
100
AcDbEntity
  8
_U_00D5_U_00BA_U_2264_U_20
 62
    23
100
AcDbVertex
100
AcDb2dVertex
 10
630.0867931758116
 20
382.4576071266079
 30
0.0
  0
VERTEX
  5
14A
330
146
100
AcDbEntity
  8
_U_00D5_U_00BA_U_2264_U_20
 62
    23
100
AcDbVertex
100
AcDb2dVertex
 10
636.0868023409785
 20
382.4576071266079
 30
0.0
  0
VERTEX
  5
14B
330
146
100
AcDbEntity
  8
_U_00D5_U_00BA_U_2264_U_20
 62
    23
100
AcDbVertex
100
AcDb2dVertex
 10
636.0868023409785
 20
379.4575849051357
 30
0.0
  0
SEQEND
  5
14C
330
146
100
AcDbEntity
  8
_U_00D5_U_00BA_U_2264_U_20
 62
    23
  0
POLYLINE
  5
14D
330
1F
100
AcDbEntity
  8
_U_00D5_U_00BA_U_2264_U_20
 62
    23
100
AcDb2dPolyline
 66
     1
 10
0.0
 20
0.0
 30
0.0
  0
VERTEX
  5
14E
330
14D
100
AcDbEntity
  8
_U_00D5_U_00BA_U_2264_U_20
 62
    23
100
AcDbVertex
100
AcDb2dVertex
 10
580.5111084659835
 20
292.1973239343141
 30
0.0
  0
VERTEX
  5
14F
330
14D
100
AcDbEntity
  8
_U_00D5_U_00BA_U_2264_U_20
 62
    23
100
AcDbVertex
100
AcDb2dVertex
 10
574.5110993008166
 20
292.1973239343141
 30
0.0
  0
VERTEX
  5
150
330
14D
100
AcDbEntity
  8
_U_00D5_U_00BA_U_2264_U_20
 62
    23
100
AcDbVertex
100
AcDb2dVertex
 10
574.5110993008166
 20
295.1973108022225
 30
0.0
  0
VERTEX
  5
151
330
14D
100
AcDbEntity
  8
_U_00D5_U_00BA_U_2264_U_20
 62
    23
100
AcDbVertex
100
AcDb2dVertex
 10
580.5111084659835
 20
295.1973108022225
 30
0.0
  0
VERTEX
  5
152
330
14D
100
AcDbEntity
  8
_U_00D5_U_00BA_U_2264_U_20
 62
    23
100
AcDbVertex
100
AcDb2dVertex
 10
580.5111084659835
 20
292.1973239343141
 30
0.0
  0
SEQEND
  5
153
330
14D
100
AcDbEntity
  8
_U_00D5_U_00BA_U_2264_U_20
 62
    23
  0
POLYLINE
  5
154
330
1F
100
AcDbEntity
  8
_U_00D5_U_00BA_U_2264_U_20
 62
    23
100
AcDb2dPolyline
 66
     1
 10
0.0
 20
0.0
 30
0.0
  0
VERTEX
  5
155
330
154
100
AcDbEntity
  8
_U_00D5_U_00BA_U_2264_U_20
 62
    23
100
AcDbVertex
100
AcDb2dVertex
 10
586.0371959646019
 20
253.5282590875108
 30
0.0
  0
VERTEX
  5
156
330
154
100
AcDbEntity
  8
_U_00D5_U_00BA_U_2264_U_20
 62
    23
100
AcDbVertex
100
AcDb2dVertex
 10
580.0371867994351
 20
253.5282590875108
 30
0.0
  0
VERTEX
  5
157
330
154
100
AcDbEntity
  8
_U_00D5_U_00BA_U_2264_U_20
 62
    23
100
AcDbVertex
100
AcDb2dVertex
 10
580.0371867994351
 20
256.5282812331961
 30
0.0
  0
VERTEX
  5
158
330
154
100
AcDbEntity
  8
_U_00D5_U_00BA_U_2264_U_20
 62
    23
100
AcDbVertex
100
AcDb2dVertex
 10
586.0371959646019
 20
256.5282812331961
 30
0.0
  0
VERTEX
  5
159
330
154
100
AcDbEntity
  8
_U_00D5_U_00BA_U_2264_U_20
 62
    23
100
AcDbVertex
100
AcDb2dVertex
 10
586.0371959646019
 20
253.5282590875108
 30
0.0
  0
SEQEND
  5
15A
330
154
100
AcDbEntity
  8
_U_00D5_U_00BA_U_2264_U_20
 62
    23
  0
POLYLINE
  5
15B
330
1F
100
AcDbEntity
  8
_U_00D5_U_00BA_U_2264_U_20
 62
    23
100
AcDb2dPolyline
 66
     1
 10
0.0
 20
0.0
 30
0.0
  0
VERTEX
  5
15C
330
15B
100
AcDbEntity
  8
_U_00D5_U_00BA_U_2264_U_20
 62
    23
100
AcDbVertex
100
AcDb2dVertex
 10
608.0485537368769
 20
286.48691019111
 30
0.0
  0
VERTEX
  5
15D
330
15B
100
AcDbEntity
  8
_U_00D5_U_00BA_U_2264_U_20
 62
    23
100
AcDbVertex
100
AcDb2dVertex
 10
602.0485445717101
 20
286.48691019111
 30
0.0
  0
VERTEX
  5
15E
330
15B
100
AcDbEntity
  8
_U_00D5_U_00BA_U_2264_U_20
 62
    23
100
AcDbVertex
100
AcDb2dVertex
 10
602.0485445717101
 20
289.4868970590184
 30
0.0
  0
VERTEX
  5
15F
330
15B
100
AcDbEntity
  8
_U_00D5_U_00BA_U_2264_U_20
 62
    23
100
AcDbVertex
100
AcDb2dVertex
 10
608.0485537368769
 20
289.4868970590184
 30
0.0
  0
VERTEX
  5
160
330
15B
100
AcDbEntity
  8
_U_00D5_U_00BA_U_2264_U_20
 62
    23
100
AcDbVertex
100
AcDb2dVertex
 10
608.0485537368769
 20
286.48691019111
 30
0.0
  0
SEQEND
  5
161
330
15B
100
AcDbEntity
  8
_U_00D5_U_00BA_U_2264_U_20
 62
    23
  0
POLYLINE
  5
162
330
1F
100
AcDbEntity
  8
_U_00D5_U_00BA_U_2264_U_20
 62
    23
100
AcDb2dPolyline
 66
     1
 10
0.0
 20
0.0
 30
0.0
  0
VERTEX
  5
163
330
162
100
AcDbEntity
  8
_U_00D5_U_00BA_U_2264_U_20
 62
    23
100
AcDbVertex
100
AcDb2dVertex
 10
644.4698253944382
 20
310.8555284583036
 30
0.0
  0
VERTEX
  5
164
330
162
100
AcDbEntity
  8
_U_00D5_U_00BA_U_2264_U_20
 62
    23
100
AcDbVertex
100
AcDb2dVertex
 10
638.4698162292714
 20
310.8555284583036
 30
0.0
  0
VERTEX
  5
165
330
162
100
AcDbEntity
  8
_U_00D5_U_00BA_U_2264_U_20
 62
    23
100
AcDbVertex
100
AcDb2dVertex
 10
638.4698162292714
 20
313.8555153262121
 30
0.0
  0
VERTEX
  5
166
330
162
100
AcDbEntity
  8
_U_00D5_U_00BA_U_2264_U_20
 62
    23
100
AcDbVertex
100
AcDb2dVertex
 10
644.4698253944382
 20
313.8555153262121
 30
0.0
  0
VERTEX
  5
167
330
162
100
AcDbEntity
  8
_U_00D5_U_00BA_U_2264_U_20
 62
    23
100
AcDbVertex
100
AcDb2dVertex
 10
644.4698253944382
 20
310.8555284583036
 30
0.0
  0
SEQEND
  5
168
330
162
100
AcDbEntity
  8
_U_00D5_U_00BA_U_2264_U_20
 62
    23
  0
POLYLINE
  5
169
330
1F
100
AcDbEntity
  8
_U_00D5_U_00BA_U_2264_U_20
 62
    23
100
AcDb2dPolyline
 66
     1
 10
0.0
 20
0.0
 30
0.0
  0
VERTEX
  5
16A
330
169
100
AcDbEntity
  8
_U_00D5_U_00BA_U_2264_U_20
 62
    23
100
AcDbVertex
100
AcDb2dVertex
 10
682.5972362182396
 20
313.655525609092
 30
0.0
  0
VERTEX
  5
16B
330
169
100
AcDbEntity
  8
_U_00D5_U_00BA_U_2264_U_20
 62
    23
100
AcDbVertex
100
AcDb2dVertex
 10
676.5972623308509
 20
313.655525609092
 30
0.0
  0
VERTEX
  5
16C
330
169
100
AcDbEntity
  8
_U_00D5_U_00BA_U_2264_U_20
 62
    23
100
AcDbVertex
100
AcDb2dVertex
 10
676.5972623308509
 20
316.6555124770004
 30
0.0
  0
VERTEX
  5
16D
330
169
100
AcDbEntity
  8
_U_00D5_U_00BA_U_2264_U_20
 62
    23
100
AcDbVertex
100
AcDb2dVertex
 10
682.5972362182396
 20
316.6555124770004
 30
0.0
  0
VERTEX
  5
16E
330
169
100
AcDbEntity
  8
_U_00D5_U_00BA_U_2264_U_20
 62
    23
100
AcDbVertex
100
AcDb2dVertex
 10
682.5972362182396
 20
313.655525609092
 30
0.0
  0
SEQEND
  5
16F
330
169
100
AcDbEntity
  8
_U_00D5_U_00BA_U_2264_U_20
 62
    23
  0
SPLINE
  5
170
330
1F
100
AcDbEntity
  8
_U_00D5_U_00BA_U_2264_U_20
 62
    23
100
AcDbSpline
210
0.0
220
0.0
230
1.0
 70
    11
 71
     3
 72
    32
 73
    28
 74
     0
 42
0.0000000001
 43
0.0000000001
 12
1.0
 22
0.0
 32
0.0
 13
1.0
 23
0.0
 33
0.0
 40
0.0
 40
0.0
 40
0.0
 40
0.0
 40
1.0
 40
1.0
 40
1.0
 40
2.0
 40
2.0
 40
2.0
 40
3.0
 40
3.0
 40
3.0
 40
4.0
 40
4.0
 40
4.0
 40
5.0
 40
5.0
 40
5.0
 40
6.0
 40
6.0
 40
6.0
 40
7.0
 40
7.0
 40
7.0
 40
8.0
 40
8.0
 40
8.0
 40
9.0
 40
9.0
 40
9.0
 40
9.0
 10
634.0882809525891
 20
188.3333046396615
 30
0.0
 10
638.8270390069598
 20
200.9725559838741
 30
0.0
 10
627.3735440098233
 20
205.3167672619329
 30
0.0
 10
627.3735440098233
 20
205.3167672619329
 30
0.0
 10
627.3735440098233
 20
205.3167672619329
 30
0.0
 10
633.1008206750582
 20
198.8004327059562
 30
0.0
 10
625.0042178993045
 20
188.5317068568221
 30
0.0
 10
616.907615123551
 20
178.262981007688
 30
0.0
 10
617.696673178909
 20
168.4541715357094
 30
0.0
 10
617.696673178909
 20
168.4541715357094
 30
0.0
 10
617.696673178909
 20
168.4541715357094
 30
0.0
 10
621.5427270668365
 20
168.4541715357094
 30
0.0
 10
621.5427270668365
 20
168.4541715357094
 30
0.0
 10
621.5427270668365
 20
168.4541715357094
 30
0.0
 10
621.5427270668365
 20
165.2541596729041
 30
0.0
 10
621.5427270668365
 20
165.2541596729041
 30
0.0
 10
621.5427270668365
 20
165.2541596729041
 30
0.0
 10
627.5427009542256
 20
165.2541596729041
 30
0.0
 10
627.5427009542256
 20
165.2541596729041
 30
0.0
 10
627.5427009542256
 20
165.2541596729041
 30
0.0
 10
627.5427009542256
 20
168.4541715357094
 30
0.0
 10
627.5427009542256
 20
168.4541715357094
 30
0.0
 10
627.5427009542256
 20
168.4541715357094
 30
0.0
 10
630.9276390089348
 20
168.4541715357094
 30
0.0
 10
630.9276390089348
 20
168.4541715357094
 30
0.0
 10
630.9276390089348
 20
168.4541715357094
 30
0.0
 10
629.3472651204409
 20
175.6952527398629
 30
0.0
 10
634.0882809525891
 20
188.3333046396615
 30
0.0
  0
SPLINE
  5
171
330
1F
100
AcDbEntity
  8
_U_00D5_U_00BA_U_2264_U_20
 62
    23
100
AcDbSpline
210
0.0
220
0.0
230
1.0
 70
    11
 71
     3
 72
    32
 73
    28
 74
     0
 42
0.0000000001
 43
0.0000000001
 12
1.0
 22
0.0
 32
0.0
 13
1.0
 23
0.0
 33
0.0
 40
0.0
 40
0.0
 40
0.0
 40
0.0
 40
1.0
 40
1.0
 40
1.0
 40
2.0
 40
2.0
 40
2.0
 40
3.0
 40
3.0
 40
3.0
 40
4.0
 40
4.0
 40
4.0
 40
5.0
 40
5.0
 40
5.0
 40
6.0
 40
6.0
 40
6.0
 40
7.0
 40
7.0
 40
7.0
 40
8.0
 40
8.0
 40
8.0
 40
9.0
 40
9.0
 40
9.0
 40
9.0
 10
643.2085390058645
 20
182.4507706230708
 30
0.0
 10
645.4716437275209
 20
192.3658367590053
 30
0.0
 10
655.5605942805544
 20
196.4299072108778
 30
0.0
 10
655.5605942805544
 20
196.4299072108778
 30
0.0
 10
655.5605942805544
 20
196.4299072108778
 30
0.0
 10
645.4880126164059
 20
197.2201646907166
 30
0.0
 10
639.5645915067756
 20
187.7403910436769
 30
0.0
 10
633.6401120638122
 20
178.262981007688
 30
0.0
 10
633.0483626195158
 20
168.4541715357094
 30
0.0
 10
633.0483626195158
 20
168.4541715357094
 30
0.0
 10
633.0483626195158
 20
168.4541715357094
 30
0.0
 10
636.6419334519508
 20
168.4541715357094
 30
0.0
 10
636.6419334519508
 20
168.4541715357094
 30
0.0
 10
636.6419334519508
 20
168.4541715357094
 30
0.0
 10
636.6419334519508
 20
165.2541596729041
 30
0.0
 10
636.6419334519508
 20
165.2541596729041
 30
0.0
 10
636.6419334519508
 20
165.2541596729041
 30
0.0
 10
642.6419073393394
 20
165.2541596729041
 30
0.0
 10
642.6419073393394
 20
165.2541596729041
 30
0.0
 10
642.6419073393394
 20
165.2541596729041
 30
0.0
 10
642.6419073393394
 20
168.4541715357094
 30
0.0
 10
642.6419073393394
 20
168.4541715357094
 30
0.0
 10
642.6419073393394
 20
168.4541715357094
 30
0.0
 10
645.2907745608998
 20
168.4541715357094
 30
0.0
 10
645.2907745608998
 20
168.4541715357094
 30
0.0
 10
645.2907745608998
 20
168.4541715357094
 30
0.0
 10
640.9477626175409
 20
172.5346108760531
 30
0.0
 10
643.2085390058645
 20
182.4507706230708
 30
0.0
  0
SPLINE
  5
172
330
1F
100
AcDbEntity
  8
_U_00D5_U_00BA_U_2264_U_20
 62
    23
100
AcDbSpline
210
0.0
220
0.0
230
1.0
 70
    11
 71
     3
 72
    32
 73
    28
 74
     0
 42
0.0000000001
 43
0.0000000001
 12
1.0
 22
0.0
 32
0.0
 13
1.0
 23
0.0
 33
0.0
 40
0.0
 40
0.0
 40
0.0
 40
0.0
 40
1.0
 40
1.0
 40
1.0
 40
2.0
 40
2.0
 40
2.0
 40
3.0
 40
3.0
 40
3.0
 40
4.0
 40
4.0
 40
4.0
 40
5.0
 40
5.0
 40
5.0
 40
6.0
 40
6.0
 40
6.0
 40
7.0
 40
7.0
 40
7.0
 40
8.0
 40
8.0
 40
8.0
 40
9.0
 40
9.0
 40
9.0
 40
9.0
 10
650.1764645596783
 20
188.5317068568221
 30
0.0
 10
650.1764645596783
 20
188.5317068568221
 30
0.0
 10
653.5321573366172
 20
188.3333046396615
 30
0.0
 10
652.9392084478765
 20
180.433904841192
 30
0.0
 10
652.3474942813576
 20
172.5346108760531
 30
0.0
 10
647.40913456037
 20
168.4541715357094
 30
0.0
 10
647.40913456037
 20
168.4541715357094
 30
0.0
 10
647.40913456037
 20
168.4541715357094
 30
0.0
 10
650.0270984486042
 20
168.4541715357094
 30
0.0
 10
650.0270984486042
 20
168.4541715357094
 30
0.0
 10
650.0270984486042
 20
168.4541715357094
 30
0.0
 10
650.0270984486042
 20
165.2541596729041
 30
0.0
 10
650.0270984486042
 20
165.2541596729041
 30
0.0
 10
650.0270984486042
 20
165.2541596729041
 30
0.0
 10
656.0271428915489
 20
165.2541596729041
 30
0.0
 10
656.0271428915489
 20
165.2541596729041
 30
0.0
 10
656.0271428915489
 20
165.2541596729041
 30
0.0
 10
656.0271428915489
 20
168.4541715357094
 30
0.0
 10
656.0271428915489
 20
168.4541715357094
 30
0.0
 10
656.0271428915489
 20
168.4541715357094
 30
0.0
 10
657.6802595578022
 20
168.4541715357094
 30
0.0
 10
657.6802595578022
 20
168.4541715357094
 30
0.0
 10
657.6802595578022
 20
168.4541715357094
 30
0.0
 10
659.8511481683705
 20
172.1400994972291
 30
0.0
 10
657.6802595578022
 20
181.2241623210309
 30
0.0
 10
655.508136225012
 20
190.3080840337252
 30
0.0
 10
650.1764645596783
 20
188.5317068568221
 30
0.0
 10
650.1764645596783
 20
188.5317068568221
 30
0.0
  0
SPLINE
  5
173
330
1F
100
AcDbEntity
  8
_U_00D5_U_00BA_U_2264_U_20
 62
    23
100
AcDbSpline
210
0.0
220
0.0
230
1.0
 70
    11
 71
     3
 72
    32
 73
    28
 74
     0
 42
0.0000000001
 43
0.0000000001
 12
1.0
 22
0.0
 32
0.0
 13
1.0
 23
0.0
 33
0.0
 40
0.0
 40
0.0
 40
0.0
 40
0.0
 40
1.0
 40
1.0
 40
1.0
 40
2.0
 40
2.0
 40
2.0
 40
3.0
 40
3.0
 40
3.0
 40
4.0
 40
4.0
 40
4.0
 40
5.0
 40
5.0
 40
5.0
 40
6.0
 40
6.0
 40
6.0
 40
7.0
 40
7.0
 40
7.0
 40
8.0
 40
8.0
 40
8.0
 40
9.0
 40
9.0
 40
9.0
 40
9.0
 10
670.2646189991005
 20
183.5934883716955
 30
0.0
 10
673.6224637204832
 20
192.4791489783367
 30
0.0
 10
677.7705659416687
 20
192.2830045388963
 30
0.0
 10
677.7705659416687
 20
192.2830045388963
 30
0.0
 10
677.7705659416687
 20
192.2830045388963
 30
0.0
 10
672.6339451096193
 20
193.8633783874665
 30
0.0
 10
667.4459245553609
 20
186.886069121028
 30
0.0
 10
662.2555051122141
 20
179.9075604101758
 30
0.0
 10
659.798584279495
 20
168.4541715357094
 30
0.0
 10
659.798584279495
 20
168.4541715357094
 30
0.0
 10
659.798584279495
 20
168.4541715357094
 30
0.0
 10
662.4571176121638
 20
168.4541715357094
 30
0.0
 10
662.4571176121638
 20
168.4541715357094
 30
0.0
 10
662.4571176121638
 20
168.4541715357094
 30
0.0
 10
662.4571176121638
 20
165.2541596729041
 30
0.0
 10
662.4571176121638
 20
165.2541596729041
 30
0.0
 10
662.4571176121638
 20
165.2541596729041
 30
0.0
 10
668.4571267773302
 20
165.2541596729041
 30
0.0
 10
668.4571267773302
 20
165.2541596729041
 30
0.0
 10
668.4571267773302
 20
165.2541596729041
 30
0.0
 10
668.4571267773302
 20
168.4541715357094
 30
0.0
 10
668.4571267773302
 20
168.4541715357094
 30
0.0
 10
668.4571267773302
 20
168.4541715357094
 30
0.0
 10
670.4630212212732
 20
168.4541715357094
 30
0.0
 10
670.4630212212732
 20
168.4541715357094
 30
0.0
 10
670.4630212212732
 20
168.4541715357094
 30
0.0
 10
666.9089262221617
 20
174.7077924872773
 30
0.0
 10
670.2646189991005
 20
183.5934883716955
 30
0.0
  0
SPLINE
  5
174
330
1F
100
AcDbEntity
  8
_U_00D5_U_00BA_U_2264_U_20
 62
    23
100
AcDbSpline
210
0.0
220
0.0
230
1.0
 70
    11
 71
     3
 72
    32
 73
    28
 74
     0
 42
0.0000000001
 43
0.0000000001
 12
1.0
 22
0.0
 32
0.0
 13
1.0
 23
0.0
 33
0.0
 40
0.0
 40
0.0
 40
0.0
 40
0.0
 40
1.0
 40
1.0
 40
1.0
 40
2.0
 40
2.0
 40
2.0
 40
3.0
 40
3.0
 40
3.0
 40
4.0
 40
4.0
 40
4.0
 40
5.0
 40
5.0
 40
5.0
 40
6.0
 40
6.0
 40
6.0
 40
7.0
 40
7.0
 40
7.0
 40
8.0
 40
8.0
 40
8.0
 40
9.0
 40
9.0
 40
9.0
 40
9.0
 10
677.8569964972025
 20
178.5641473888935
 30
0.0
 10
678.7872009414142
 20
184.5913202906831
 30
0.0
 10
683.4430209402503
 20
188.6717949088037
 30
0.0
 10
683.4430209402503
 20
188.6717949088037
 30
0.0
 10
683.4430209402503
 20
188.6717949088037
 30
0.0
 10
678.9004778858307
 20
187.3470438314898
 30
0.0
 10
674.9508131645956
 20
180.4456170631155
 30
0.0
 10
671.0010778878053
 20
173.5453897391549
 30
0.0
 10
672.5813459429659
 20
168.4541715357094
 30
0.0
 10
672.5813459429659
 20
168.4541715357094
 30
0.0
 10
672.5813459429659
 20
168.4541715357094
 30
0.0
 10
673.446180664972
 20
168.4541715357094
 30
0.0
 10
673.446180664972
 20
168.4541715357094
 30
0.0
 10
673.446180664972
 20
168.4541715357094
 30
0.0
 10
673.446180664972
 20
165.2541596729041
 30
0.0
 10
673.446180664972
 20
165.2541596729041
 30
0.0
 10
673.446180664972
 20
165.2541596729041
 30
0.0
 10
679.4461898301385
 20
165.2541596729041
 30
0.0
 10
679.4461898301385
 20
165.2541596729041
 30
0.0
 10
679.4461898301385
 20
165.2541596729041
 30
0.0
 10
679.4461898301385
 20
168.4541715357094
 30
0.0
 10
679.4461898301385
 20
168.4541715357094
 30
0.0
 10
679.4461898301385
 20
168.4541715357094
 30
0.0
 10
679.8890317744722
 20
168.4541715357094
 30
0.0
 10
679.8890317744722
 20
168.4541715357094
 30
0.0
 10
679.8890317744722
 20
168.4541715357094
 30
0.0
 10
676.9267920529905
 20
172.5346108760531
 30
0.0
 10
677.8569964972025
 20
178.5641473888935
 30
0.0
  0
SPLINE
  5
175
330
1F
100
AcDbEntity
  8
_U_00D5_U_00BA_U_2264_U_20
 62
    23
100
AcDbSpline
210
0.0
220
0.0
230
1.0
 70
    11
 71
     3
 72
    32
 73
    28
 74
     0
 42
0.0000000001
 43
0.0000000001
 12
1.0
 22
0.0
 32
0.0
 13
1.0
 23
0.0
 33
0.0
 40
0.0
 40
0.0
 40
0.0
 40
0.0
 40
1.0
 40
1.0
 40
1.0
 40
2.0
 40
2.0
 40
2.0
 40
3.0
 40
3.0
 40
3.0
 40
4.0
 40
4.0
 40
4.0
 40
5.0
 40
5.0
 40
5.0
 40
6.0
 40
6.0
 40
6.0
 40
7.0
 40
7.0
 40
7.0
 40
8.0
 40
8.0
 40
8.0
 40
9.0
 40
9.0
 40
9.0
 40
9.0
 10
691.3529337160508
 20
180.4456170631155
 30
0.0
 10
691.3529337160508
 20
180.4456170631155
 30
0.0
 10
686.9445167727084
 20
181.0268184371766
 30
0.0
 10
684.379081495572
 20
177.0783179823557
 30
0.0
 10
681.8101537184364
 20
173.128618083121
 30
0.0
 10
682.0074623294981
 20
168.4541715357094
 30
0.0
 10
682.0074623294981
 20
168.4541715357094
 30
0.0
 10
682.0074623294981
 20
168.4541715357094
 30
0.0
 10
683.3784626069332
 20
168.4541715357094
 30
0.0
 10
683.3784626069332
 20
168.4541715357094
 30
0.0
 10
683.3784626069332
 20
168.4541715357094
 30
0.0
 10
683.3784626069332
 20
165.2541596729041
 30
0.0
 10
683.3784626069332
 20
165.2541596729041
 30
0.0
 10
683.3784626069332
 20
165.2541596729041
 30
0.0
 10
689.3784364943222
 20
165.2541596729041
 30
0.0
 10
689.3784364943222
 20
165.2541596729041
 30
0.0
 10
689.3784364943222
 20
165.2541596729041
 30
0.0
 10
689.3784364943222
 20
168.4541715357094
 30
0.0
 10
689.3784364943222
 20
168.4541715357094
 30
0.0
 10
689.3784364943222
 20
168.4541715357094
 30
0.0
 10
689.7095537164615
 20
168.4541715357094
 30
0.0
 10
689.7095537164615
 20
168.4541715357094
 30
0.0
 10
689.7095537164615
 20
168.4541715357094
 30
0.0
 10
687.5374656614491
 20
172.1400994972291
 30
0.0
 10
688.3287814945845
 20
175.8936549570234
 30
0.0
 10
689.1178395499427
 20
179.6437531946838
 30
0.0
 10
691.3529337160508
 20
180.4456170631155
 30
0.0
 10
691.3529337160508
 20
180.4456170631155
 30
0.0
  0
SPLINE
  5
176
330
1F
100
AcDbEntity
  8
_U_00D5_U_00BA_U_2264_U_20
 62
    23
100
AcDbSpline
210
0.0
220
0.0
230
1.0
 70
    11
 71
     3
 72
    32
 73
    28
 74
     0
 42
0.0000000001
 43
0.0000000001
 12
1.0
 22
0.0
 32
0.0
 13
1.0
 23
0.0
 33
0.0
 40
0.0
 40
0.0
 40
0.0
 40
0.0
 40
1.0
 40
1.0
 40
1.0
 40
2.0
 40
2.0
 40
2.0
 40
3.0
 40
3.0
 40
3.0
 40
4.0
 40
4.0
 40
4.0
 40
5.0
 40
5.0
 40
5.0
 40
6.0
 40
6.0
 40
6.0
 40
7.0
 40
7.0
 40
7.0
 40
8.0
 40
8.0
 40
8.0
 40
9.0
 40
9.0
 40
9.0
 40
9.0
 10
538.5330223653667
 20
203.8928503538156
 30
0.0
 10
538.5330223653667
 20
203.8928503538156
 30
0.0
 10
548.1492859740739
 20
199.4014601906227
 30
0.0
 10
549.3375473626658
 20
189.0791121206344
 30
0.0
 10
550.5268670845905
 20
178.7578929395062
 30
0.0
 10
547.4688834742439
 20
168.4541715357094
 30
0.0
 10
547.4688834742439
 20
168.4541715357094
 30
0.0
 10
547.4688834742439
 20
168.4541715357094
 30
0.0
 10
550.1230070846915
 20
168.4541715357094
 30
0.0
 10
550.1230070846915
 20
168.4541715357094
 30
0.0
 10
550.1230070846915
 20
168.4541715357094
 30
0.0
 10
550.1230070846915
 20
165.2541596729041
 30
0.0
 10
550.1230070846915
 20
165.2541596729041
 30
0.0
 10
550.1230070846915
 20
165.2541596729041
 30
0.0
 10
556.1229809720805
 20
165.2541596729041
 30
0.0
 10
556.1229809720805
 20
165.2541596729041
 30
0.0
 10
556.1229809720805
 20
165.2541596729041
 30
0.0
 10
556.1229809720805
 20
168.4541715357094
 30
0.0
 10
556.1229809720805
 20
168.4541715357094
 30
0.0
 10
556.1229809720805
 20
168.4541715357094
 30
0.0
 10
558.1688098604577
 20
168.4541715357094
 30
0.0
 10
558.1688098604577
 20
168.4541715357094
 30
0.0
 10
558.1688098604577
 20
168.4541715357094
 30
0.0
 10
558.3392720826375
 20
178.7578929395062
 30
0.0
 10
554.092568472588
 20
190.305826256005
 30
0.0
 10
549.8469231958715
 20
201.8549237391408
 30
0.0
 10
538.5330223653667
 20
203.8928503538156
 30
0.0
 10
538.5330223653667
 20
203.8928503538156
 30
0.0
  0
SPLINE
  5
177
330
1F
100
AcDbEntity
  8
_U_00D5_U_00BA_U_2264_U_20
 62
    23
100
AcDbSpline
210
0.0
220
0.0
230
1.0
 70
    11
 71
     3
 72
    32
 73
    28
 74
     0
 42
0.0000000001
 43
0.0000000001
 12
1.0
 22
0.0
 32
0.0
 13
1.0
 23
0.0
 33
0.0
 40
0.0
 40
0.0
 40
0.0
 40
0.0
 40
1.0
 40
1.0
 40
1.0
 40
2.0
 40
2.0
 40
2.0
 40
3.0
 40
3.0
 40
3.0
 40
4.0
 40
4.0
 40
4.0
 40
5.0
 40
5.0
 40
5.0
 40
6.0
 40
6.0
 40
6.0
 40
7.0
 40
7.0
 40
7.0
 40
8.0
 40
8.0
 40
8.0
 40
9.0
 40
9.0
 40
9.0
 40
9.0
 10
538.2179918098899
 20
197.4384282962594
 30
0.0
 10
538.2179918098899
 20
197.4384282962594
 30
0.0
 10
531.3929059782629
 20
195.2873305733607
 30
0.0
 10
534.8051490329656
 20
186.1728935836671
 30
0.0
 10
538.2179918098899
 20
177.0584918717504
 30
0.0
 10
533.8492623665378
 20
168.4541715357094
 30
0.0
 10
533.8492623665378
 20
168.4541715357094
 30
0.0
 10
533.8492623665378
 20
168.4541715357094
 30
0.0
 10
536.6623476436124
 20
168.4541715357094
 30
0.0
 10
536.6623476436124
 20
168.4541715357094
 30
0.0
 10
536.6623476436124
 20
168.4541715357094
 30
0.0
 10
536.6623476436124
 20
165.2541596729041
 30
0.0
 10
536.6623476436124
 20
165.2541596729041
 30
0.0
 10
536.6623476436124
 20
165.2541596729041
 30
0.0
 10
542.662356808779
 20
165.2541596729041
 30
0.0
 10
542.662356808779
 20
165.2541596729041
 30
0.0
 10
542.662356808779
 20
165.2541596729041
 30
0.0
 10
542.662356808779
 20
168.4541715357094
 30
0.0
 10
542.662356808779
 20
168.4541715357094
 30
0.0
 10
542.662356808779
 20
168.4541715357094
 30
0.0
 10
545.3504529192179
 20
168.4541715357094
 30
0.0
 10
545.3504529192179
 20
168.4541715357094
 30
0.0
 10
545.3504529192179
 20
168.4541715357094
 30
0.0
 10
546.7936315299683
 20
176.6219999384418
 30
0.0
 10
539.8741423650314
 20
185.8413530365699
 30
0.0
 10
532.9534537556505
 20
195.0620114124424
 30
0.0
 10
538.2179918098899
 20
197.4384282962594
 30
0.0
 10
538.2179918098899
 20
197.4384282962594
 30
0.0
  0
SPLINE
  5
178
330
1F
100
AcDbEntity
  8
_U_00D5_U_00BA_U_2264_U_20
 62
    23
100
AcDbSpline
210
0.0
220
0.0
230
1.0
 70
    11
 71
     3
 72
    32
 73
    28
 74
     0
 42
0.0000000001
 43
0.0000000001
 12
1.0
 22
0.0
 32
0.0
 13
1.0
 23
0.0
 33
0.0
 40
0.0
 40
0.0
 40
0.0
 40
0.0
 40
1.0
 40
1.0
 40
1.0
 40
2.0
 40
2.0
 40
2.0
 40
3.0
 40
3.0
 40
3.0
 40
4.0
 40
4.0
 40
4.0
 40
5.0
 40
5.0
 40
5.0
 40
6.0
 40
6.0
 40
6.0
 40
7.0
 40
7.0
 40
7.0
 40
8.0
 40
8.0
 40
8.0
 40
9.0
 40
9.0
 40
9.0
 40
9.0
 10
529.2815309787908
 20
195.2312741859019
 30
0.0
 10
529.2815309787908
 20
195.2312741859019
 30
0.0
 10
521.8320990362087
 20
191.3831742840751
 30
0.0
 10
521.4924093140712
 20
181.8426523052519
 30
0.0
 10
521.1516965363786
 20
172.3046703263639
 30
0.0
 10
523.1906462580914
 20
168.4541715357094
 30
0.0
 10
523.1906462580914
 20
168.4541715357094
 30
0.0
 10
523.1906462580914
 20
168.4541715357094
 30
0.0
 10
524.2628084800454
 20
168.4541715357094
 30
0.0
 10
524.2628084800454
 20
168.4541715357094
 30
0.0
 10
524.2628084800454
 20
168.4541715357094
 30
0.0
 10
524.2628084800454
 20
165.2541596729041
 30
0.0
 10
524.2628084800454
 20
165.2541596729041
 30
0.0
 10
524.2628084800454
 20
165.2541596729041
 30
0.0
 10
530.2628176452122
 20
165.2541596729041
 30
0.0
 10
530.2628176452122
 20
165.2541596729041
 30
0.0
 10
530.2628176452122
 20
165.2541596729041
 30
0.0
 10
530.2628176452122
 20
168.4541715357094
 30
0.0
 10
530.2628176452122
 20
168.4541715357094
 30
0.0
 10
530.2628176452122
 20
168.4541715357094
 30
0.0
 10
531.72959708929
 20
168.4541715357094
 30
0.0
 10
531.72959708929
 20
168.4541715357094
 30
0.0
 10
531.72959708929
 20
168.4541715357094
 30
0.0
 10
527.419887368145
 20
173.7192739013854
 30
0.0
 10
526.8334295905138
 20
182.9468819993029
 30
0.0
 10
526.2468659795494
 20
192.1744900972203
 30
0.0
 10
529.2815309787908
 20
195.2312741859019
 30
0.0
 10
529.2815309787908
 20
195.2312741859019
 30
0.0
  0
SPLINE
  5
179
330
1F
100
AcDbEntity
  8
_U_00D5_U_00BA_U_2264_U_20
 62
    23
100
AcDbSpline
210
0.0
220
0.0
230
1.0
 70
    11
 71
     3
 72
    32
 73
    28
 74
     0
 42
0.0000000001
 43
0.0000000001
 12
1.0
 22
0.0
 32
0.0
 13
1.0
 23
0.0
 33
0.0
 40
0.0
 40
0.0
 40
0.0
 40
0.0
 40
1.0
 40
1.0
 40
1.0
 40
2.0
 40
2.0
 40
2.0
 40
3.0
 40
3.0
 40
3.0
 40
4.0
 40
4.0
 40
4.0
 40
5.0
 40
5.0
 40
5.0
 40
6.0
 40
6.0
 40
6.0
 40
7.0
 40
7.0
 40
7.0
 40
8.0
 40
8.0
 40
8.0
 40
9.0
 40
9.0
 40
9.0
 40
9.0
 10
503.5787418185499
 20
184.3054291868657
 30
0.0
 10
503.5787418185499
 20
184.3054291868657
 30
0.0
 10
507.4841329286845
 20
183.7533672565055
 30
0.0
 10
510.5414815390313
 20
178.791724327532
 30
0.0
 10
513.5983009827116
 20
173.8324450096093
 30
0.0
 10
512.3249495941412
 20
168.4541715357094
 30
0.0
 10
512.3249495941412
 20
168.4541715357094
 30
0.0
 10
512.3249495941412
 20
168.4541715357094
 30
0.0
 10
513.8079920937703
 20
168.4541715357094
 30
0.0
 10
513.8079920937703
 20
168.4541715357094
 30
0.0
 10
513.8079920937703
 20
168.4541715357094
 30
0.0
 10
513.8079920937703
 20
165.2541596729041
 30
0.0
 10
513.8079920937703
 20
165.2541596729041
 30
0.0
 10
513.8079920937703
 20
165.2541596729041
 30
0.0
 10
519.8080012589368
 20
165.2541596729041
 30
0.0
 10
519.8080012589368
 20
165.2541596729041
 30
0.0
 10
519.8080012589368
 20
165.2541596729041
 30
0.0
 10
519.8080012589368
 20
168.4541715357094
 30
0.0
 10
519.8080012589368
 20
168.4541715357094
 30
0.0
 10
519.8080012589368
 20
168.4541715357094
 30
0.0
 10
521.0717218141767
 20
168.4541715357094
 30
0.0
 10
521.0717218141767
 20
168.4541715357094
 30
0.0
 10
521.0717218141767
 20
168.4541715357094
 30
0.0
 10
519.3723207034902
 20
174.2421611102677
 30
0.0
 10
513.5983009827116
 20
180.4911606730647
 30
0.0
 10
507.8243870952661
 20
186.7401249580847
 30
0.0
 10
503.5787418185499
 20
184.3054291868657
 30
0.0
 10
503.5787418185499
 20
184.3054291868657
 30
0.0
  0
SPLINE
  5
17A
330
1F
100
AcDbEntity
  8
_U_00D5_U_00BA_U_2264_U_20
 62
    23
100
AcDbSpline
210
0.0
220
0.0
230
1.0
 70
    11
 71
     3
 72
    32
 73
    28
 74
     0
 42
0.0000000001
 43
0.0000000001
 12
1.0
 22
0.0
 32
0.0
 13
1.0
 23
0.0
 33
0.0
 40
0.0
 40
0.0
 40
0.0
 40
0.0
 40
1.0
 40
1.0
 40
1.0
 40
2.0
 40
2.0
 40
2.0
 40
3.0
 40
3.0
 40
3.0
 40
4.0
 40
4.0
 40
4.0
 40
5.0
 40
5.0
 40
5.0
 40
6.0
 40
6.0
 40
6.0
 40
7.0
 40
7.0
 40
7.0
 40
8.0
 40
8.0
 40
8.0
 40
9.0
 40
9.0
 40
9.0
 40
9.0
 10
498.5716962642462
 20
178.766042105965
 30
0.0
 10
498.5716962642462
 20
178.766042105965
 30
0.0
 10
501.1189634858314
 20
178.4182385037271
 30
0.0
 10
503.3254826519466
 20
175.3602549706316
 30
0.0
 10
505.5344359847277
 20
172.3046703263639
 30
0.0
 10
502.6473732076714
 20
168.4541715357094
 30
0.0
 10
502.6473732076714
 20
168.4541715357094
 30
0.0
 10
502.6473732076714
 20
168.4541715357094
 30
0.0
 10
503.5787418185499
 20
168.4541715357094
 30
0.0
 10
503.5787418185499
 20
168.4541715357094
 30
0.0
 10
503.5787418185499
 20
168.4541715357094
 30
0.0
 10
503.5787418185499
 20
165.2541596729041
 30
0.0
 10
503.5787418185499
 20
165.2541596729041
 30
0.0
 10
503.5787418185499
 20
165.2541596729041
 30
0.0
 10
509.5787509837164
 20
165.2541596729041
 30
0.0
 10
509.5787509837164
 20
165.2541596729041
 30
0.0
 10
509.5787509837164
 20
165.2541596729041
 30
0.0
 10
509.5787509837164
 20
168.4541715357094
 30
0.0
 10
509.5787509837164
 20
168.4541715357094
 30
0.0
 10
509.5787509837164
 20
168.4541715357094
 30
0.0
 10
510.2060251502264
 20
168.4541715357094
 30
0.0
 10
510.2060251502264
 20
168.4541715357094
 30
0.0
 10
510.2060251502264
 20
168.4541715357094
 30
0.0
 10
510.3396220946372
 20
173.280418357026
 30
0.0
 10
507.428041262032
 20
176.6126866053461
 30
0.0
 10
504.5160018183155
 20
179.9472479091633
 30
0.0
 10
498.5716962642462
 20
178.766042105965
 30
0.0
 10
498.5716962642462
 20
178.766042105965
 30
0.0
  0
SPLINE
  5
17B
330
1F
100
AcDbEntity
  8
_U_00D5_U_00BA_U_2264_U_20
 62
    23
100
AcDbSpline
210
0.0
220
0.0
230
1.0
 70
    11
 71
     3
 72
    32
 73
    28
 74
     0
 42
0.0000000001
 43
0.0000000001
 12
1.0
 22
0.0
 32
0.0
 13
1.0
 23
0.0
 33
0.0
 40
0.0
 40
0.0
 40
0.0
 40
0.0
 40
1.0
 40
1.0
 40
1.0
 40
2.0
 40
2.0
 40
2.0
 40
3.0
 40
3.0
 40
3.0
 40
4.0
 40
4.0
 40
4.0
 40
5.0
 40
5.0
 40
5.0
 40
6.0
 40
6.0
 40
6.0
 40
7.0
 40
7.0
 40
7.0
 40
8.0
 40
8.0
 40
8.0
 40
9.0
 40
9.0
 40
9.0
 40
9.0
 10
497.1313751534951
 20
173.7122183460099
 30
0.0
 10
494.414845154174
 20
175.8691721798703
 30
0.0
 10
491.01780682169
 20
175.0217647014894
 30
0.0
 10
491.01780682169
 20
175.0217647014894
 30
0.0
 10
491.01780682169
 20
175.0217647014894
 30
0.0
 10
492.5455815435301
 20
174.3926561064282
 30
0.0
 10
493.9053634876348
 20
171.8202358942784
 30
0.0
 10
495.2639107095172
 20
169.2466867932684
 30
0.0
 10
492.3757543213505
 20
168.4541715357094
 30
0.0
 10
492.3757543213505
 20
168.4541715357094
 30
0.0
 10
492.3757543213505
 20
168.4541715357094
 30
0.0
 10
493.6696726543604
 20
168.4541715357094
 30
0.0
 10
493.6696726543604
 20
168.4541715357094
 30
0.0
 10
493.6696726543604
 20
168.4541715357094
 30
0.0
 10
493.6696726543604
 20
165.2541596729041
 30
0.0
 10
493.6696726543604
 20
165.2541596729041
 30
0.0
 10
493.6696726543604
 20
165.2541596729041
 30
0.0
 10
499.6696465417494
 20
165.2541596729041
 30
0.0
 10
499.6696465417494
 20
165.2541596729041
 30
0.0
 10
499.6696465417494
 20
165.2541596729041
 30
0.0
 10
499.6696465417494
 20
168.4541715357094
 30
0.0
 10
499.6696465417494
 20
168.4541715357094
 30
0.0
 10
499.6696465417494
 20
168.4541715357094
 30
0.0
 10
500.5284134859791
 20
168.4541715357094
 30
0.0
 10
500.5284134859791
 20
168.4541715357094
 30
0.0
 10
500.5284134859791
 20
168.4541715357094
 30
0.0
 10
499.8490693194823
 20
171.5530067344293
 30
0.0
 10
497.1313751534951
 20
173.7122183460099
 30
0.0
  0
SPLINE
  5
17C
330
1F
100
AcDbEntity
  8
_U_00D5_U_00BA_U_2264_U_20
 62
    23
100
AcDbSpline
210
0.0
220
0.0
230
1.0
 70
    11
 71
     3
 72
    92
 73
    88
 74
     0
 42
0.0000000001
 43
0.0000000001
 12
1.0
 22
0.0
 32
0.0
 13
1.0
 23
0.0
 33
0.0
 40
0.0
 40
0.0
 40
0.0
 40
0.0
 40
1.0
 40
1.0
 40
1.0
 40
2.0
 40
2.0
 40
2.0
 40
3.0
 40
3.0
 40
3.0
 40
4.0
 40
4.0
 40
4.0
 40
5.0
 40
5.0
 40
5.0
 40
6.0
 40
6.0
 40
6.0
 40
7.0
 40
7.0
 40
7.0
 40
8.0
 40
8.0
 40
8.0
 40
9.0
 40
9.0
 40
9.0
 40
10.0
 40
10.0
 40
10.0
 40
11.0
 40
11.0
 40
11.0
 40
12.0
 40
12.0
 40
12.0
 40
13.0
 40
13.0
 40
13.0
 40
14.0
 40
14.0
 40
14.0
 40
15.0
 40
15.0
 40
15.0
 40
16.0
 40
16.0
 40
16.0
 40
17.0
 40
17.0
 40
17.0
 40
18.0
 40
18.0
 40
18.0
 40
19.0
 40
19.0
 40
19.0
 40
20.0
 40
20.0
 40
20.0
 40
21.0
 40
21.0
 40
21.0
 40
22.0
 40
22.0
 40
22.0
 40
23.0
 40
23.0
 40
23.0
 40
24.0
 40
24.0
 40
24.0
 40
25.0
 40
25.0
 40
25.0
 40
26.0
 40
26.0
 40
26.0
 40
27.0
 40
27.0
 40
27.0
 40
28.0
 40
28.0
 40
28.0
 40
29.0
 40
29.0
 40
29.0
 40
29.0
 10
575.2357048561911
 20
213.3935437225438
 30
0.0
 10
568.882882635557
 20
239.9383069342194
 30
0.0
 10
558.7939320825237
 20
267.6900992817677
 30
0.0
 10
563.2780904147361
 20
293.7983705601347
 30
0.0
 10
564.4015465255661
 20
300.3356248377999
 30
0.0
 10
565.7379040252323
 20
307.1355927198738
 30
0.0
 10
567.0188754138009
 20
313.6552786646538
 30
0.0
 10
565.0044084698601
 20
314.3113042034728
 30
0.0
 10
563.0143184703576
 20
315.0524550178978
 30
0.0
 10
561.0494520819599
 20
315.8840580522374
 30
0.0
 10
561.0068012486373
 20
315.9015205517919
 30
0.0
 10
560.9642562486479
 20
315.9213466623972
 30
0.0
 10
560.9221698597697
 20
315.9395147174893
 30
0.0
 10
556.5896354164082
 20
301.7245461912544
 30
0.0
 10
550.90321041783
 20
304.0191891882687
 30
0.0
 10
550.4894373623777
 20
321.3732801344179
 30
0.0
 10
548.2105987518362
 20
322.7977967647421
 30
0.0
 10
546.0052790301653
 20
324.3395767254081
 30
0.0
 10
543.8868131973614
 20
326.0068397384281
 30
0.0
 10
550.9698148622577
 20
292.2448783775453
 30
0.0
 10
557.2916984717883
 20
289.244009565215
 30
0.0
 10
553.5614262504985
 20
278.4279137300455
 30
0.0
 10
549.8248393069883
 20
267.5896987287736
 30
0.0
 10
542.7254687532076
 20
270.8075964244559
 30
0.0
 10
526.6577462572245
 20
280.9700656096342
 30
0.0
 10
510.5888243167975
 20
291.1325347948125
 30
0.0
 10
512.456888482997
 20
300.3402815043477
 30
0.0
 10
509.0942459838377
 20
308.8150618436936
 30
0.0
 10
508.6116459839582
 20
310.0312632015546
 30
0.0
 10
508.003527650777
 20
311.0689237306373
 30
0.0
 10
507.3423515398311
 20
311.9232456532861
 30
0.0
 10
505.943411262403
 20
310.9264720676048
 30
0.0
 10
504.4798068183244
 20
309.8247470957122
 30
0.0
 10
502.9888268186974
 20
308.6155660154499
 30
0.0
 10
503.5746848741063
 20
307.5580793757619
 30
0.0
 10
504.3526304294675
 20
306.3582469063722
 30
0.0
 10
505.3575179292162
 20
305.010212496319
 30
0.0
 10
514.4760473713809
 20
292.7654019753768
 30
0.0
 10
514.4976373713755
 20
283.4432494354269
 30
0.0
 10
500.6679018192773
 20
295.5433505156165
 30
0.0
 10
497.67997987558
 20
298.1577865600278
 30
0.0
 10
497.7196320977923
 20
301.0020573207977
 30
0.0
 10
495.9986057093338
 20
302.2322639560792
 30
0.0
 10
494.1685357097912
 20
300.3402815043477
 30
0.0
 10
492.3885601546808
 20
298.28961961222
 30
0.0
 10
490.7277176550959
 20
296.0813013352256
 30
0.0
 10
492.05366821032
 20
294.5372283190626
 30
0.0
 10
493.9100201543004
 20
292.8611105840462
 30
0.0
 10
496.3890601536804
 20
291.1325347948125
 30
0.0
 10
512.45794681633
 20
279.921892303042
 30
0.0
 10
514.5039873713739
 20
279.625488421715
 30
0.0
 10
497.8660348755335
 20
280.5988375635495
 30
0.0
 10
492.6664432101668
 20
280.9012033891688
 30
0.0
 10
488.5252554334244
 20
280.7856333921172
 30
0.0
 10
484.0182371012177
 20
284.3828730225662
 30
0.0
 10
483.0448879347942
 20
281.9831022504562
 30
0.0
 10
482.2570293238801
 20
279.4621170369941
 30
0.0
 10
481.7044029351295
 20
276.8195646044112
 30
0.0
 10
484.1064315456401
 20
276.0072232362469
 30
0.0
 10
487.8863043224729
 20
275.4925557493771
 30
0.0
 10
493.3999034877613
 20
275.5450490813712
 30
0.0
 10
521.7994670917725
 20
275.8100204635002
 30
0.0
 10
518.8103457036308
 20
277.8618818000417
 30
0.0
 10
536.3732109770178
 20
267.4939548423274
 30
0.0
 10
553.9355118059606
 20
257.1272273290268
 30
0.0
 10
558.4198112492841
 20
245.0586998591428
 30
0.0
 10
565.5202401363978
 20
218.9562494139607
 30
0.0
 10
572.6206690235115
 20
192.8536931354479
 30
0.0
 10
560.2890748599276
 20
168.4541715357094
 30
0.0
 10
560.2890748599276
 20
168.4541715357094
 30
0.0
 10
560.2890748599276
 20
168.4541715357094
 30
0.0
 10
564.4465962477774
 20
168.4541715357094
 30
0.0
 10
564.4465962477774
 20
168.4541715357094
 30
0.0
 10
564.4465962477774
 20
168.4541715357094
 30
0.0
 10
564.4465962477774
 20
165.2541596729041
 30
0.0
 10
564.4465962477774
 20
165.2541596729041
 30
0.0
 10
564.4465962477774
 20
165.2541596729041
 30
0.0
 10
570.446605412944
 20
165.2541596729041
 30
0.0
 10
570.446605412944
 20
165.2541596729041
 30
0.0
 10
570.446605412944
 20
165.2541596729041
 30
0.0
 10
570.446605412944
 20
168.4541715357094
 30
0.0
 10
570.446605412944
 20
168.4541715357094
 30
0.0
 10
570.446605412944
 20
168.4541715357094
 30
0.0
 10
572.6206690235115
 20
168.4541715357094
 30
0.0
 10
572.6206690235115
 20
168.4541715357094
 30
0.0
 10
572.6206690235115
 20
168.4541715357094
 30
0.0
 10
581.5891620768251
 20
186.8486746775376
 30
0.0
 10
575.2357048561911
 20
213.3935437225438
 30
0.0
  0
SPLINE
  5
17D
330
1F
100
AcDbEntity
  8
_U_00D5_U_00BA_U_2264_U_20
 62
    23
100
AcDbSpline
210
0.0
220
0.0
230
1.0
 70
    11
 71
     3
 72
    80
 73
    76
 74
     0
 42
0.0000000001
 43
0.0000000001
 12
1.0
 22
0.0
 32
0.0
 13
1.0
 23
0.0
 33
0.0
 40
0.0
 40
0.0
 40
0.0
 40
0.0
 40
1.0
 40
1.0
 40
1.0
 40
2.0
 40
2.0
 40
2.0
 40
3.0
 40
3.0
 40
3.0
 40
4.0
 40
4.0
 40
4.0
 40
5.0
 40
5.0
 40
5.0
 40
6.0
 40
6.0
 40
6.0
 40
7.0
 40
7.0
 40
7.0
 40
8.0
 40
8.0
 40
8.0
 40
9.0
 40
9.0
 40
9.0
 40
10.0
 40
10.0
 40
10.0
 40
11.0
 40
11.0
 40
11.0
 40
12.0
 40
12.0
 40
12.0
 40
13.0
 40
13.0
 40
13.0
 40
14.0
 40
14.0
 40
14.0
 40
15.0
 40
15.0
 40
15.0
 40
16.0
 40
16.0
 40
16.0
 40
17.0
 40
17.0
 40
17.0
 40
18.0
 40
18.0
 40
18.0
 40
19.0
 40
19.0
 40
19.0
 40
20.0
 40
20.0
 40
20.0
 40
21.0
 40
21.0
 40
21.0
 40
22.0
 40
22.0
 40
22.0
 40
23.0
 40
23.0
 40
23.0
 40
24.0
 40
24.0
 40
24.0
 40
25.0
 40
25.0
 40
25.0
 40
25.0
 10
610.718164291765
 20
262.3595919177603
 30
0.0
 10
603.9928792934463
 20
289.2638709535972
 30
0.0
 10
614.4554567908306
 20
290.010842601207
 30
0.0
 10
629.7780067870001
 20
299.9528256808992
 30
0.0
 10
645.0981578942811
 20
309.8958670938978
 30
0.0
 10
642.4225148393946
 20
302.9848447702126
 30
0.0
 10
675.3062720533957
 20
309.8314498733189
 30
0.0
 10
679.3213417746141
 20
310.6672156853301
 30
0.0
 10
682.5940964960182
 20
311.5203381635652
 30
0.0
 10
685.2154823286962
 20
312.3595964754873
 30
0.0
 10
685.3555703842168
 20
314.8491491897512
 30
0.0
 10
685.3275951064459
 20
317.4006144024357
 30
0.0
 10
685.0789926065082
 20
319.9741987812225
 30
0.0
 10
681.7431259406756
 20
319.6450218451761
 30
0.0
 10
677.7970242749952
 20
318.7049043691605
 30
0.0
 10
673.8110939982139
 20
316.9581605248347
 30
0.0
 10
656.2499926137154
 20
309.2560693324426
 30
0.0
 10
644.1271017834129
 20
310.1899779197277
 30
0.0
 10
672.5662117763029
 20
324.6705175502984
 30
0.0
 10
675.6861078866342
 20
326.2594991764267
 30
0.0
 10
680.4464912187774
 20
329.7904165863455
 30
0.0
 10
682.7924987181908
 20
331.1746812732522
 30
0.0
 10
682.1481853850186
 20
332.9299976173593
 30
0.0
 10
681.3603267741045
 20
334.6685217396725
 30
0.0
 10
680.4137181632298
 20
336.3743786405969
 30
0.0
 10
677.4340512195304
 20
334.8500611794855
 30
0.0
 10
671.9476159431242
 20
330.8856857250695
 30
0.0
 10
668.0422248329896
 20
328.50104911924
 30
0.0
 10
639.2680817846275
 20
310.9369848451144
 30
0.0
 10
650.2694567818769
 20
324.0168909003071
 30
0.0
 10
665.9642931668425
 20
340.0846129903854
 30
0.0
 10
668.0558420552084
 20
342.2263621024114
 30
0.0
 10
669.7166492770154
 20
344.0419328894257
 30
0.0
 10
670.9994551100282
 20
345.5539736841837
 30
0.0
 10
670.1579037213495
 20
346.2519444997103
 30
0.0
 10
669.2708792771268
 20
346.9347458711795
 30
0.0
 10
668.339440110693
 20
347.6023777985912
 30
0.0
 10
666.7031509444356
 20
346.1031428368399
 30
0.0
 10
665.2008467781442
 20
344.7730648152174
 30
0.0
 10
662.975136500923
 20
342.8684176415868
 30
0.0
 10
651.4664317815777
 20
333.0199206706207
 30
0.0
 10
649.7651256708921
 20
330.8732326698317
 30
0.0
 10
625.0347684548524
 20
308.0451949188901
 30
0.0
 10
611.9031095692466
 20
295.9236802281357
 30
0.0
 10
603.5926176268796
 20
295.9938124485687
 30
0.0
 10
610.3037915140907
 20
312.6258731353606
 30
0.0
 10
607.7605812369487
 20
311.9303012086617
 30
0.0
 10
605.1869967931478
 20
311.3699842785121
 30
0.0
 10
602.5841317937985
 20
310.9462981782102
 30
0.0
 10
598.0707987393712
 20
295.0425471950597
 30
0.0
 10
597.6995354061308
 20
275.2976460321275
 30
0.0
 10
604.3663651266862
 20
239.8530758252827
 30
0.0
 10
614.0819709575904
 20
188.2002721430555
 30
0.0
 10
597.6400217950346
 20
168.4541715357094
 30
0.0
 10
597.6400217950346
 20
168.4541715357094
 30
0.0
 10
597.6400217950346
 20
168.4541715357094
 30
0.0
 10
604.5072645710954
 20
168.4541715357094
 30
0.0
 10
604.5072645710954
 20
168.4541715357094
 30
0.0
 10
604.5072645710954
 20
168.4541715357094
 30
0.0
 10
604.5072645710954
 20
165.2541596729041
 30
0.0
 10
604.5072645710954
 20
165.2541596729041
 30
0.0
 10
604.5072645710954
 20
165.2541596729041
 30
0.0
 10
610.507273736262
 20
165.2541596729041
 30
0.0
 10
610.507273736262
 20
165.2541596729041
 30
0.0
 10
610.507273736262
 20
165.2541596729041
 30
0.0
 10
610.507273736262
 20
168.4541715357094
 30
0.0
 10
610.507273736262
 20
168.4541715357094
 30
0.0
 10
610.507273736262
 20
168.4541715357094
 30
0.0
 10
615.5770079016612
 20
168.4541715357094
 30
0.0
 10
615.5770079016612
 20
168.4541715357094
 30
0.0
 10
615.5770079016612
 20
168.4541715357094
 30
0.0
 10
615.9504937349013
 20
175.6637144073342
 30
0.0
 10
619.3131362340606
 20
195.8428497258549
 30
0.0
 10
622.67577873322
 20
216.0219497665987
 30
0.0
 10
617.4456717900831
 20
235.4529139930957
 30
0.0
 10
610.718164291765
 20
262.3595919177603
 30
0.0
  0
SPLINE
  5
17E
330
1F
100
AcDbEntity
  8
_U_00D5_U_00BA_U_2264_U_20
 62
    23
100
AcDbSpline
210
0.0
220
0.0
230
1.0
 70
    11
 71
     3
 72
   122
 73
   118
 74
     0
 42
0.0000000001
 43
0.0000000001
 12
1.0
 22
0.0
 32
0.0
 13
1.0
 23
0.0
 33
0.0
 40
0.0
 40
0.0
 40
0.0
 40
0.0
 40
1.0
 40
1.0
 40
1.0
 40
2.0
 40
2.0
 40
2.0
 40
3.0
 40
3.0
 40
3.0
 40
4.0
 40
4.0
 40
4.0
 40
5.0
 40
5.0
 40
5.0
 40
6.0
 40
6.0
 40
6.0
 40
7.0
 40
7.0
 40
7.0
 40
8.0
 40
8.0
 40
8.0
 40
9.0
 40
9.0
 40
9.0
 40
10.0
 40
10.0
 40
10.0
 40
11.0
 40
11.0
 40
11.0
 40
12.0
 40
12.0
 40
12.0
 40
13.0
 40
13.0
 40
13.0
 40
14.0
 40
14.0
 40
14.0
 40
15.0
 40
15.0
 40
15.0
 40
16.0
 40
16.0
 40
16.0
 40
17.0
 40
17.0
 40
17.0
 40
18.0
 40
18.0
 40
18.0
 40
19.0
 40
19.0
 40
19.0
 40
20.0
 40
20.0
 40
20.0
 40
21.0
 40
21.0
 40
21.0
 40
22.0
 40
22.0
 40
22.0
 40
23.0
 40
23.0
 40
23.0
 40
24.0
 40
24.0
 40
24.0
 40
25.0
 40
25.0
 40
25.0
 40
26.0
 40
26.0
 40
26.0
 40
27.0
 40
27.0
 40
27.0
 40
28.0
 40
28.0
 40
28.0
 40
29.0
 40
29.0
 40
29.0
 40
30.0
 40
30.0
 40
30.0
 40
31.0
 40
31.0
 40
31.0
 40
32.0
 40
32.0
 40
32.0
 40
33.0
 40
33.0
 40
33.0
 40
34.0
 40
34.0
 40
34.0
 40
35.0
 40
35.0
 40
35.0
 40
36.0
 40
36.0
 40
36.0
 40
37.0
 40
37.0
 40
37.0
 40
38.0
 40
38.0
 40
38.0
 40
39.0
 40
39.0
 40
39.0
 40
39.0
 10
590.9323404078226
 20
248.599883102133
 30
0.0
 10
586.0734615201483
 20
270.3709986578167
 30
0.0
 10
579.7216976328473
 20
300.7394848274965
 30
0.0
 10
587.5697331864408
 20
320.6123032093876
 30
0.0
 10
595.4166751289235
 20
340.4855802023781
 30
0.0
 10
592.0657095742059
 20
346.8092628188252
 30
0.0
 10
608.4958406812094
 20
357.1644282440423
 30
0.0
 10
617.2005617901443
 20
362.6500521315598
 30
0.0
 10
623.0679265108997
 20
369.1657871299308
 30
0.0
 10
633.1580765083772
 20
375.7287237949567
 30
0.0
 10
638.3484959515239
 20
379.1059360163347
 30
0.0
 10
647.2655892826282
 20
384.295191292815
 30
0.0
 10
655.0599320584572
 20
389.5771565692724
 30
0.0
 10
653.4620956699681
 20
391.2946199021764
 30
0.0
 10
651.58641150377
 20
393.01793934619
 30
0.0
 10
649.387512337653
 20
394.6997721235472
 30
0.0
 10
647.8631595602563
 20
393.5343707349497
 30
0.0
 10
646.2956973384261
 20
392.1157101797489
 30
0.0
 10
644.7422051165923
 20
390.4215301801723
 30
0.0
 10
632.4110695641194
 20
376.9694432390911
 30
0.0
 10
636.5207190075365
 20
391.5426226798922
 30
0.0
 10
637.6422701183674
 20
400.1375946221879
 30
0.0
 10
637.705382062796
 20
400.629543233176
 30
0.0
 10
637.756640673894
 20
401.0971148997259
 30
0.0
 10
637.7905778961078
 20
401.5416854551701
 30
0.0
 10
636.4203184520061
 20
402.1661726772362
 30
0.0
 10
634.9765401190338
 20
402.7718921215293
 30
0.0
 10
633.4580787305246
 20
403.3543282324949
 30
0.0
 10
633.3564787305497
 20
403.0474115659048
 30
0.0
 10
633.2572776194636
 20
402.7228912882082
 30
0.0
 10
633.1580765083772
 20
402.3791446216275
 30
0.0
 10
630.9171262311595
 20
394.5323437902559
 30
0.0
 10
636.5207190075365
 20
391.5426226798922
 30
0.0
 10
624.9377545659878
 20
379.9590937938991
 30
0.0
 10
613.3536259577727
 20
368.3749299079064
 30
0.0
 10
600.274319294376
 20
359.7799226878329
 30
0.0
 10
588.6913901306049
 20
362.6500521315598
 30
0.0
 10
577.1066265223899
 20
365.5189468530647
 30
0.0
 10
583.8325112429309
 20
370.617079629568
 30
0.0
 10
580.8433545770114
 20
394.159457679238
 30
0.0
 10
580.5626492993039
 20
396.367670178686
 30
0.0
 10
580.2253231882772
 20
398.3034676782021
 30
0.0
 10
579.8518373550371
 20
399.9859354555591
 30
0.0
 10
578.2441231887725
 20
398.8426532336227
 30
0.0
 10
576.2704020781546
 20
398.0017015671663
 30
0.0
 10
573.3887015233195
 20
397.7711612894462
 30
0.0
 10
573.5976165232672
 20
397.0849026785066
 30
0.0
 10
573.8374701343184
 20
396.378182956461
 30
0.0
 10
574.1170465231376
 20
395.6534362899756
 30
0.0
 10
579.7216976328473
 20
381.0801510158412
 30
0.0
 10
577.1066265223899
 20
371.3640865738256
 30
0.0
 10
564.4003470811222
 20
376.5293882392011
 30
0.0
 10
551.6957609731872
 20
381.69352573791
 30
0.0
 10
548.7060045850457
 20
385.5644504591644
 30
0.0
 10
539.7375115317324
 20
397.5225587895084
 30
0.0
 10
538.9012518097193
 20
398.6383949003404
 30
0.0
 10
538.0930731988102
 20
399.5809112889936
 30
0.0
 10
537.3244762545578
 20
400.3681701776857
 30
0.0
 10
535.0011523662498
 20
399.909453233356
 30
0.0
 10
532.8793704223357
 20
399.1952193446457
 30
0.0
 10
531.0135640339134
 20
398.174421567123
 30
0.0
 10
531.8382526448183
 20
396.9057268452179
 30
0.0
 10
533.10225542228
 20
395.5261187900075
 30
0.0
 10
534.8792323662803
 20
394.159457679238
 30
0.0
 10
544.5959318082955
 20
386.6855076811064
 30
0.0
 10
543.4748393085758
 20
381.8271226823211
 30
0.0
 10
527.4059173681485
 20
385.1909646259245
 30
0.0
 10
525.7093737574617
 20
385.5456826813914
 30
0.0
 10
524.2394193133847
 20
385.779221570222
 30
0.0
 10
522.975875147034
 20
385.9145471257436
 30
0.0
 10
522.7617037581983
 20
384.4952515705428
 30
0.0
 10
522.6560468137806
 20
382.9569287931496
 30
0.0
 10
522.6671945915557
 20
381.2914649046771
 30
0.0
 10
523.5530548691119
 20
381.1572329602664
 30
0.0
 10
524.5147976466493
 20
381.0807507380632
 30
0.0
 10
525.5378532019489
 20
381.0807507380632
 30
0.0
 10
535.6268390327598
 20
381.0807507380632
 30
0.0
 10
537.8695884766439
 20
379.2114871274193
 30
0.0
 10
527.0324315349087
 20
373.3394657399985
 30
0.0
 10
525.712972090794
 20
372.6246321290661
 30
0.0
 10
524.6619412577235
 20
371.962256573676
 30
0.0
 10
523.8402512579288
 20
371.3541735182727
 30
0.0
 10
524.1127368134162
 20
370.0433924074891
 30
0.0
 10
524.4389151466681
 20
368.6783893522748
 30
0.0
 10
524.8135651465744
 20
367.2597287970739
 30
0.0
 10
526.0771445907029
 20
367.5329551858947
 30
0.0
 10
527.5336934792278
 20
368.1520096301842
 30
0.0
 10
528.9004957011082
 20
369.1657871299308
 30
0.0
 10
534.5063462552622
 20
373.3191457400035
 30
0.0
 10
543.1001540308918
 20
378.0904299054775
 30
0.0
 10
558.0481245827102
 20
372.6059701846263
 30
0.0
 10
572.9959540234177
 20
367.1208401859977
 30
0.0
 10
586.4481467978324
 20
355.2963640778426
 30
0.0
 10
576.3591962447994
 20
326.6359836112663
 30
0.0
 10
566.269610691766
 20
297.9756473980079
 30
0.0
 10
571.235240134969
 20
270.6675083724743
 30
0.0
 10
578.2271545776657
 20
240.7249660808167
 30
0.0
 10
588.8640748527838
 20
195.1810739094049
 30
0.0
 10
576.3591962447994
 20
168.4541715357094
 30
0.0
 10
576.3591962447994
 20
168.4541715357094
 30
0.0
 10
576.3591962447994
 20
168.4541715357094
 30
0.0
 10
580.1598123549603
 20
168.4541715357094
 30
0.0
 10
580.1598123549603
 20
168.4541715357094
 30
0.0
 10
580.1598123549603
 20
168.4541715357094
 30
0.0
 10
580.1598123549603
 20
165.2541596729041
 30
0.0
 10
580.1598123549603
 20
165.2541596729041
 30
0.0
 10
580.1598123549603
 20
165.2541596729041
 30
0.0
 10
586.1598215201268
 20
165.2541596729041
 30
0.0
 10
586.1598215201268
 20
165.2541596729041
 30
0.0
 10
586.1598215201268
 20
165.2541596729041
 30
0.0
 10
586.1598215201268
 20
168.4541715357094
 30
0.0
 10
586.1598215201268
 20
168.4541715357094
 30
0.0
 10
586.1598215201268
 20
168.4541715357094
 30
0.0
 10
588.6913901306049
 20
168.4541715357094
 30
0.0
 10
588.6913901306049
 20
168.4541715357094
 30
0.0
 10
605.1133367931661
 20
192.2304053735716
 30
0.0
 10
595.7901609621637
 20
226.8299669908632
 30
0.0
 10
590.9323404078226
 20
248.599883102133
 30
0.0
  0
POLYLINE
  5
17F
330
1F
100
AcDbEntity
  8
_U_00D5_U_00BA_U_2264_U_20
 62
    23
100
AcDb2dPolyline
 66
     1
 10
0.0
 20
0.0
 30
0.0
  0
VERTEX
  5
180
330
17F
100
AcDbEntity
  8
_U_00D5_U_00BA_U_2264_U_20
 62
    23
100
AcDbVertex
100
AcDb2dVertex
 10
192.5304075881401
 20
398.4654632337171
 30
0.0
  0
VERTEX
  5
181
330
17F
100
AcDbEntity
  8
_U_00D5_U_00BA_U_2264_U_20
 62
    23
100
AcDbVertex
100
AcDb2dVertex
 10
192.5304075881401
 20
158.4654454016541
 30
0.0
  0
VERTEX
  5
182
330
17F
100
AcDbEntity
  8
_U_00D5_U_00BA_U_2264_U_20
 62
    23
100
AcDbVertex
100
AcDb2dVertex
 10
117.5304183904381
 20
158.4654454016541
 30
0.0
  0
VERTEX
  5
183
330
17F
100
AcDbEntity
  8
_U_00D5_U_00BA_U_2264_U_20
 62
    23
100
AcDbVertex
100
AcDb2dVertex
 10
117.5304183904381
 20
398.4654632337171
 30
0.0
  0
VERTEX
  5
184
330
17F
100
AcDbEntity
  8
_U_00D5_U_00BA_U_2264_U_20
 62
    23
100
AcDbVertex
100
AcDb2dVertex
 10
192.5304075881401
 20
398.4654632337171
 30
0.0
  0
SEQEND
  5
185
330
17F
100
AcDbEntity
  8
_U_00D5_U_00BA_U_2264_U_20
 62
    23
  0
POLYLINE
  5
186
330
1F
100
AcDbEntity
  8
_U_00D5_U_00BA_U_2264_U_20
 62
    23
100
AcDb2dPolyline
 66
     1
 10
0.0
 20
0.0
 30
0.0
  0
VERTEX
  5
187
330
186
100
AcDbEntity
  8
_U_00D5_U_00BA_U_2264_U_20
 62
    23
100
AcDbVertex
100
AcDb2dVertex
 10
156.5303887843549
 20
269.5965103442422
 30
0.0
  0
VERTEX
  5
188
330
186
100
AcDbEntity
  8
_U_00D5_U_00BA_U_2264_U_20
 62
    23
100
AcDbVertex
100
AcDb2dVertex
 10
156.5303887843549
 20
263.5965013306486
 30
0.0
  0
VERTEX
  5
189
330
186
100
AcDbEntity
  8
_U_00D5_U_00BA_U_2264_U_20
 62
    23
100
AcDbVertex
100
AcDb2dVertex
 10
153.5304019164465
 20
263.5965013306486
 30
0.0
  0
VERTEX
  5
18A
330
186
100
AcDbEntity
  8
_U_00D5_U_00BA_U_2264_U_20
 62
    23
100
AcDbVertex
100
AcDb2dVertex
 10
153.5304019164465
 20
269.5965103442422
 30
0.0
  0
VERTEX
  5
18B
330
186
100
AcDbEntity
  8
_U_00D5_U_00BA_U_2264_U_20
 62
    23
100
AcDbVertex
100
AcDb2dVertex
 10
156.5303887843549
 20
269.5965103442422
 30
0.0
  0
SEQEND
  5
18C
330
186
100
AcDbEntity
  8
_U_00D5_U_00BA_U_2264_U_20
 62
    23
  0
POLYLINE
  5
18D
330
1F
100
AcDbEntity
  8
_U_00D5_U_00BA_U_2264_U_20
 62
    23
100
AcDb2dPolyline
 66
     1
 10
0.0
 20
0.0
 30
0.0
  0
VERTEX
  5
18E
330
18D
100
AcDbEntity
  8
_U_00D5_U_00BA_U_2264_U_20
 62
    23
100
AcDbVertex
100
AcDb2dVertex
 10
156.5303887843549
 20
293.9439619453092
 30
0.0
  0
VERTEX
  5
18F
330
18D
100
AcDbEntity
  8
_U_00D5_U_00BA_U_2264_U_20
 62
    23
100
AcDbVertex
100
AcDb2dVertex
 10
156.5303887843549
 20
287.9439529317156
 30
0.0
  0
VERTEX
  5
190
330
18D
100
AcDbEntity
  8
_U_00D5_U_00BA_U_2264_U_20
 62
    23
100
AcDbVertex
100
AcDb2dVertex
 10
153.5304019164465
 20
287.9439529317156
 30
0.0
  0
VERTEX
  5
191
330
18D
100
AcDbEntity
  8
_U_00D5_U_00BA_U_2264_U_20
 62
    23
100
AcDbVertex
100
AcDb2dVertex
 10
153.5304019164465
 20
293.9439619453092
 30
0.0
  0
VERTEX
  5
192
330
18D
100
AcDbEntity
  8
_U_00D5_U_00BA_U_2264_U_20
 62
    23
100
AcDbVertex
100
AcDb2dVertex
 10
156.5303887843549
 20
293.9439619453092
 30
0.0
  0
SEQEND
  5
193
330
18D
100
AcDbEntity
  8
_U_00D5_U_00BA_U_2264_U_20
 62
    23
  0
POLYLINE
  5
194
330
1F
100
AcDbEntity
  8
_U_00D5_U_00BA_U_2264_U_20
 62
    23
100
AcDb2dPolyline
 66
     1
 10
0.0
 20
0.0
 30
0.0
  0
VERTEX
  5
195
330
194
100
AcDbEntity
  8
_U_00D5_U_00BA_U_2264_U_20
 62
    23
100
AcDbVertex
100
AcDb2dVertex
 10
156.5303887843549
 20
310.9793887329215
 30
0.0
  0
VERTEX
  5
196
330
194
100
AcDbEntity
  8
_U_00D5_U_00BA_U_2264_U_20
 62
    23
100
AcDbVertex
100
AcDb2dVertex
 10
156.5303887843549
 20
304.9793797193278
 30
0.0
  0
VERTEX
  5
197
330
194
100
AcDbEntity
  8
_U_00D5_U_00BA_U_2264_U_20
 62
    23
100
AcDbVertex
100
AcDb2dVertex
 10
153.5304019164465
 20
304.9793797193278
 30
0.0
  0
VERTEX
  5
198
330
194
100
AcDbEntity
  8
_U_00D5_U_00BA_U_2264_U_20
 62
    23
100
AcDbVertex
100
AcDb2dVertex
 10
153.5304019164465
 20
310.9793887329215
 30
0.0
  0
VERTEX
  5
199
330
194
100
AcDbEntity
  8
_U_00D5_U_00BA_U_2264_U_20
 62
    23
100
AcDbVertex
100
AcDb2dVertex
 10
156.5303887843549
 20
310.9793887329215
 30
0.0
  0
SEQEND
  5
19A
330
194
100
AcDbEntity
  8
_U_00D5_U_00BA_U_2264_U_20
 62
    23
  0
POLYLINE
  5
19B
330
1F
100
AcDbEntity
  8
_U_00D5_U_00BA_U_2264_U_20
 62
    23
100
AcDb2dPolyline
 66
     1
 10
0.0
 20
0.0
 30
0.0
  0
VERTEX
  5
19C
330
19B
100
AcDbEntity
  8
_U_00D5_U_00BA_U_2264_U_20
 62
    23
100
AcDbVertex
100
AcDb2dVertex
 10
156.5303887843549
 20
326.0785947365976
 30
0.0
  0
VERTEX
  5
19D
330
19B
100
AcDbEntity
  8
_U_00D5_U_00BA_U_2264_U_20
 62
    23
100
AcDbVertex
100
AcDb2dVertex
 10
156.5303887843549
 20
320.0785857230039
 30
0.0
  0
VERTEX
  5
19E
330
19B
100
AcDbEntity
  8
_U_00D5_U_00BA_U_2264_U_20
 62
    23
100
AcDbVertex
100
AcDb2dVertex
 10
153.5304019164465
 20
320.0785857230039
 30
0.0
  0
VERTEX
  5
19F
330
19B
100
AcDbEntity
  8
_U_00D5_U_00BA_U_2264_U_20
 62
    23
100
AcDbVertex
100
AcDb2dVertex
 10
153.5304019164465
 20
326.0785947365976
 30
0.0
  0
VERTEX
  5
1A0
330
19B
100
AcDbEntity
  8
_U_00D5_U_00BA_U_2264_U_20
 62
    23
100
AcDbVertex
100
AcDb2dVertex
 10
156.5303887843549
 20
326.0785947365976
 30
0.0
  0
SEQEND
  5
1A1
330
19B
100
AcDbEntity
  8
_U_00D5_U_00BA_U_2264_U_20
 62
    23
  0
POLYLINE
  5
1A2
330
1F
100
AcDbEntity
  8
_U_00D5_U_00BA_U_2264_U_20
 62
    23
100
AcDb2dPolyline
 66
     1
 10
0.0
 20
0.0
 30
0.0
  0
VERTEX
  5
1A3
330
1A2
100
AcDbEntity
  8
_U_00D5_U_00BA_U_2264_U_20
 62
    23
100
AcDbVertex
100
AcDb2dVertex
 10
156.5303887843549
 20
339.4637946728904
 30
0.0
  0
VERTEX
  5
1A4
330
1A2
100
AcDbEntity
  8
_U_00D5_U_00BA_U_2264_U_20
 62
    23
100
AcDbVertex
100
AcDb2dVertex
 10
156.5303887843549
 20
333.4637856592967
 30
0.0
  0
VERTEX
  5
1A5
330
1A2
100
AcDbEntity
  8
_U_00D5_U_00BA_U_2264_U_20
 62
    23
100
AcDbVertex
100
AcDb2dVertex
 10
153.5304019164465
 20
333.4637856592967
 30
0.0
  0
VERTEX
  5
1A6
330
1A2
100
AcDbEntity
  8
_U_00D5_U_00BA_U_2264_U_20
 62
    23
100
AcDbVertex
100
AcDb2dVertex
 10
153.5304019164465
 20
339.4637946728904
 30
0.0
  0
VERTEX
  5
1A7
330
1A2
100
AcDbEntity
  8
_U_00D5_U_00BA_U_2264_U_20
 62
    23
100
AcDbVertex
100
AcDb2dVertex
 10
156.5303887843549
 20
339.4637946728904
 30
0.0
  0
SEQEND
  5
1A8
330
1A2
100
AcDbEntity
  8
_U_00D5_U_00BA_U_2264_U_20
 62
    23
  0
POLYLINE
  5
1A9
330
1F
100
AcDbEntity
  8
_U_00D5_U_00BA_U_2264_U_20
 62
    23
100
AcDb2dPolyline
 66
     1
 10
0.0
 20
0.0
 30
0.0
  0
VERTEX
  5
1AA
330
1A9
100
AcDbEntity
  8
_U_00D5_U_00BA_U_2264_U_20
 62
    23
100
AcDbVertex
100
AcDb2dVertex
 10
156.5303887843549
 20
351.893778244664
 30
0.0
  0
VERTEX
  5
1AB
330
1A9
100
AcDbEntity
  8
_U_00D5_U_00BA_U_2264_U_20
 62
    23
100
AcDbVertex
100
AcDb2dVertex
 10
156.5303887843549
 20
345.8938045088472
 30
0.0
  0
VERTEX
  5
1AC
330
1A9
100
AcDbEntity
  8
_U_00D5_U_00BA_U_2264_U_20
 62
    23
100
AcDbVertex
100
AcDb2dVertex
 10
153.5304019164465
 20
345.8938045088472
 30
0.0
  0
VERTEX
  5
1AD
330
1A9
100
AcDbEntity
  8
_U_00D5_U_00BA_U_2264_U_20
 62
    23
100
AcDbVertex
100
AcDb2dVertex
 10
153.5304019164465
 20
351.893778244664
 30
0.0
  0
VERTEX
  5
1AE
330
1A9
100
AcDbEntity
  8
_U_00D5_U_00BA_U_2264_U_20
 62
    23
100
AcDbVertex
100
AcDb2dVertex
 10
156.5303887843549
 20
351.893778244664
 30
0.0
  0
SEQEND
  5
1AF
330
1A9
100
AcDbEntity
  8
_U_00D5_U_00BA_U_2264_U_20
 62
    23
  0
POLYLINE
  5
1B0
330
1F
100
AcDbEntity
  8
_U_00D5_U_00BA_U_2264_U_20
 62
    23
100
AcDb2dPolyline
 66
     1
 10
0.0
 20
0.0
 30
0.0
  0
VERTEX
  5
1B1
330
1B0
100
AcDbEntity
  8
_U_00D5_U_00BA_U_2264_U_20
 62
    23
100
AcDbVertex
100
AcDb2dVertex
 10
156.5303887843549
 20
362.8828854648349
 30
0.0
  0
VERTEX
  5
1B2
330
1B0
100
AcDbEntity
  8
_U_00D5_U_00BA_U_2264_U_20
 62
    23
100
AcDbVertex
100
AcDb2dVertex
 10
156.5303887843549
 20
356.8828762996682
 30
0.0
  0
VERTEX
  5
1B3
330
1B0
100
AcDbEntity
  8
_U_00D5_U_00BA_U_2264_U_20
 62
    23
100
AcDbVertex
100
AcDb2dVertex
 10
153.5304019164465
 20
356.8828762996682
 30
0.0
  0
VERTEX
  5
1B4
330
1B0
100
AcDbEntity
  8
_U_00D5_U_00BA_U_2264_U_20
 62
    23
100
AcDbVertex
100
AcDb2dVertex
 10
153.5304019164465
 20
362.8828854648349
 30
0.0
  0
VERTEX
  5
1B5
330
1B0
100
AcDbEntity
  8
_U_00D5_U_00BA_U_2264_U_20
 62
    23
100
AcDbVertex
100
AcDb2dVertex
 10
156.5303887843549
 20
362.8828854648349
 30
0.0
  0
SEQEND
  5
1B6
330
1B0
100
AcDbEntity
  8
_U_00D5_U_00BA_U_2264_U_20
 62
    23
  0
POLYLINE
  5
1B7
330
1F
100
AcDbEntity
  8
_U_00D5_U_00BA_U_2264_U_20
 62
    23
100
AcDb2dPolyline
 66
     1
 10
0.0
 20
0.0
 30
0.0
  0
VERTEX
  5
1B8
330
1B7
100
AcDbEntity
  8
_U_00D5_U_00BA_U_2264_U_20
 62
    23
100
AcDbVertex
100
AcDb2dVertex
 10
156.5303887843549
 20
372.8151321290185
 30
0.0
  0
VERTEX
  5
1B9
330
1B7
100
AcDbEntity
  8
_U_00D5_U_00BA_U_2264_U_20
 62
    23
100
AcDbVertex
100
AcDb2dVertex
 10
156.5303887843549
 20
366.8151582416296
 30
0.0
  0
VERTEX
  5
1BA
330
1B7
100
AcDbEntity
  8
_U_00D5_U_00BA_U_2264_U_20
 62
    23
100
AcDbVertex
100
AcDb2dVertex
 10
153.5304019164465
 20
366.8151582416296
 30
0.0
  0
VERTEX
  5
1BB
330
1B7
100
AcDbEntity
  8
_U_00D5_U_00BA_U_2264_U_20
 62
    23
100
AcDbVertex
100
AcDb2dVertex
 10
153.5304019164465
 20
372.8151321290185
 30
0.0
  0
VERTEX
  5
1BC
330
1B7
100
AcDbEntity
  8
_U_00D5_U_00BA_U_2264_U_20
 62
    23
100
AcDbVertex
100
AcDb2dVertex
 10
156.5303887843549
 20
372.8151321290185
 30
0.0
  0
SEQEND
  5
1BD
330
1B7
100
AcDbEntity
  8
_U_00D5_U_00BA_U_2264_U_20
 62
    23
  0
POLYLINE
  5
1BE
330
1F
100
AcDbEntity
  8
_U_00D5_U_00BA_U_2264_U_20
 62
    23
100
AcDb2dPolyline
 66
     1
 10
0.0
 20
0.0
 30
0.0
  0
VERTEX
  5
1BF
330
1BE
100
AcDbEntity
  8
_U_00D5_U_00BA_U_2264_U_20
 62
    23
100
AcDbVertex
100
AcDb2dVertex
 10
156.5303887843549
 20
253.8832946340086
 30
0.0
  0
VERTEX
  5
1C0
330
1BE
100
AcDbEntity
  8
_U_00D5_U_00BA_U_2264_U_20
 62
    23
100
AcDbVertex
100
AcDb2dVertex
 10
156.5303887843549
 20
247.883285620415
 30
0.0
  0
VERTEX
  5
1C1
330
1BE
100
AcDbEntity
  8
_U_00D5_U_00BA_U_2264_U_20
 62
    23
100
AcDbVertex
100
AcDb2dVertex
 10
153.5304019164465
 20
247.883285620415
 30
0.0
  0
VERTEX
  5
1C2
330
1BE
100
AcDbEntity
  8
_U_00D5_U_00BA_U_2264_U_20
 62
    23
100
AcDbVertex
100
AcDb2dVertex
 10
153.5304019164465
 20
253.8832946340086
 30
0.0
  0
VERTEX
  5
1C3
330
1BE
100
AcDbEntity
  8
_U_00D5_U_00BA_U_2264_U_20
 62
    23
100
AcDbVertex
100
AcDb2dVertex
 10
156.5303887843549
 20
253.8832946340086
 30
0.0
  0
SEQEND
  5
1C4
330
1BE
100
AcDbEntity
  8
_U_00D5_U_00BA_U_2264_U_20
 62
    23
  0
POLYLINE
  5
1C5
330
1F
100
AcDbEntity
  8
_U_00D5_U_00BA_U_2264_U_20
 62
    23
100
AcDb2dPolyline
 66
     1
 10
0.0
 20
0.0
 30
0.0
  0
VERTEX
  5
1C6
330
1C5
100
AcDbEntity
  8
_U_00D5_U_00BA_U_2264_U_20
 62
    23
100
AcDbVertex
100
AcDb2dVertex
 10
156.5303887843549
 20
239.5596705549903
 30
0.0
  0
VERTEX
  5
1C7
330
1C5
100
AcDbEntity
  8
_U_00D5_U_00BA_U_2264_U_20
 62
    23
100
AcDbVertex
100
AcDb2dVertex
 10
156.5303887843549
 20
233.5596615413966
 30
0.0
  0
VERTEX
  5
1C8
330
1C5
100
AcDbEntity
  8
_U_00D5_U_00BA_U_2264_U_20
 62
    23
100
AcDbVertex
100
AcDb2dVertex
 10
153.5304019164465
 20
233.5596615413966
 30
0.0
  0
VERTEX
  5
1C9
330
1C5
100
AcDbEntity
  8
_U_00D5_U_00BA_U_2264_U_20
 62
    23
100
AcDbVertex
100
AcDb2dVertex
 10
153.5304019164465
 20
239.5596705549903
 30
0.0
  0
VERTEX
  5
1CA
330
1C5
100
AcDbEntity
  8
_U_00D5_U_00BA_U_2264_U_20
 62
    23
100
AcDbVertex
100
AcDb2dVertex
 10
156.5303887843549
 20
239.5596705549903
 30
0.0
  0
SEQEND
  5
1CB
330
1C5
100
AcDbEntity
  8
_U_00D5_U_00BA_U_2264_U_20
 62
    23
  0
POLYLINE
  5
1CC
330
1F
100
AcDbEntity
  8
_U_00D5_U_00BA_U_2264_U_20
 62
    23
100
AcDb2dPolyline
 66
     1
 10
0.0
 20
0.0
 30
0.0
  0
VERTEX
  5
1CD
330
1CC
100
AcDbEntity
  8
_U_00D5_U_00BA_U_2264_U_20
 62
    23
100
AcDbVertex
100
AcDb2dVertex
 10
156.5303887843549
 20
226.0990467317328
 30
0.0
  0
VERTEX
  5
1CE
330
1CC
100
AcDbEntity
  8
_U_00D5_U_00BA_U_2264_U_20
 62
    23
100
AcDbVertex
100
AcDb2dVertex
 10
156.5303887843549
 20
220.0990377181391
 30
0.0
  0
VERTEX
  5
1CF
330
1CC
100
AcDbEntity
  8
_U_00D5_U_00BA_U_2264_U_20
 62
    23
100
AcDbVertex
100
AcDb2dVertex
 10
153.5304019164465
 20
220.0990377181391
 30
0.0
  0
VERTEX
  5
1D0
330
1CC
100
AcDbEntity
  8
_U_00D5_U_00BA_U_2264_U_20
 62
    23
100
AcDbVertex
100
AcDb2dVertex
 10
153.5304019164465
 20
226.0990467317328
 30
0.0
  0
VERTEX
  5
1D1
330
1CC
100
AcDbEntity
  8
_U_00D5_U_00BA_U_2264_U_20
 62
    23
100
AcDbVertex
100
AcDb2dVertex
 10
156.5303887843549
 20
226.0990467317328
 30
0.0
  0
SEQEND
  5
1D2
330
1CC
100
AcDbEntity
  8
_U_00D5_U_00BA_U_2264_U_20
 62
    23
  0
POLYLINE
  5
1D3
330
1F
100
AcDbEntity
  8
_U_00D5_U_00BA_U_2264_U_20
 62
    23
100
AcDb2dPolyline
 66
     1
 10
0.0
 20
0.0
 30
0.0
  0
VERTEX
  5
1D4
330
1D3
100
AcDbEntity
  8
_U_00D5_U_00BA_U_2264_U_20
 62
    23
100
AcDbVertex
100
AcDb2dVertex
 10
156.5303887843549
 20
213.6995078814047
 30
0.0
  0
VERTEX
  5
1D5
330
1D3
100
AcDbEntity
  8
_U_00D5_U_00BA_U_2264_U_20
 62
    23
100
AcDbVertex
100
AcDb2dVertex
 10
156.5303887843549
 20
207.699498867811
 30
0.0
  0
VERTEX
  5
1D6
330
1D3
100
AcDbEntity
  8
_U_00D5_U_00BA_U_2264_U_20
 62
    23
100
AcDbVertex
100
AcDb2dVertex
 10
153.5304019164465
 20
207.699498867811
 30
0.0
  0
VERTEX
  5
1D7
330
1D3
100
AcDbEntity
  8
_U_00D5_U_00BA_U_2264_U_20
 62
    23
100
AcDbVertex
100
AcDb2dVertex
 10
153.5304019164465
 20
213.6995078814047
 30
0.0
  0
VERTEX
  5
1D8
330
1D3
100
AcDbEntity
  8
_U_00D5_U_00BA_U_2264_U_20
 62
    23
100
AcDbVertex
100
AcDb2dVertex
 10
156.5303887843549
 20
213.6995078814047
 30
0.0
  0
SEQEND
  5
1D9
330
1D3
100
AcDbEntity
  8
_U_00D5_U_00BA_U_2264_U_20
 62
    23
  0
POLYLINE
  5
1DA
330
1F
100
AcDbEntity
  8
_U_00D5_U_00BA_U_2264_U_20
 62
    23
100
AcDb2dPolyline
 66
     1
 10
0.0
 20
0.0
 30
0.0
  0
VERTEX
  5
1DB
330
1DA
100
AcDbEntity
  8
_U_00D5_U_00BA_U_2264_U_20
 62
    23
100
AcDbVertex
100
AcDb2dVertex
 10
156.5303887843549
 20
203.2446917592404
 30
0.0
  0
VERTEX
  5
1DC
330
1DA
100
AcDbEntity
  8
_U_00D5_U_00BA_U_2264_U_20
 62
    23
100
AcDbVertex
100
AcDb2dVertex
 10
156.5303887843549
 20
197.2446827456467
 30
0.0
  0
VERTEX
  5
1DD
330
1DA
100
AcDbEntity
  8
_U_00D5_U_00BA_U_2264_U_20
 62
    23
100
AcDbVertex
100
AcDb2dVertex
 10
153.5304019164465
 20
197.2446827456467
 30
0.0
  0
VERTEX
  5
1DE
330
1DA
100
AcDbEntity
  8
_U_00D5_U_00BA_U_2264_U_20
 62
    23
100
AcDbVertex
100
AcDb2dVertex
 10
153.5304019164465
 20
203.2446917592404
 30
0.0
  0
VERTEX
  5
1DF
330
1DA
100
AcDbEntity
  8
_U_00D5_U_00BA_U_2264_U_20
 62
    23
100
AcDbVertex
100
AcDb2dVertex
 10
156.5303887843549
 20
203.2446917592404
 30
0.0
  0
SEQEND
  5
1E0
330
1DA
100
AcDbEntity
  8
_U_00D5_U_00BA_U_2264_U_20
 62
    23
  0
POLYLINE
  5
1E1
330
1F
100
AcDbEntity
  8
_U_00D5_U_00BA_U_2264_U_20
 62
    23
100
AcDb2dPolyline
 66
     1
 10
0.0
 20
0.0
 30
0.0
  0
VERTEX
  5
1E2
330
1E1
100
AcDbEntity
  8
_U_00D5_U_00BA_U_2264_U_20
 62
    23
100
AcDbVertex
100
AcDb2dVertex
 10
156.5303887843549
 20
193.0154417424325
 30
0.0
  0
VERTEX
  5
1E3
330
1E1
100
AcDbEntity
  8
_U_00D5_U_00BA_U_2264_U_20
 62
    23
100
AcDbVertex
100
AcDb2dVertex
 10
156.5303887843549
 20
187.0154327288388
 30
0.0
  0
VERTEX
  5
1E4
330
1E1
100
AcDbEntity
  8
_U_00D5_U_00BA_U_2264_U_20
 62
    23
100
AcDbVertex
100
AcDb2dVertex
 10
153.5304019164465
 20
187.0154327288388
 30
0.0
  0
VERTEX
  5
1E5
330
1E1
100
AcDbEntity
  8
_U_00D5_U_00BA_U_2264_U_20
 62
    23
100
AcDbVertex
100
AcDb2dVertex
 10
153.5304019164465
 20
193.0154417424325
 30
0.0
  0
VERTEX
  5
1E6
330
1E1
100
AcDbEntity
  8
_U_00D5_U_00BA_U_2264_U_20
 62
    23
100
AcDbVertex
100
AcDb2dVertex
 10
156.5303887843549
 20
193.0154417424325
 30
0.0
  0
SEQEND
  5
1E7
330
1E1
100
AcDbEntity
  8
_U_00D5_U_00BA_U_2264_U_20
 62
    23
  0
POLYLINE
  5
1E8
330
1F
100
AcDbEntity
  8
_U_00D5_U_00BA_U_2264_U_20
 62
    23
100
AcDb2dPolyline
 66
     1
 10
0.0
 20
0.0
 30
0.0
  0
VERTEX
  5
1E9
330
1E8
100
AcDbEntity
  8
_U_00D5_U_00BA_U_2264_U_20
 62
    23
100
AcDbVertex
100
AcDb2dVertex
 10
156.5303887843549
 20
183.1063375507904
 30
0.0
  0
VERTEX
  5
1EA
330
1E8
100
AcDbEntity
  8
_U_00D5_U_00BA_U_2264_U_20
 62
    23
100
AcDbVertex
100
AcDb2dVertex
 10
156.5303887843549
 20
177.1063285371967
 30
0.0
  0
VERTEX
  5
1EB
330
1E8
100
AcDbEntity
  8
_U_00D5_U_00BA_U_2264_U_20
 62
    23
100
AcDbVertex
100
AcDb2dVertex
 10
153.5304019164465
 20
177.1063285371967
 30
0.0
  0
VERTEX
  5
1EC
330
1E8
100
AcDbEntity
  8
_U_00D5_U_00BA_U_2264_U_20
 62
    23
100
AcDbVertex
100
AcDb2dVertex
 10
153.5304019164465
 20
183.1063375507904
 30
0.0
  0
VERTEX
  5
1ED
330
1E8
100
AcDbEntity
  8
_U_00D5_U_00BA_U_2264_U_20
 62
    23
100
AcDbVertex
100
AcDb2dVertex
 10
156.5303887843549
 20
183.1063375507904
 30
0.0
  0
SEQEND
  5
1EE
330
1E8
100
AcDbEntity
  8
_U_00D5_U_00BA_U_2264_U_20
 62
    23
  0
ENDSEC
  0
SECTION
  2
OBJECTS
  0
DICTIONARY
  5
C
330
0
100
AcDbDictionary
  3
ACAD_GROUP
350
D
  3
ACAD_LAYOUT
350
1A
  3
ACAD_MATERIAL
350
3B
  3
ACAD_MLEADERSTYLE
350
211
  3
ACAD_MLINESTYLE
350
17
  3
ACAD_PLOTSETTINGS
350
19
  3
ACAD_VISUALSTYLE
350
2A
  3
ACDBHEADERROUNDTRIPXREC
350
1EF
  3
ACDBVARIABLEDICTIONARY
350
20F
  0
DICTIONARY
  5
D
102
{ACAD_REACTORS
330
C
102
}
330
C
100
AcDbDictionary
  0
DICTIONARY
  5
1A
102
{ACAD_REACTORS
330
C
102
}
330
C
100
AcDbDictionary
  0
DICTIONARY
  5
3B
102
{ACAD_REACTORS
330
C
102
}
330
C
100
AcDbDictionary
  3
BYBLOCK
350
3D
  3
BYLAYER
350
3C
  3
GLOBAL
350
3E
  0
DICTIONARY
  5
211
102
{ACAD_REACTORS
330
C
102
}
330
C
100
AcDbDictionary
  0
DICTIONARY
  5
17
102
{ACAD_REACTORS
330
C
102
}
330
C
100
AcDbDictionary
  3
STANDARD
350
18
  0
DICTIONARY
  5
19
102
{ACAD_REACTORS
330
C
102
}
330
C
100
AcDbDictionary
  0
DICTIONARY
  5
2A
102
{ACAD_REACTORS
330
C
102
}
330
C
100
AcDbDictionary
  3
2DWIREFRAME
350
2F
  3
3DWIREFRAME
350
30
  3
3D_HIDDEN
350
31
  3
BASIC
350
32
  3
BRIGHTEN
350
36
  3
COLORCHANGE
350
3A
  3
CONCEPTUAL
350
34
  3
DIM
350
35
  3
FACEPATTERN
350
39
  3
FLAT
350
2B
  3
FLATWITHEDGES
350
2C
  3
GOURAUD
350
2D
  3
GOURAUDWITHEDGES
350
2E
  3
LINEPATTERN
350
38
  3
REALISTIC
350
33
  3
THICKEN
350
37
  0
DICTIONARY
  5
1EF
102
{ACAD_REACTORS
330
C
102
}
330
C
100
AcDbDictionary
  3
CEPSNTYPE
350
1F8
  3
DIMSTYLEDATA
350
20E
  3
FINGERPRINTGUID
350
1F9
  3
HYPERLINKBASE
350
1F2
  3
INSUNITS
350
1F7
  3
LAYOUTDICT
350
1F4
  3
LWETCUNION
350
1F6
  3
PLOTSETDICT
350
1F5
  3
PSVPSCALE
350
1FB
  3
PUCSBASE
350
1FE
  3
PUCSORGBACK
350
204
  3
PUCSORGBOTTOM
350
200
  3
PUCSORGFRONT
350
203
  3
PUCSORGLEFT
350
201
  3
PUCSORGRIGHT
350
202
  3
PUCSORGTOP
350
1FF
  3
PUCSORTHOREF
350
1FC
  3
PUCSORTHOVIEW
350
1FD
  3
STYLESHEET
350
1F3
  3
TSTACKALIGN
350
1F0
  3
TSTACKSIZE
350
1F1
  3
UCSBASE
350
207
  3
UCSORGBACK
350
20D
  3
UCSORGBOTTOM
350
209
  3
UCSORGFRONT
350
20C
  3
UCSORGLEFT
350
20A
  3
UCSORGRIGHT
350
20B
  3
UCSORGTOP
350
208
  3
UCSORTHOREF
350
205
  3
UCSORTHOVIEW
350
206
  3
VERSIONGUID
350
1FA
  0
DICTIONARY
  5
20F
102
{ACAD_REACTORS
330
C
102
}
330
C
100
AcDbDictionary
  3
DIMASSOC
350
212
  3
HIDETEXT
350
213
  0
MATERIAL
  5
3D
102
{ACAD_REACTORS
330
3B
102
}
102
{ACAD_XDICTIONARY
360
216
102
}
330
3B
100
AcDbMaterial
  1
ByBlock
  0
MATERIAL
  5
3C
102
{ACAD_REACTORS
330
3B
102
}
102
{ACAD_XDICTIONARY
360
214
102
}
330
3B
100
AcDbMaterial
  1
ByLayer
  0
MATERIAL
  5
3E
102
{ACAD_REACTORS
330
3B
102
}
102
{ACAD_XDICTIONARY
360
218
102
}
330
3B
100
AcDbMaterial
  1
Global
  0
MLINESTYLE
  5
18
102
{ACAD_REACTORS
330
17
102
}
330
17
100
AcDbMlineStyle
  2
Standard
 70
     0
  3

 62
   256
 51
90.0
 52
90.0
 71
     2
 49
0.5
 62
   256
  6
BYLAYER
 49
-0.5
 62
   256
  6
BYLAYER
  0
ACAD_PROXY_OBJECT
  5
2F
102
{ACAD_REACTORS
330
2A
102
}
330
2A
100
AcDbProxyObject
 90
      499
 91
      501
 93
      436
310
42CC9915DA5C99599C985B595049028333333333333E3BF0000000000000FB0107901411070040501600405405064090741402480A0340
1001
ACAD
1000
AcDbSavedByObjectVersion
1070
     0
  0
ACAD_PROXY_OBJECT
  5
30
102
{ACAD_REACTORS
330
2A
102
}
330
2A
100
AcDbProxyObject
 90
      499
 91
      501
 93
      436
310
42CCD915DA5C99599C985B595059028333333333333E3BF0000000000000FB0107901411070040501600405405064090741402480A0340
1001
ACAD
1000
AcDbSavedByObjectVersion
1070
     0
  0
ACAD_PROXY_OBJECT
  5
31
102
{ACAD_REACTORS
330
2A
102
}
330
2A
100
AcDbProxyObject
 90
      499
 91
      501
 93
      500
310
424CD108121A5919195B90640502408333333333333E3BF0000000000000FB01079024090700405020000000000001110200405405064090740C02480A0340
1001
ACAD
1000
AcDbSavedByObjectVersion
1070
     0
  0
ACAD_PROXY_OBJECT
  5
32
102
{ACAD_REACTORS
330
2A
102
}
330
2A
100
AcDbProxyObject
 90
      499
 91
      501
 93
      388
310
4150985CDA58D07406404333333333333E3BF0000000000000FB0107A41107004050150841D405064090741402480A0350
1001
ACAD
1000
AcDbSavedByObjectVersion
1070
     0
  0
ACAD_PROXY_OBJECT
  5
36
102
{ACAD_REACTORS
330
2A
102
}
330
2A
100
AcDbProxyObject
 90
      499
 91
      501
 93
      428
310
42109C9A59DA1D195B90C409028333333333333E3BF0000000000000FB010790141107004050150841D405064090741402480A029950
1001
ACAD
1000
AcDbSavedByObjectVersion
1070
     0
  0
ACAD_PROXY_OBJECT
  5
3A
102
{ACAD_REACTORS
330
2A
102
}
330
2A
100
AcDbProxyObject
 90
      499
 91
      501
 93
      452
310
42D0DBDB1BDC90DA185B99D95104090240C333333333333E3BF0000000000000FB0108901411070040501508421405064090741402480A0350
1001
ACAD
1000
AcDbSavedByObjectVersion
1070
     0
  0
ACAD_PROXY_OBJECT
  5
34
102
{ACAD_REACTORS
330
2A
102
}
330
2A
100
AcDbProxyObject
 90
      499
 91
      501
 93
      500
310
4290DBDB98D95C1D1D585B10940D028333333333333E3BF0000000000000FB0107902409070040501000000000000111010841D405064090740C02480A0340
1001
ACAD
1000
AcDbSavedByObjectVersion
1070
     0
  0
ACAD_PROXY_OBJECT
  5
35
102
{ACAD_REACTORS
330
2A
102
}
330
2A
100
AcDbProxyObject
 90
      499
 91
      501
 93
      412
310
40D11A5B50B409028333333333333E3BF0000000000000FB010790141107004050150841D405064090741402480A02677FFFFFD0
1001
ACAD
1000
AcDbSavedByObjectVersion
1070
     0
  0
ACAD_PROXY_OBJECT
  5
39
102
{ACAD_REACTORS
330
2A
102
}
330
2A
100
AcDbProxyObject
 90
      499
 91
      501
 93
      444
310
42D19858D95C185D1D195C9B90F409028333333333333E3BF0000000000000FB010790141107004050150841D405064090741402480A0350
1001
ACAD
1000
AcDbSavedByObjectVersion
1070
     0
  0
ACAD_PROXY_OBJECT
  5
2B
102
{ACAD_REACTORS
330
2A
102
}
330
2A
100
AcDbProxyObject
 90
      499
 91
      501
 93
      388
310
41119B185D240901404333333333333E3BF0000000000000F9010740A41107004050150841D405064090741402480A1B50
1001
ACAD
1000
AcDbSavedByObjectVersion
1070
     0
  0
ACAD_PROXY_OBJECT
  5
2C
102
{ACAD_REACTORS
330
2A
102
}
330
2A
100
AcDbProxyObject
 90
      499
 91
      501
 93
      476
310
43519B185D15DA5D1A115919D95CD0140901404333333333333E3BF0000000000000F9010740901411070040501600405405064090741402480A1B50
1001
ACAD
1000
AcDbSavedByObjectVersion
1070
     0
  0
ACAD_PROXY_OBJECT
  5
2D
102
{ACAD_REACTORS
330
2A
102
}
330
2A
100
AcDbProxyObject
 90
      499
 91
      501
 93
      412
310
41D1DBDD5C985D5910240902404333333333333E3BF0000000000000F9010740A411070040501641D405064090741402480A1B50
1001
ACAD
1000
AcDbSavedByObjectVersion
1070
     0
  0
ACAD_PROXY_OBJECT
  5
2E
102
{ACAD_REACTORS
330
2A
102
}
330
2A
100
AcDbProxyObject
 90
      499
 91
      501
 93
      500
310
4411DBDD5C985D5915DA5D1A115919D95CD0340902404333333333333E3BF0000000000000F9010740901411070040501600405405064090741402480A1B50
1001
ACAD
1000
AcDbSavedByObjectVersion
1070
     0
  0
ACAD_PROXY_OBJECT
  5
38
102
{ACAD_REACTORS
330
2A
102
}
330
2A
100
AcDbProxyObject
 90
      499
 91
      501
 93
      444
310
42D31A5B995C185D1D195C9B90E409028333333333333E3BF0000000000000FB010790141107004050750841D405064090741402483A0350
1001
ACAD
1000
AcDbSavedByObjectVersion
1070
     0
  0
ACAD_PROXY_OBJECT
  5
33
102
{ACAD_REACTORS
330
2A
102
}
330
2A
100
AcDbProxyObject
 90
      499
 91
      501
 93
      420
310
425499585B1A5CDD1A58D08409028333333333333E3BF0000000000000FB01079019070040501508421405064090741402480A1B40
1001
ACAD
1000
AcDbSavedByObjectVersion
1070
     0
  0
ACAD_PROXY_OBJECT
  5
37
102
{ACAD_REACTORS
330
2A
102
}
330
2A
100
AcDbProxyObject
 90
      499
 91
      501
 93
      412
310
41D51A1A58DAD95B90D409028333333333333E3BF0000000000000FB010790141107004050150C41D405064090741402480A0350
1001
ACAD
1000
AcDbSavedByObjectVersion
1070
     0
  0
XRECORD
  5
1F8
102
{ACAD_REACTORS
330
1EF
102
}
330
1EF
100
AcDbXrecord
 90
        0
  0
XRECORD
  5
20E
102
{ACAD_REACTORS
330
1EF
102
}
330
1EF
100
AcDbXrecord
1000
DSTYLE
1002
{
1070
   340
340
11
1002
}
  0
XRECORD
  5
1F9
102
{ACAD_REACTORS
330
1EF
102
}
330
1EF
100
AcDbXrecord
  1
{0A1EA126-3284-0CB4-2F66-76F94050D1E4}
  0
XRECORD
  5
1F2
102
{ACAD_REACTORS
330
1EF
102
}
330
1EF
100
AcDbXrecord
  1

  0
XRECORD
  5
1F7
102
{ACAD_REACTORS
330
1EF
102
}
330
1EF
100
AcDbXrecord
 90
        1
  0
XRECORD
  5
1F4
102
{ACAD_REACTORS
330
1EF
102
}
330
1EF
100
AcDbXrecord
340
1A
  0
XRECORD
  5
1F6
102
{ACAD_REACTORS
330
1EF
102
}
330
1EF
100
AcDbXrecord
 90
    10269
  0
XRECORD
  5
1F5
102
{ACAD_REACTORS
330
1EF
102
}
330
1EF
100
AcDbXrecord
340
19
  0
XRECORD
  5
1FB
102
{ACAD_REACTORS
330
1EF
102
}
330
1EF
100
AcDbXrecord
 40
0.0
  0
XRECORD
  5
1FE
102
{ACAD_REACTORS
330
1EF
102
}
330
1EF
100
AcDbXrecord
340
0
  0
XRECORD
  5
204
102
{ACAD_REACTORS
330
1EF
102
}
330
1EF
100
AcDbXrecord
 10
0.0
 20
0.0
 30
0.0
  0
XRECORD
  5
200
102
{ACAD_REACTORS
330
1EF
102
}
330
1EF
100
AcDbXrecord
 10
0.0
 20
0.0
 30
0.0
  0
XRECORD
  5
203
102
{ACAD_REACTORS
330
1EF
102
}
330
1EF
100
AcDbXrecord
 10
0.0
 20
0.0
 30
0.0
  0
XRECORD
  5
201
102
{ACAD_REACTORS
330
1EF
102
}
330
1EF
100
AcDbXrecord
 10
0.0
 20
0.0
 30
0.0
  0
XRECORD
  5
202
102
{ACAD_REACTORS
330
1EF
102
}
330
1EF
100
AcDbXrecord
 10
0.0
 20
0.0
 30
0.0
  0
XRECORD
  5
1FF
102
{ACAD_REACTORS
330
1EF
102
}
330
1EF
100
AcDbXrecord
 10
0.0
 20
0.0
 30
0.0
  0
XRECORD
  5
1FC
102
{ACAD_REACTORS
330
1EF
102
}
330
1EF
100
AcDbXrecord
340
0
  0
XRECORD
  5
1FD
102
{ACAD_REACTORS
330
1EF
102
}
330
1EF
100
AcDbXrecord
 70
     0
  0
XRECORD
  5
1F3
102
{ACAD_REACTORS
330
1EF
102
}
330
1EF
100
AcDbXrecord
  1

  0
XRECORD
  5
1F0
102
{ACAD_REACTORS
330
1EF
102
}
330
1EF
100
AcDbXrecord
 90
        1
  0
XRECORD
  5
1F1
102
{ACAD_REACTORS
330
1EF
102
}
330
1EF
100
AcDbXrecord
 90
       70
  0
XRECORD
  5
207
102
{ACAD_REACTORS
330
1EF
102
}
330
1EF
100
AcDbXrecord
340
0
  0
XRECORD
  5
20D
102
{ACAD_REACTORS
330
1EF
102
}
330
1EF
100
AcDbXrecord
 10
0.0
 20
0.0
 30
0.0
  0
XRECORD
  5
209
102
{ACAD_REACTORS
330
1EF
102
}
330
1EF
100
AcDbXrecord
 10
0.0
 20
0.0
 30
0.0
  0
XRECORD
  5
20C
102
{ACAD_REACTORS
330
1EF
102
}
330
1EF
100
AcDbXrecord
 10
0.0
 20
0.0
 30
0.0
  0
XRECORD
  5
20A
102
{ACAD_REACTORS
330
1EF
102
}
330
1EF
100
AcDbXrecord
 10
0.0
 20
0.0
 30
0.0
  0
XRECORD
  5
20B
102
{ACAD_REACTORS
330
1EF
102
}
330
1EF
100
AcDbXrecord
 10
0.0
 20
0.0
 30
0.0
  0
XRECORD
  5
208
102
{ACAD_REACTORS
330
1EF
102
}
330
1EF
100
AcDbXrecord
 10
0.0
 20
0.0
 30
0.0
  0
XRECORD
  5
205
102
{ACAD_REACTORS
330
1EF
102
}
330
1EF
100
AcDbXrecord
340
0
  0
XRECORD
  5
206
102
{ACAD_REACTORS
330
1EF
102
}
330
1EF
100
AcDbXrecord
 70
     0
  0
XRECORD
  5
1FA
102
{ACAD_REACTORS
330
1EF
102
}
330
1EF
100
AcDbXrecord
  1
{FAEB1C32-E019-11D5-929B-00C0DF256EC4}
  0
DICTIONARYVAR
  5
212
102
{ACAD_REACTORS
330
20F
102
}
330
20F
100
DictionaryVariables
280
     0
  1
2
  0
DICTIONARYVAR
  5
213
102
{ACAD_REACTORS
330
20F
102
}
330
20F
100
DictionaryVariables
280
     0
  1
1
  0
DICTIONARY
  5
216
330
3D
100
AcDbDictionary
280
     1
  3
ACAD_XREC_ROUNDTRIP
360
217
  0
DICTIONARY
  5
214
330
3C
100
AcDbDictionary
280
     1
  3
ACAD_XREC_ROUNDTRIP
360
215
  0
DICTIONARY
  5
218
330
3E
100
AcDbDictionary
280
     1
  3
ACAD_XREC_ROUNDTRIP
360
219
  0
XRECORD
  5
217
102
{ACAD_REACTORS
330
216
102
}
330
216
100
AcDbXrecord
102
MATERIAL
148
0.0
149
0.0
149
0.0
 93
        0
 94
      127
282
     0
 72
     1
 77
     1
171
     1
175
     1
179
     1
273
     0
  0
XRECORD
  5
215
102
{ACAD_REACTORS
330
214
102
}
330
214
100
AcDbXrecord
102
MATERIAL
148
0.0
149
0.0
149
0.0
 93
        0
 94
      127
282
     0
 72
     1
 77
     1
171
     1
175
     1
179
     1
273
     0
  0
XRECORD
  5
219
102
{ACAD_REACTORS
330
218
102
}
330
218
100
AcDbXrecord
102
MATERIAL
148
0.0
149
0.0
149
0.0
 93
        0
 94
      127
282
     0
 72
     1
 77
     1
171
     1
175
     1
179
     1
273
     0
  0
ENDSEC
  0
EOF
