  0
SECTION
  2
HEADER
  9
$ACADVER
  1
AC1014
  9
$HANDSEED
  5
FFFF
  9
$MEASUREMENT
 70
     1
  0
ENDSEC
  0
SECTION
  2
TABLES
  0
TABLE
  2
VPORT
  5
8
330
0
100
AcDbSymbolTable
 70
     4
  0
VPORT
  5
2E
330
8
100
AcDbSymbolTableRecord
100
AcDbViewportTableRecord
  2
*ACTIVE
 70
     0
 10
0.0
 20
0.0
 11
1.0
 21
1.0
 12
210.0
 22
148.5
 13
0.0
 23
0.0
 14
10.0
 24
10.0
 15
10.0
 25
10.0
 16
0.0
 26
0.0
 36
1.0
 17
0.0
 27
0.0
 37
0.0
 40
341.0
 41
1.24
 42
50.0
 43
0.0
 44
0.0
 50
0.0
 51
0.0
 71
     0
 72
   100
 73
     1
 74
     3
 75
     0
 76
     0
 77
     0
 78
     0
  0
ENDTAB
  0
TABLE
  2
LTYPE
  5
5
330
0
100
AcDbSymbolTable
 70
     1
  0
LTYPE
  5
14
330
5
100
AcDbSymbolTableRecord
100
AcDbLinetypeTableRecord
  2
BYBLOCK
 70
     0
  3

 72
    65
 73
     0
 40
0.0
  0
LTYPE
  5
15
330
5
100
AcDbSymbolTableRecord
100
AcDbLinetypeTableRecord
  2
BYLAYER
 70
     0
  3

 72
    65
 73
     0
 40
0.0
  0
LTYPE
  5
16
330
5
100
AcDbSymbolTableRecord
100
AcDbLinetypeTableRecord
  2
CONTINUOUS
 70
     0
  3
Solid line
 72
    65
 73
     0
 40
0.0
  0
ENDTAB
  0
TABLE
  2
LAYER
  5
2
100
AcDbSymbolTable
 70
2
  0
LAYER
  5
50
100
AcDbSymbolTableRecord
100
AcDbLayerTableRecord
  2
0
 70
0
  6
CONTINUOUS
  0
LAYER
  5
51
100
AcDbSymbolTableRecord
100
AcDbLayerTableRecord
  2
Layer_1
 70
0
  6
CONTINUOUS
  0
ENDTAB
  0
TABLE
  2
STYLE
  5
3
330
0
100
AcDbSymbolTable
 70
     1
  0
STYLE
  5
11
330
3
100
AcDbSymbolTableRecord
100
AcDbTextStyleTableRecord
  2
STANDARD
 70
     0
 40
0.0
 41
1.0
 50
0.0
 71
     0
 42
2.5
  3
txt
  4

  0
ENDTAB
  0
TABLE
  2
VIEW
  5
6
330
0
100
AcDbSymbolTable
 70
     0
  0
ENDTAB
  0
TABLE
  2
UCS
  5
7
330
0
100
AcDbSymbolTable
 70
     0
  0
ENDTAB
  0
TABLE
  2
APPID
  5
9
330
0
100
AcDbSymbolTable
 70
     2
  0
APPID
  5
12
330
9
100
AcDbSymbolTableRecord
100
AcDbRegAppTableRecord
  2
ACAD
 70
     0
  0
ENDTAB
  0
TABLE
  2
DIMSTYLE
  5
A
330
0
100
AcDbSymbolTable
 70
     1
  0
DIMSTYLE
105
27
330
A
100
AcDbSymbolTableRecord
100
AcDbDimStyleTableRecord
  2
ISO-25
 70
     0
  3

  4

  5

  6

  7

 40
1.0
 41
2.5
 42
0.625
 43
3.75
 44
1.25
 45
0.0
 46
0.0
 47
0.0
 48
0.0
140
2.5
141
2.5
142
0.0
143
0.03937007874016
144
1.0
145
0.0
146
1.0
147
0.625
 71
     0
 72
     0
 73
     0
 74
     0
 75
     0
 76
     0
 77
     1
 78
     8
170
     0
171
     3
172
     1
173
     0
174
     0
175
     0
176
     0
177
     0
178
     0
270
     2
271
     2
272
     2
273
     2
274
     3
340
11
275
     0
280
     0
281
     0
282
     0
283
     0
284
     8
285
     0
286
     0
287
     3
288
     0
  0
ENDTAB
  0
TABLE
  2
BLOCK_RECORD
  5
1
330
0
100
AcDbSymbolTable
 70
     1
  0
BLOCK_RECORD
  5
1F
330
1
100
AcDbSymbolTableRecord
100
AcDbBlockTableRecord
  2
*MODEL_SPACE
  0
BLOCK_RECORD
  5
1B
330
1
100
AcDbSymbolTableRecord
100
AcDbBlockTableRecord
  2
*PAPER_SPACE
  0
ENDTAB
  0
ENDSEC
  0
SECTION
  2
BLOCKS
  0
BLOCK
  5
20
330
1F
100
AcDbEntity
  8
0
100
AcDbBlockBegin
  2
*MODEL_SPACE
 70
     0
 10
0.0
 20
0.0
 30
0.0
  3
*MODEL_SPACE
  1

  0
ENDBLK
  5
21
330
1F
100
AcDbEntity
  8
0
100
AcDbBlockEnd
  0
BLOCK
  5
1C
330
1B
100
AcDbEntity
 67
     1
  8
0
100
AcDbBlockBegin
  2
*PAPER_SPACE
  1

  0
ENDBLK
  5
1D
330
1B
100
AcDbEntity
 67
     1
  8
0
100
AcDbBlockEnd
  0
ENDSEC
  0
SECTION
  2
ENTITIES
  0
LWPOLYLINE
  5
100
100
AcDbEntity
  8
Layer_1
 62
7
100
AcDbPolyline
 90
15
 70
0
 10
23.812499
 20
52.916665
 30
0.0
 10
27.781250
 20
52.916665
 30
0.0
 10
27.781250
 20
48.947917
 30
0.0
 10
31.750000
 20
48.947917
 30
0.0
 10
31.750000
 20
52.916665
 30
0.0
 10
35.718750
 20
52.916665
 30
0.0
 10
38.364583
 20
59.531249
 30
0.0
 10
42.333333
 20
59.531249
 30
0.0
 10
44.979167
 20
52.916665
 30
0.0
 10
48.947917
 20
52.916665
 30
0.0
 10
48.947917
 20
48.947917
 30
0.0
 10
52.916667
 20
48.947917
 30
0.0
 10
52.916667
 20
52.916665
 30
0.0
 10
56.885417
 20
52.916665
 30
0.0
 10
50.270833
 20
66.145832
 30
0.0
  0
LWPOLYLINE
  5
101
100
AcDbEntity
  8
Layer_1
 62
7
100
AcDbPolyline
 90
2
 70
0
 10
23.812500
 20
52.916666
 30
0.0
 10
35.718750
 20
75.406249
 30
0.0
  0
LWPOLYLINE
  5
102
100
AcDbEntity
  8
Layer_1
 62
7
100
AcDbPolyline
 90
3
 70
0
 10
50.270833
 20
66.145832
 30
0.0
 10
46.302083
 20
75.406249
 30
0.0
 10
35.718750
 20
75.406249
 30
0.0
  0
LWPOLYLINE
  5
103
100
AcDbEntity
  8
Layer_1
 62
7
100
AcDbPolyline
 90
8
 70
0
 10
7.937499
 20
35.718750
 30
0.0
 10
10.583332
 20
39.687500
 30
0.0
 10
14.790208
 20
39.687500
 30
0.0
 10
14.790208
 20
35.718750
 30
0.0
 10
18.309167
 20
35.718750
 30
0.0
 10
18.309167
 20
39.687500
 30
0.0
 10
22.489583
 20
39.687500
 30
0.0
 10
17.197916
 20
26.458333
 30
0.0
  0
LWPOLYLINE
  5
104
100
AcDbEntity
  8
Layer_1
 62
7
100
AcDbPolyline
 90
7
 70
0
 10
7.937499
 20
35.718750
 30
0.0
 10
7.937499
 20
19.843750
 30
0.0
 10
7.937499
 20
15.875000
 30
0.0
 10
27.781250
 20
15.875000
 30
0.0
 10
27.781250
 20
20.108333
 30
0.0
 10
23.812499
 20
20.108333
 30
0.0
 10
23.812499
 20
23.812500
 30
0.0
  0
LWPOLYLINE
  5
105
100
AcDbEntity
  8
Layer_1
 62
7
100
AcDbPolyline
 90
3
 70
0
 10
23.812499
 20
23.547917
 30
0.0
 10
27.781250
 20
23.547917
 30
0.0
 10
27.781250
 20
26.458333
 30
0.0
  0
LWPOLYLINE
  5
106
100
AcDbEntity
  8
Layer_1
 62
7
100
AcDbPolyline
 90
2
 70
0
 10
17.197915
 20
26.458333
 30
0.0
 10
27.781250
 20
26.458333
 30
0.0
  0
LWPOLYLINE
  5
107
100
AcDbEntity
  8
Layer_1
 62
7
100
AcDbPolyline
 90
8
 70
0
 10
62.177083
 20
41.010417
 30
0.0
 10
59.531250
 20
44.979167
 30
0.0
 10
55.297917
 20
44.979167
 30
0.0
 10
55.297917
 20
41.010417
 30
0.0
 10
51.858333
 20
41.010417
 30
0.0
 10
51.858333
 20
44.979167
 30
0.0
 10
47.625000
 20
44.979167
 30
0.0
 10
52.916667
 20
31.750000
 30
0.0
  0
LWPOLYLINE
  5
108
100
AcDbEntity
  8
Layer_1
 62
7
100
AcDbPolyline
 90
2
 70
0
 10
62.177083
 20
41.010417
 30
0.0
 10
62.177083
 20
25.135417
 30
0.0
  0
LWPOLYLINE
  5
109
100
AcDbEntity
  8
Layer_1
 62
7
100
AcDbPolyline
 90
8
 70
0
 10
44.979167
 20
31.750000
 30
0.0
 10
43.656250
 20
31.750000
 30
0.0
 10
43.656250
 20
29.104167
 30
0.0
 10
39.687500
 20
29.104167
 30
0.0
 10
39.687500
 20
25.135417
 30
0.0
 10
43.656250
 20
25.135417
 30
0.0
 10
43.656250
 20
21.166667
 30
0.0
 10
44.979167
 20
21.166667
 30
0.0
  0
LWPOLYLINE
  5
10a
100
AcDbEntity
  8
Layer_1
 62
7
100
AcDbPolyline
 90
3
 70
0
 10
39.687500
 20
67.468748
 30
0.0
 10
39.687500
 20
64.822915
 30
0.0
 10
42.333333
 20
64.822915
 30
0.0
  0
LWPOLYLINE
  5
10b
100
AcDbEntity
  8
Layer_1
 62
7
100
AcDbPolyline
 90
2
 70
0
 10
70.114583
 20
59.531250
 30
0.0
 10
67.468750
 20
59.531250
 30
0.0
  0
LWPOLYLINE
  5
10c
100
AcDbEntity
  8
Layer_1
 62
7
100
AcDbPolyline
 90
3
 70
0
 10
70.114583
 20
62.177083
 30
0.0
 10
67.468750
 20
62.177083
 30
0.0
 10
67.468750
 20
59.531250
 30
0.0
  0
SPLINE
  5
10d
100
AcDbEntity
  8
Layer_1
 62
7
100
AcDbSpline
 70
8
 71
3
 72
8
 73
4
 74
0
 40
0
 40
0
 40
0
 40
0
 40
1
 40
1
 40
1
 40
1
 10
72.760417
 20
62.177083
 30
0.0
 10
72.694678
 20
62.621739
 30
0.0
 10
72.725365
 20
63.055227
 30
0.0
 10
72.760417
 20
63.500000
 30
0.0
  0
LWPOLYLINE
  5
10e
100
AcDbEntity
  8
Layer_1
 62
7
100
AcDbPolyline
 90
10
 70
0
 10
70.114583
 20
59.531250
 30
0.0
 10
70.114583
 20
56.885416
 30
0.0
 10
72.760417
 20
56.885416
 30
0.0
 10
72.760417
 20
59.531250
 30
0.0
 10
75.406250
 20
59.531250
 30
0.0
 10
75.406250
 20
62.177083
 30
0.0
 10
72.760417
 20
62.177083
 30
0.0
 10
72.760417
 20
64.822916
 30
0.0
 10
70.114583
 20
64.822916
 30
0.0
 10
70.114583
 20
62.177083
 30
0.0
  0
LWPOLYLINE
  5
10f
100
AcDbEntity
  8
Layer_1
 62
7
100
AcDbPolyline
 90
2
 70
0
 10
70.114583
 20
48.947914
 30
0.0
 10
67.468750
 20
48.947914
 30
0.0
  0
LWPOLYLINE
  5
110
100
AcDbEntity
  8
Layer_1
 62
7
100
AcDbPolyline
 90
3
 70
0
 10
70.114583
 20
51.593750
 30
0.0
 10
67.468750
 20
51.593750
 30
0.0
 10
67.468750
 20
48.947914
 30
0.0
  0
SPLINE
  5
111
100
AcDbEntity
  8
Layer_1
 62
7
100
AcDbSpline
 70
8
 71
3
 72
8
 73
4
 74
0
 40
0
 40
0
 40
0
 40
0
 40
1
 40
1
 40
1
 40
1
 10
72.760417
 20
51.593750
 30
0.0
 10
72.694678
 20
52.038406
 30
0.0
 10
72.725365
 20
52.471893
 30
0.0
 10
72.760417
 20
52.916666
 30
0.0
  0
LWPOLYLINE
  5
112
100
AcDbEntity
  8
Layer_1
 62
7
100
AcDbPolyline
 90
10
 70
0
 10
70.114583
 20
48.947914
 30
0.0
 10
70.114583
 20
46.302083
 30
0.0
 10
72.760417
 20
46.302083
 30
0.0
 10
72.760417
 20
48.947914
 30
0.0
 10
75.406250
 20
48.947914
 30
0.0
 10
75.406250
 20
51.593750
 30
0.0
 10
72.760417
 20
51.593750
 30
0.0
 10
72.760417
 20
54.239582
 30
0.0
 10
70.114583
 20
54.239582
 30
0.0
 10
70.114583
 20
51.593750
 30
0.0
  0
LWPOLYLINE
  5
113
100
AcDbEntity
  8
Layer_1
 62
7
100
AcDbPolyline
 90
2
 70
0
 10
70.114583
 20
38.364583
 30
0.0
 10
67.468750
 20
38.364583
 30
0.0
  0
LWPOLYLINE
  5
114
100
AcDbEntity
  8
Layer_1
 62
7
100
AcDbPolyline
 90
3
 70
0
 10
70.114583
 20
41.010417
 30
0.0
 10
67.468750
 20
41.010417
 30
0.0
 10
67.468750
 20
38.364583
 30
0.0
  0
SPLINE
  5
115
100
AcDbEntity
  8
Layer_1
 62
7
100
AcDbSpline
 70
8
 71
3
 72
8
 73
4
 74
0
 40
0
 40
0
 40
0
 40
0
 40
1
 40
1
 40
1
 40
1
 10
72.760417
 20
41.010417
 30
0.0
 10
72.694678
 20
41.455073
 30
0.0
 10
72.725365
 20
41.888561
 30
0.0
 10
72.760417
 20
42.333333
 30
0.0
  0
LWPOLYLINE
  5
116
100
AcDbEntity
  8
Layer_1
 62
7
100
AcDbPolyline
 90
10
 70
0
 10
70.114583
 20
38.364583
 30
0.0
 10
70.114583
 20
35.718750
 30
0.0
 10
72.760417
 20
35.718750
 30
0.0
 10
72.760417
 20
38.364583
 30
0.0
 10
75.406250
 20
38.364583
 30
0.0
 10
75.406250
 20
41.010417
 30
0.0
 10
72.760417
 20
41.010417
 30
0.0
 10
72.760417
 20
43.656250
 30
0.0
 10
70.114583
 20
43.656250
 30
0.0
 10
70.114583
 20
41.010417
 30
0.0
  0
LWPOLYLINE
  5
117
100
AcDbEntity
  8
Layer_1
 62
7
100
AcDbPolyline
 90
2
 70
0
 10
39.687500
 20
67.468749
 30
0.0
 10
42.333333
 20
67.468749
 30
0.0
  0
LWPOLYLINE
  5
118
100
AcDbEntity
  8
Layer_1
 62
7
100
AcDbPolyline
 90
2
 70
0
 10
42.333333
 20
64.822915
 30
0.0
 10
42.333333
 20
67.468749
 30
0.0
  0
LWPOLYLINE
  5
119
100
AcDbEntity
  8
Layer_1
 62
7
100
AcDbPolyline
 90
3
 70
0
 10
11.906249
 20
22.489583
 30
0.0
 10
11.906249
 20
19.843750
 30
0.0
 10
14.552083
 20
19.843750
 30
0.0
  0
LWPOLYLINE
  5
11a
100
AcDbEntity
  8
Layer_1
 62
7
100
AcDbPolyline
 90
2
 70
0
 10
11.906249
 20
22.674792
 30
0.0
 10
14.552083
 20
22.674792
 30
0.0
  0
LWPOLYLINE
  5
11b
100
AcDbEntity
  8
Layer_1
 62
7
100
AcDbPolyline
 90
2
 70
0
 10
14.710833
 20
19.843750
 30
0.0
 10
14.710833
 20
22.489583
 30
0.0
  0
LWPOLYLINE
  5
11c
100
AcDbEntity
  8
Layer_1
 62
7
100
AcDbPolyline
 90
3
 70
0
 10
54.239583
 20
26.458333
 30
0.0
 10
54.239583
 20
23.812500
 30
0.0
 10
56.885417
 20
23.812500
 30
0.0
  0
LWPOLYLINE
  5
11d
100
AcDbEntity
  8
Layer_1
 62
7
100
AcDbPolyline
 90
2
 70
0
 10
54.239583
 20
26.722917
 30
0.0
 10
56.885417
 20
26.722917
 30
0.0
  0
SPLINE
  5
11e
100
AcDbEntity
  8
Layer_1
 62
7
100
AcDbSpline
 70
8
 71
3
 72
8
 73
4
 74
0
 40
0
 40
0
 40
0
 40
0
 40
1
 40
1
 40
1
 40
1
 10
43.656250
 20
31.750000
 30
0.0
 10
42.988831
 20
31.785557
 30
0.0
 10
44.116278
 20
31.544535
 30
0.0
 10
44.006238
 20
31.606175
 30
0.0
  0
SPLINE
  5
11f
100
AcDbEntity
  8
Layer_1
 62
7
100
AcDbSpline
 70
8
 71
3
 72
8
 73
4
 74
0
 40
0
 40
0
 40
0
 40
0
 40
1
 40
1
 40
1
 40
1
 10
44.006238
 20
31.606175
 30
0.0
 10
43.896195
 20
31.667815
 30
0.0
 10
43.772913
 20
31.702058
 30
0.0
 10
43.656250
 20
31.750000
 30
0.0
  0
LWPOLYLINE
  5
120
100
AcDbEntity
  8
Layer_1
 62
7
100
AcDbPolyline
 90
2
 70
0
 10
57.150000
 20
23.812500
 30
0.0
 10
57.150000
 20
26.458333
 30
0.0
  0
LWPOLYLINE
  5
121
100
AcDbEntity
  8
Layer_1
 62
7
100
AcDbPolyline
 90
2
 70
0
 10
43.656250
 20
31.750000
 30
0.0
 10
52.916667
 20
31.750000
 30
0.0
  0
LWPOLYLINE
  5
122
100
AcDbEntity
  8
Layer_1
 62
7
100
AcDbPolyline
 90
3
 70
0
 10
43.656250
 20
21.166667
 30
0.0
 10
62.177083
 20
21.166667
 30
0.0
 10
62.177083
 20
25.135417
 30
0.0
  0
ENDSEC
  0
SECTION
  2
OBJECTS
  0
DICTIONARY
  5
C
330
0
100
AcDbDictionary
  3
ACAD_GROUP
350
D
  3
ACAD_MLINESTYLE
350
17
  0
DICTIONARY
  5
D
330
C
100
AcDbDictionary
  0
DICTIONARY
  5
1A
330
C
100
AcDbDictionary
  0
DICTIONARY
  5
17
330
C
100
AcDbDictionary
  3
STANDARD
350
18
  0
DICTIONARY
  5
19
330
C
100
AcDbDictionary
  0
ENDSEC
  0
EOF
