  0
SECTION
  2
HEADER
  9
$ACADVER
  1
AC1014
  9
$HANDSEED
  5
FFFF
  9
$MEASUREMENT
 70
     1
  0
ENDSEC
  0
SECTION
  2
TABLES
  0
TABLE
  2
VPORT
  5
8
330
0
100
AcDbSymbolTable
 70
     4
  0
VPORT
  5
2E
330
8
100
AcDbSymbolTableRecord
100
AcDbViewportTableRecord
  2
*ACTIVE
 70
     0
 10
0.0
 20
0.0
 11
1.0
 21
1.0
 12
210.0
 22
148.5
 13
0.0
 23
0.0
 14
10.0
 24
10.0
 15
10.0
 25
10.0
 16
0.0
 26
0.0
 36
1.0
 17
0.0
 27
0.0
 37
0.0
 40
341.0
 41
1.24
 42
50.0
 43
0.0
 44
0.0
 50
0.0
 51
0.0
 71
     0
 72
   100
 73
     1
 74
     3
 75
     0
 76
     0
 77
     0
 78
     0
  0
ENDTAB
  0
TABLE
  2
LTYPE
  5
5
330
0
100
AcDbSymbolTable
 70
     1
  0
LTYPE
  5
14
330
5
100
AcDbSymbolTableRecord
100
AcDbLinetypeTableRecord
  2
BYBLOCK
 70
     0
  3

 72
    65
 73
     0
 40
0.0
  0
LTYPE
  5
15
330
5
100
AcDbSymbolTableRecord
100
AcDbLinetypeTableRecord
  2
BYLAYER
 70
     0
  3

 72
    65
 73
     0
 40
0.0
  0
LTYPE
  5
16
330
5
100
AcDbSymbolTableRecord
100
AcDbLinetypeTableRecord
  2
CONTINUOUS
 70
     0
  3
Solid line
 72
    65
 73
     0
 40
0.0
  0
ENDTAB
  0
TABLE
  2
LAYER
  5
2
100
AcDbSymbolTable
 70
3
  0
LAYER
  5
50
100
AcDbSymbolTableRecord
100
AcDbLayerTableRecord
  2
0
 70
0
  6
CONTINUOUS
  0
LAYER
  5
51
100
AcDbSymbolTableRecord
100
AcDbLayerTableRecord
  2
Layer_1
 70
0
  6
CONTINUOUS
  0
LAYER
  5
52
100
AcDbSymbolTableRecord
100
AcDbLayerTableRecord
  2
legs
 70
0
  6
CONTINUOUS
  0
ENDTAB
  0
TABLE
  2
STYLE
  5
3
330
0
100
AcDbSymbolTable
 70
     1
  0
STYLE
  5
11
330
3
100
AcDbSymbolTableRecord
100
AcDbTextStyleTableRecord
  2
STANDARD
 70
     0
 40
0.0
 41
1.0
 50
0.0
 71
     0
 42
2.5
  3
txt
  4

  0
ENDTAB
  0
TABLE
  2
VIEW
  5
6
330
0
100
AcDbSymbolTable
 70
     0
  0
ENDTAB
  0
TABLE
  2
UCS
  5
7
330
0
100
AcDbSymbolTable
 70
     0
  0
ENDTAB
  0
TABLE
  2
APPID
  5
9
330
0
100
AcDbSymbolTable
 70
     2
  0
APPID
  5
12
330
9
100
AcDbSymbolTableRecord
100
AcDbRegAppTableRecord
  2
ACAD
 70
     0
  0
ENDTAB
  0
TABLE
  2
DIMSTYLE
  5
A
330
0
100
AcDbSymbolTable
 70
     1
  0
DIMSTYLE
105
27
330
A
100
AcDbSymbolTableRecord
100
AcDbDimStyleTableRecord
  2
ISO-25
 70
     0
  3

  4

  5

  6

  7

 40
1.0
 41
2.5
 42
0.625
 43
3.75
 44
1.25
 45
0.0
 46
0.0
 47
0.0
 48
0.0
140
2.5
141
2.5
142
0.0
143
0.03937007874016
144
1.0
145
0.0
146
1.0
147
0.625
 71
     0
 72
     0
 73
     0
 74
     0
 75
     0
 76
     0
 77
     1
 78
     8
170
     0
171
     3
172
     1
173
     0
174
     0
175
     0
176
     0
177
     0
178
     0
270
     2
271
     2
272
     2
273
     2
274
     3
340
11
275
     0
280
     0
281
     0
282
     0
283
     0
284
     8
285
     0
286
     0
287
     3
288
     0
  0
ENDTAB
  0
TABLE
  2
BLOCK_RECORD
  5
1
330
0
100
AcDbSymbolTable
 70
     1
  0
BLOCK_RECORD
  5
1F
330
1
100
AcDbSymbolTableRecord
100
AcDbBlockTableRecord
  2
*MODEL_SPACE
  0
BLOCK_RECORD
  5
1B
330
1
100
AcDbSymbolTableRecord
100
AcDbBlockTableRecord
  2
*PAPER_SPACE
  0
ENDTAB
  0
ENDSEC
  0
SECTION
  2
BLOCKS
  0
BLOCK
  5
20
330
1F
100
AcDbEntity
  8
0
100
AcDbBlockBegin
  2
*MODEL_SPACE
 70
     0
 10
0.0
 20
0.0
 30
0.0
  3
*MODEL_SPACE
  1

  0
ENDBLK
  5
21
330
1F
100
AcDbEntity
  8
0
100
AcDbBlockEnd
  0
BLOCK
  5
1C
330
1B
100
AcDbEntity
 67
     1
  8
0
100
AcDbBlockBegin
  2
*PAPER_SPACE
  1

  0
ENDBLK
  5
1D
330
1B
100
AcDbEntity
 67
     1
  8
0
100
AcDbBlockEnd
  0
ENDSEC
  0
SECTION
  2
ENTITIES
  0
SPLINE
  5
100
100
AcDbEntity
  8
legs
 62
1
100
AcDbSpline
 70
8
 71
3
 72
8
 73
4
 74
0
 40
0
 40
0
 40
0
 40
0
 40
1
 40
1
 40
1
 40
1
 10
275.148760
 20
426.706419
 30
0.0
 10
274.776568
 20
426.712819
 30
0.0
 10
274.403784
 20
426.712019
 30
0.0
 10
274.031568
 20
426.703219
 30
0.0
  0
SPLINE
  5
101
100
AcDbEntity
  8
legs
 62
1
100
AcDbSpline
 70
8
 71
3
 72
8
 73
4
 74
0
 40
0
 40
0
 40
0
 40
0
 40
1
 40
1
 40
1
 40
1
 10
274.031568
 20
426.703219
 30
0.0
 10
261.643728
 20
426.399587
 30
0.0
 10
250.543176
 20
418.029795
 30
0.0
 10
245.595632
 20
405.262595
 30
0.0
  0
SPLINE
  5
102
100
AcDbEntity
  8
legs
 62
1
100
AcDbSpline
 70
8
 71
3
 72
8
 73
4
 74
0
 40
0
 40
0
 40
0
 40
0
 40
1
 40
1
 40
1
 40
1
 10
245.595632
 20
405.262595
 30
0.0
 10
245.161312
 20
405.499003
 30
0.0
 10
244.709744
 20
405.686515
 30
0.0
 10
244.228448
 20
405.782907
 30
0.0
  0
SPLINE
  5
103
100
AcDbEntity
  8
legs
 62
1
100
AcDbSpline
 70
8
 71
3
 72
8
 73
4
 74
0
 40
0
 40
0
 40
0
 40
0
 40
1
 40
1
 40
1
 40
1
 10
244.228448
 20
405.782907
 30
0.0
 10
233.385615
 20
407.954347
 30
0.0
 10
221.922198
 20
376.404779
 30
0.0
 10
221.922198
 20
376.404779
 30
0.0
  0
SPLINE
  5
104
100
AcDbEntity
  8
legs
 62
1
100
AcDbSpline
 70
8
 71
3
 72
8
 73
4
 74
0
 40
0
 40
0
 40
0
 40
0
 40
1
 40
1
 40
1
 40
1
 10
246.087824
 20
375.521963
 30
0.0
 10
250.856064
 20
364.397995
 30
0.0
 10
260.399696
 20
356.832099
 30
0.0
 10
271.323760
 20
355.515715
 30
0.0
  0
LWPOLYLINE
  5
105
100
AcDbEntity
  8
legs
 62
1
100
AcDbPolyline
 90
2
 70
1
 10
221.922198
 20
376.404779
 30
0.0
 10
246.087824
 20
375.521963
 30
0.0
  0
SPLINE
  5
106
100
AcDbEntity
  8
legs
 62
1
100
AcDbSpline
 70
8
 71
3
 72
8
 73
4
 74
0
 40
0
 40
0
 40
0
 40
0
 40
1
 40
1
 40
1
 40
1
 10
278.923760
 20
355.642275
 30
0.0
 10
294.094024
 20
357.937779
 30
0.0
 10
305.651176
 20
372.063851
 30
0.0
 10
306.415944
 20
389.245403
 30
0.0
  0
SPLINE
  5
107
100
AcDbEntity
  8
legs
 62
1
100
AcDbSpline
 70
8
 71
3
 72
8
 73
4
 74
0
 40
0
 40
0
 40
0
 40
0
 40
1
 40
1
 40
1
 40
1
 10
306.415944
 20
389.245403
 30
0.0
 10
307.279624
 20
408.934211
 30
0.0
 10
293.782888
 20
425.684651
 30
0.0
 10
276.264384
 20
426.665715
 30
0.0
  0
SPLINE
  5
108
100
AcDbEntity
  8
legs
 62
1
100
AcDbSpline
 70
8
 71
3
 72
8
 73
4
 74
0
 40
0
 40
0
 40
0
 40
0
 40
1
 40
1
 40
1
 40
1
 10
276.264384
 20
426.665715
 30
0.0
 10
275.892560
 20
426.686675
 30
0.0
 10
275.520952
 20
426.700115
 30
0.0
 10
275.148760
 20
426.706355
 30
0.0
  0
LWPOLYLINE
  5
109
100
AcDbEntity
  8
legs
 62
1
100
AcDbPolyline
 90
4
 70
1
 10
271.323760
 20
355.515715
 30
0.0
 10
271.290960
 20
375.523531
 30
0.0
 10
278.890960
 20
375.686027
 30
0.0
 10
278.923760
 20
355.642275
 30
0.0
  0
SPLINE
  5
10a
100
AcDbEntity
  8
legs
 62
1
100
AcDbSpline
 70
8
 71
3
 72
8
 73
4
 74
0
 40
0
 40
0
 40
0
 40
0
 40
1
 40
1
 40
1
 40
1
 10
268.734432
 20
341.648283
 30
0.0
 10
250.729980
 20
341.118045
 30
0.0
 10
233.574373
 20
331.383288
 30
0.0
 10
220.843807
 20
314.473283
 30
0.0
  0
SPLINE
  5
10b
100
AcDbEntity
  8
legs
 62
1
100
AcDbSpline
 70
8
 71
3
 72
8
 73
4
 74
0
 40
0
 40
0
 40
0
 40
0
 40
1
 40
1
 40
1
 40
1
 10
220.843807
 20
314.473283
 30
0.0
 10
196.487421
 20
325.283251
 30
0.0
 10
160.796932
 20
244.354531
 30
0.0
 10
160.796932
 20
244.354531
 30
0.0
  0
LWPOLYLINE
  5
10c
100
AcDbEntity
  8
legs
 62
1
100
AcDbPolyline
 90
2
 70
1
 10
275.148760
 20
426.706355
 30
0.0
 10
275.148760
 20
426.706419
 30
0.0
  0
SPLINE
  5
10d
100
AcDbEntity
  8
legs
 62
1
100
AcDbSpline
 70
8
 71
3
 72
8
 73
4
 74
0
 40
0
 40
0
 40
0
 40
0
 40
1
 40
1
 40
1
 40
1
 10
160.260994
 20
241.537347
 30
0.0
 10
160.260994
 20
241.537347
 30
0.0
 10
182.997245
 20
254.617083
 30
0.0
 10
202.184432
 20
270.140475
 30
0.0
  0
SPLINE
  5
10e
100
AcDbEntity
  8
legs
 62
1
100
AcDbSpline
 70
8
 71
3
 72
8
 73
4
 74
0
 40
0
 40
0
 40
0
 40
0
 40
1
 40
1
 40
1
 40
1
 10
202.184432
 20
270.140475
 30
0.0
 10
201.198617
 20
264.690746
 30
0.0
 10
200.586741
 20
259.133657
 30
0.0
 10
200.356307
 20
253.537347
 30
0.0
  0
SPLINE
  5
10f
100
AcDbEntity
  8
legs
 62
1
100
AcDbSpline
 70
8
 71
3
 72
8
 73
4
 74
0
 40
0
 40
0
 40
0
 40
0
 40
1
 40
1
 40
1
 40
1
 10
200.356307
 20
253.537347
 30
0.0
 10
200.356307
 20
253.537347
 30
0.0
 10
200.350067
 20
253.352971
 30
0.0
 10
200.350067
 20
253.352971
 30
0.0
  0
SPLINE
  5
110
100
AcDbEntity
  8
legs
 62
1
100
AcDbSpline
 70
8
 71
3
 72
8
 73
4
 74
0
 40
0
 40
0
 40
0
 40
0
 40
1
 40
1
 40
1
 40
1
 10
200.350067
 20
253.352971
 30
0.0
 10
198.487248
 20
202.181523
 30
0.0
 10
228.214337
 20
158.687584
 30
0.0
 10
266.759432
 20
156.188907
 30
0.0
  0
SPLINE
  5
111
100
AcDbEntity
  8
legs
 62
1
100
AcDbSpline
 70
8
 71
3
 72
8
 73
4
 74
0
 40
0
 40
0
 40
0
 40
0
 40
1
 40
1
 40
1
 40
1
 10
266.759432
 20
156.188907
 30
0.0
 10
305.304224
 20
153.690923
 30
0.0
 10
338.081383
 20
193.132905
 30
0.0
 10
339.982872
 20
244.301411
 30
0.0
  0
SPLINE
  5
112
100
AcDbEntity
  8
legs
 62
1
100
AcDbSpline
 70
8
 71
3
 72
8
 73
4
 74
0
 40
0
 40
0
 40
0
 40
0
 40
1
 40
1
 40
1
 40
1
 10
339.982872
 20
244.301411
 30
0.0
 10
340.301935
 20
253.504773
 30
0.0
 10
339.586798
 20
262.719905
 30
0.0
 10
337.860992
 20
271.643595
 30
0.0
  0
SPLINE
  5
113
100
AcDbEntity
  8
legs
 62
1
100
AcDbSpline
 70
8
 71
3
 72
8
 73
4
 74
0
 40
0
 40
0
 40
0
 40
0
 40
1
 40
1
 40
1
 40
1
 10
337.860992
 20
271.643595
 30
0.0
 10
357.510784
 20
255.237523
 30
0.0
 10
382.287560
 20
240.990475
 30
0.0
 10
382.287560
 20
240.990475
 30
0.0
  0
LWPOLYLINE
  5
114
100
AcDbEntity
  8
legs
 62
1
100
AcDbPolyline
 90
3
 70
1
 10
160.796932
 20
244.354531
 30
0.0
 10
158.245370
 20
239.982659
 30
0.0
 10
160.260994
 20
241.537347
 30
0.0
  0
SPLINE
  5
115
100
AcDbEntity
  8
legs
 62
1
100
AcDbSpline
 70
8
 71
3
 72
8
 73
4
 74
0
 40
0
 40
0
 40
0
 40
0
 40
1
 40
1
 40
1
 40
1
 10
381.751616
 20
243.807659
 30
0.0
 10
381.751616
 20
243.807659
 30
0.0
 10
344.757568
 20
327.692683
 30
0.0
 10
320.393808
 20
313.246723
 30
0.0
  0
SPLINE
  5
116
100
AcDbEntity
  8
legs
 62
1
100
AcDbSpline
 70
8
 71
3
 72
8
 73
4
 74
0
 40
0
 40
0
 40
0
 40
0
 40
1
 40
1
 40
1
 40
1
 10
320.393808
 20
313.246723
 30
0.0
 10
308.083450
 20
330.218355
 30
0.0
 10
291.371064
 20
340.338068
 30
0.0
 10
273.646936
 20
341.552971
 30
0.0
  0
SPLINE
  5
117
100
AcDbEntity
  8
legs
 62
1
100
AcDbSpline
 70
8
 71
3
 72
8
 73
4
 74
0
 40
0
 40
0
 40
0
 40
0
 40
1
 40
1
 40
1
 40
1
 10
273.646936
 20
341.552971
 30
0.0
 10
272.010782
 20
341.661152
 30
0.0
 10
270.372269
 20
341.692942
 30
0.0
 10
268.734432
 20
341.648283
 30
0.0
  0
LWPOLYLINE
  5
118
100
AcDbEntity
  8
legs
 62
1
100
AcDbPolyline
 90
3
 70
1
 10
382.287560
 20
240.990475
 30
0.0
 10
384.301616
 20
239.435787
 30
0.0
 10
381.751616
 20
243.807659
 30
0.0
  0
LWPOLYLINE
  5
119
100
AcDbEntity
  8
legs
 62
1
100
AcDbPolyline
 90
2
 70
1
 10
268.734432
 20
341.648283
 30
0.0
 10
268.734432
 20
341.648283
 30
0.0
  0
SPLINE
  5
11a
100
AcDbEntity
  8
legs
 62
7
100
AcDbSpline
 70
8
 71
3
 72
8
 73
4
 74
0
 40
0
 40
0
 40
0
 40
0
 40
1
 40
1
 40
1
 40
1
 10
151.998931
 20
326.671571
 30
0.0
 10
152.002211
 20
326.678771
 30
0.0
 10
152.003251
 20
326.687011
 30
0.0
 10
152.005411
 20
326.694611
 30
0.0
  0
SPLINE
  5
11b
100
AcDbEntity
  8
legs
 62
7
100
AcDbSpline
 70
8
 71
3
 72
8
 73
4
 74
0
 40
0
 40
0
 40
0
 40
0
 40
1
 40
1
 40
1
 40
1
 10
152.005411
 20
326.694611
 30
0.0
 10
151.999331
 20
326.693011
 30
0.0
 10
151.994267
 20
326.693811
 30
0.0
 10
151.988603
 20
326.693011
 30
0.0
  0
LWPOLYLINE
  5
11c
100
AcDbEntity
  8
legs
 62
7
100
AcDbPolyline
 90
2
 70
1
 10
151.988723
 20
326.692611
 30
0.0
 10
151.998931
 20
326.671571
 30
0.0
  0
SPLINE
  5
11d
100
AcDbEntity
  8
legs
 62
7
100
AcDbSpline
 70
8
 71
3
 72
8
 73
4
 74
0
 40
0
 40
0
 40
0
 40
0
 40
1
 40
1
 40
1
 40
1
 10
151.998931
 20
326.671571
 30
0.0
 10
141.127315
 20
303.762907
 30
0.0
 10
140.427747
 20
276.194467
 30
0.0
 10
150.279294
 20
252.811171
 30
0.0
  0
LWPOLYLINE
  5
11e
100
AcDbEntity
  8
legs
 62
7
100
AcDbPolyline
 90
2
 70
1
 10
151.988603
 20
326.693011
 30
0.0
 10
151.988723
 20
326.692611
 30
0.0
  0
SPLINE
  5
11f
100
AcDbEntity
  8
legs
 62
7
100
AcDbSpline
 70
8
 71
3
 72
8
 73
4
 74
0
 40
0
 40
0
 40
0
 40
0
 40
1
 40
1
 40
1
 40
1
 10
213.617046
 20
375.857075
 30
0.0
 10
189.428126
 20
370.414827
 30
0.0
 10
167.830617
 20
354.463931
 30
0.0
 10
155.364550
 20
333.052835
 30
0.0
  0
LWPOLYLINE
  5
120
100
AcDbEntity
  8
legs
 62
7
100
AcDbPolyline
 90
2
 70
1
 10
150.279294
 20
252.811171
 30
0.0
 10
213.617046
 20
375.857075
 30
0.0
  0
LWPOLYLINE
  5
121
100
AcDbEntity
  8
legs
 62
7
100
AcDbPolyline
 90
5
 70
1
 10
155.364550
 20
333.052835
 30
0.0
 10
174.727918
 20
323.085563
 30
0.0
 10
171.426230
 20
316.671395
 30
0.0
 10
151.998953
 20
326.671563
 30
0.0
 10
151.998931
 20
326.671571
 30
0.0
  0
SPLINE
  5
122
100
AcDbEntity
  8
legs
 62
7
100
AcDbSpline
 70
8
 71
3
 72
8
 73
4
 74
0
 40
0
 40
0
 40
0
 40
0
 40
1
 40
1
 40
1
 40
1
 10
155.344179
 20
333.044027
 30
0.0
 10
155.347299
 20
333.043227
 30
0.0
 10
155.350339
 20
333.041627
 30
0.0
 10
155.353235
 20
333.040827
 30
0.0
  0
SPLINE
  5
123
100
AcDbEntity
  8
legs
 62
7
100
AcDbSpline
 70
8
 71
3
 72
8
 73
4
 74
0
 40
0
 40
0
 40
0
 40
0
 40
1
 40
1
 40
1
 40
1
 10
155.353235
 20
333.040827
 30
0.0
 10
155.356355
 20
333.044827
 30
0.0
 10
155.362211
 20
333.048027
 30
0.0
 10
155.364651
 20
333.052507
 30
0.0
  0
LWPOLYLINE
  5
124
100
AcDbEntity
  8
legs
 62
7
100
AcDbPolyline
 90
2
 70
1
 10
155.364563
 20
333.052827
 30
0.0
 10
155.344179
 20
333.044027
 30
0.0
  0
LWPOLYLINE
  5
125
100
AcDbEntity
  8
legs
 62
7
100
AcDbPolyline
 90
2
 70
1
 10
155.364651
 20
333.052507
 30
0.0
 10
155.364563
 20
333.052827
 30
0.0
  0
SPLINE
  5
126
100
AcDbEntity
  8
legs
 62
7
100
AcDbSpline
 70
8
 71
3
 72
8
 73
4
 74
0
 40
0
 40
0
 40
0
 40
0
 40
1
 40
1
 40
1
 40
1
 10
382.451664
 20
329.019195
 30
0.0
 10
382.456464
 20
329.012795
 30
0.0
 10
382.463504
 20
329.008315
 30
0.0
 10
382.469344
 20
329.003035
 30
0.0
  0
SPLINE
  5
127
100
AcDbEntity
  8
legs
 62
7
100
AcDbSpline
 70
8
 71
3
 72
8
 73
4
 74
0
 40
0
 40
0
 40
0
 40
0
 40
1
 40
1
 40
1
 40
1
 10
382.469344
 20
329.003035
 30
0.0
 10
382.470944
 20
329.009435
 30
0.0
 10
382.473344
 20
329.013755
 30
0.0
 10
382.474944
 20
329.018875
 30
0.0
  0
LWPOLYLINE
  5
128
100
AcDbEntity
  8
legs
 62
7
100
AcDbPolyline
 90
2
 70
1
 10
382.475104
 20
329.018827
 30
0.0
 10
382.451664
 20
329.019195
 30
0.0
  0
SPLINE
  5
129
100
AcDbEntity
  8
legs
 62
7
100
AcDbSpline
 70
8
 71
3
 72
8
 73
4
 74
0
 40
0
 40
0
 40
0
 40
0
 40
1
 40
1
 40
1
 40
1
 10
382.451664
 20
329.019195
 30
0.0
 10
366.875432
 20
349.028683
 30
0.0
 10
342.564088
 20
362.046643
 30
0.0
 10
317.248048
 20
363.758307
 30
0.0
  0
LWPOLYLINE
  5
12a
100
AcDbEntity
  8
legs
 62
7
100
AcDbPolyline
 90
2
 70
1
 10
382.474944
 20
329.018875
 30
0.0
 10
382.475104
 20
329.018827
 30
0.0
  0
SPLINE
  5
12b
100
AcDbEntity
  8
legs
 62
7
100
AcDbSpline
 70
8
 71
3
 72
8
 73
4
 74
0
 40
0
 40
0
 40
0
 40
0
 40
1
 40
1
 40
1
 40
1
 10
398.687512
 20
251.867371
 30
0.0
 10
404.699984
 20
275.920899
 30
0.0
 10
400.160560
 20
302.383651
 30
0.0
 10
386.638816
 20
323.144203
 30
0.0
  0
LWPOLYLINE
  5
12c
100
AcDbEntity
  8
legs
 62
7
100
AcDbPolyline
 90
2
 70
1
 10
317.248048
 20
363.758307
 30
0.0
 10
398.687512
 20
251.867371
 30
0.0
  0
LWPOLYLINE
  5
12d
100
AcDbEntity
  8
legs
 62
7
100
AcDbPolyline
 90
5
 70
1
 10
386.638816
 20
323.144203
 30
0.0
 10
369.030872
 20
310.328315
 30
0.0
 10
364.785584
 20
316.160987
 30
0.0
 10
382.451640
 20
329.019171
 30
0.0
 10
382.451664
 20
329.019195
 30
0.0
  0
SPLINE
  5
12e
100
AcDbEntity
  8
legs
 62
7
100
AcDbSpline
 70
8
 71
3
 72
8
 73
4
 74
0
 40
0
 40
0
 40
0
 40
0
 40
1
 40
1
 40
1
 40
1
 10
386.640408
 20
323.166355
 30
0.0
 10
386.638008
 20
323.163955
 30
0.0
 10
386.635608
 20
323.161555
 30
0.0
 10
386.634008
 20
323.159155
 30
0.0
  0
SPLINE
  5
12f
100
AcDbEntity
  8
legs
 62
7
100
AcDbSpline
 70
8
 71
3
 72
8
 73
4
 74
0
 40
0
 40
0
 40
0
 40
0
 40
1
 40
1
 40
1
 40
1
 10
386.634008
 20
323.159155
 30
0.0
 10
386.636408
 20
323.154355
 30
0.0
 10
386.636408
 20
323.147955
 30
0.0
 10
386.639608
 20
323.143715
 30
0.0
  0
LWPOLYLINE
  5
130
100
AcDbEntity
  8
legs
 62
7
100
AcDbPolyline
 90
2
 70
1
 10
386.638808
 20
323.144195
 30
0.0
 10
386.640408
 20
323.166355
 30
0.0
  0
LWPOLYLINE
  5
131
100
AcDbEntity
  8
legs
 62
7
100
AcDbPolyline
 90
2
 70
1
 10
386.639608
 20
323.143715
 30
0.0
 10
386.638808
 20
323.144195
 30
0.0
  0
ENDSEC
  0
SECTION
  2
OBJECTS
  0
DICTIONARY
  5
C
330
0
100
AcDbDictionary
  3
ACAD_GROUP
350
D
  3
ACAD_MLINESTYLE
350
17
  0
DICTIONARY
  5
D
330
C
100
AcDbDictionary
  0
DICTIONARY
  5
1A
330
C
100
AcDbDictionary
  0
DICTIONARY
  5
17
330
C
100
AcDbDictionary
  3
STANDARD
350
18
  0
DICTIONARY
  5
19
330
C
100
AcDbDictionary
  0
ENDSEC
  0
EOF
