  0
SECTION
  2
BLOCKS
  0
ENDSEC
  0
SECTION
  2
ENTITIES
  0
LINE
  8
0
 10
-41.2
 11
-41.2
 20
0
 21
4
  0
LINE
  8
0
 10
-41.2
 11
-39.6
 20
4
 21
5.6
  0
LINE
  8
0
 10
-39.6
 11
-31.9
 20
5.6
 21
5.6
  0
LINE
  8
0
 10
-31.9
 11
-31.9
 20
5.6
 21
8.4
  0
LINE
  8
0
 10
-31.9
 11
-39.6
 20
8.4
 21
8.4
  0
LINE
  8
0
 10
-39.6
 11
-41.2
 20
8.4
 21
10
  0
LINE
  8
0
 10
-41.2
 11
-41.2
 20
10
 21
14
  0
LINE
  8
0
 10
-41.2
 11
-17.7
 20
14
 21
14
  0
LINE
  8
0
 10
-17.7
 11
-17.7
 20
14
 21
37.2
  0
LINE
  8
0
 10
-17.7
 11
-13.8
 20
37.2
 21
37.2
  0
LINE
  8
0
 10
-13.8
 11
-12.4
 20
37.2
 21
35.8
  0
LINE
  8
0
 10
-12.4
 11
-12.4
 20
35.8
 21
27.9
  0
LINE
  8
0
 10
-12.4
 11
-9.6
 20
27.9
 21
27.9
  0
LINE
  8
0
 10
-9.6
 11
-9.6
 20
27.9
 21
35.8
  0
LINE
  8
0
 10
-9.6
 11
-8.2
 20
35.8
 21
37.2
  0
LINE
  8
0
 10
-8.2
 11
-3.7
 20
37.2
 21
37.2
  0
LINE
  8
0
 10
-3.7
 11
-3.7
 20
37.2
 21
0
  0
LINE
  8
0
 10
-3.7
 11
-41.2
 20
0
 21
0
  0
LINE
  8
0
 10
-40.2
 11
-40.2
 20
-33.7
 21
-30
  0
LINE
  8
0
 10
-40.2
 11
-38.6
 20
-30
 21
-28.4
  0
LINE
  8
0
 10
-38.6
 11
-30.9
 20
-28.4
 21
-28.4
  0
LINE
  8
0
 10
-30.9
 11
-30.9
 20
-28.4
 21
-25.6
  0
LINE
  8
0
 10
-30.9
 11
-38.6
 20
-25.6
 21
-25.6
  0
LINE
  8
0
 10
-38.6
 11
-40.2
 20
-25.6
 21
-24
  0
LINE
  8
0
 10
-40.2
 11
-40.2
 20
-24
 21
-19.7
  0
LINE
  8
0
 10
-40.2
 11
20.2
 20
-19.7
 21
-19.7
  0
LINE
  8
0
 10
20.2
 11
20.2
 20
-19.7
 21
-24
  0
LINE
  8
0
 10
20.2
 11
18.6
 20
-24
 21
-25.6
  0
LINE
  8
0
 10
18.6
 11
10.9
 20
-25.6
 21
-25.6
  0
LINE
  8
0
 10
10.9
 11
10.9
 20
-25.6
 21
-28.4
  0
LINE
  8
0
 10
10.9
 11
18.6
 20
-28.4
 21
-28.4
  0
LINE
  8
0
 10
18.6
 11
20.2
 20
-28.4
 21
-30
  0
LINE
  8
0
 10
20.2
 11
20.2
 20
-30
 21
-33.7
  0
LINE
  8
0
 10
20.2
 11
-3
 20
-33.7
 21
-33.7
  0
LINE
  8
0
 10
-3
 11
-3
 20
-33.7
 21
-57.2
  0
LINE
  8
0
 10
-3
 11
-7
 20
-57.2
 21
-57.2
  0
LINE
  8
0
 10
-7
 11
-8.6
 20
-57.2
 21
-55.6
  0
LINE
  8
0
 10
-8.6
 11
-8.6
 20
-55.6
 21
-47.9
  0
LINE
  8
0
 10
-8.6
 11
-11.4
 20
-47.9
 21
-47.9
  0
LINE
  8
0
 10
-11.4
 11
-11.4
 20
-47.9
 21
-55.6
  0
LINE
  8
0
 10
-11.4
 11
-13
 20
-55.6
 21
-57.2
  0
LINE
  8
0
 10
-13
 11
-17
 20
-57.2
 21
-57.2
  0
LINE
  8
0
 10
-17
 11
-17
 20
-57.2
 21
-33.7
  0
LINE
  8
0
 10
-17
 11
-40.2
 20
-33.7
 21
-33.7
  0
LINE
  8
0
 10
0
 11
0
 20
-17
 21
-13
  0
LINE
  8
0
 10
0
 11
1.6
 20
-13
 21
-11.4
  0
LINE
  8
0
 10
1.6
 11
9.3
 20
-11.4
 21
-11.4
  0
LINE
  8
0
 10
9.3
 11
9.3
 20
-11.4
 21
-8.6
  0
LINE
  8
0
 10
9.3
 11
1.6
 20
-8.6
 21
-8.6
  0
LINE
  8
0
 10
1.6
 11
0
 20
-8.6
 21
-7
  0
LINE
  8
0
 10
0
 11
0
 20
-7
 21
-3
  0
LINE
  8
0
 10
0
 11
37.2
 20
-3
 21
-3
  0
LINE
  8
0
 10
37.2
 11
37.2
 20
-3
 21
-7
  0
LINE
  8
0
 10
37.2
 11
35.6
 20
-7
 21
-8.6
  0
LINE
  8
0
 10
35.6
 11
27.9
 20
-8.6
 21
-8.6
  0
LINE
  8
0
 10
27.9
 11
27.9
 20
-8.6
 21
-11.4
  0
LINE
  8
0
 10
27.9
 11
35.6
 20
-11.4
 21
-11.4
  0
LINE
  8
0
 10
35.6
 11
37.2
 20
-11.4
 21
-13
  0
LINE
  8
0
 10
37.2
 11
37.2
 20
-13
 21
-17
  0
LINE
  8
0
 10
37.2
 11
0
 20
-17
 21
-17
  0
LINE
  8
0
 10
0
 11
0
 20
3.125
 21
27
  0
LINE
  8
0
 10
0
 11
1.6
 20
27
 21
28.6
  0
LINE
  8
0
 10
1.6
 11
9.3
 20
28.6
 21
28.6
  0
LINE
  8
0
 10
9.3
 11
9.3
 20
28.6
 21
31.4
  0
LINE
  8
0
 10
9.3
 11
1.6
 20
31.4
 21
31.4
  0
LINE
  8
0
 10
1.6
 11
0
 20
31.4
 21
33
  0
LINE
  8
0
 10
0
 11
0
 20
33
 21
60
  0
LINE
  8
0
 10
0
 11
27.936
 20
60
 21
32.064
  0
LINE
  8
0
 10
27.936
 11
27.936
 20
32.064
 21
29.802
  0
LINE
  8
0
 10
27.936
 11
22.491
 20
29.802
 21
24.357
  0
LINE
  8
0
 10
22.491
 11
24.471
 20
24.357
 21
22.377
  0
LINE
  8
0
 10
24.471
 11
29.916
 20
22.377
 21
27.822
  0
LINE
  8
0
 10
29.916
 11
32.178
 20
27.822
 21
27.822
  0
LINE
  8
0
 10
32.178
 11
60
 20
27.822
 21
0
  0
LINE
  8
0
 10
60
 11
33
 20
0
 21
0
  0
LINE
  8
0
 10
33
 11
31.4
 20
0
 21
1.6
  0
LINE
  8
0
 10
31.4
 11
31.4
 20
1.6
 21
9.3
  0
LINE
  8
0
 10
31.4
 11
28.6
 20
9.3
 21
9.3
  0
LINE
  8
0
 10
28.6
 11
28.6
 20
9.3
 21
1.6
  0
LINE
  8
0
 10
28.6
 11
27
 20
1.6
 21
0
  0
LINE
  8
0
 10
27
 11
3.246
 20
0
 21
0
  0
LINE
  8
0
 10
3.246
 11
3.246
 20
0
 21
1.146
  0
LINE
  8
0
 10
3.246
 11
10.812
 20
1.146
 21
8.712
  0
LINE
  8
0
 10
10.812
 11
8.832
 20
8.712
 21
10.692
  0
LINE
  8
0
 10
8.832
 11
1.266
 20
10.692
 21
3.125
  0
LINE
  8
0
 10
1.266
 11
0
 20
3.125
 21
3.125
  0
ENDSEC
  0
SECTION
  2
OBJECTS
  0
DICTIONARY
  0
ENDSEC
  0
EOF
