  0
SECTION
  2
HEADER
  9
$ACADVER
  1
AC1009
  9
$INSBASE
 10
0.0
 20
0.0
 30
0.0
  9
$EXTMIN
 10
0.0
 20
0.0
 30
0.0
  9
$EXTMAX
 10
0.0
 20
0.0
 30
0.0
  0
ENDSEC
  0
SECTION
  2
TABLES
  0
TABLE
  2
VPORT
 70
0
  0
ENDTAB
  0
TABLE
  2
LTYPE
 70
1
  0
LTYPE
  2
CONTINUOUS
 70
0
  3
Solid line
 72
65
 73
0
 40
0.0
  0
ENDTAB
  0
TABLE
  2
LAYER
 70
1
  0
LAYER
  2
0
 70
64
 62
7
  6
continuous
  0
ENDTAB
  0
TABLE
  2
STYLE
 70
1
  0
STYLE
  2
STANDARD
 70
0
 40
0
 41
1.0
 50
0.0
 71
0
 42
1
 3
ARIAL.TTF
 4

  0
ENDTAB
  0
TABLE
  2
VIEW
 70
0
  0
ENDTAB
  0
ENDSEC
  0
SECTION
  2
BLOCKS
  0
BLOCK
  8
0
  2
SKETCH001
 70
0
 10
0.0
 20
0.0
 30
0.0
  3
SKETCH001
  0
POLYLINE
  8
0
 62
7
 70
1
 66
1
 10
0.0
 20
0.0
 30
0.0
  0
VERTEX
  8
0
 10
-32.9667715312
 20
-10.2409046233
 30
0.0
  0
VERTEX
  8
0
 10
-94.4446705947
 20
-14.969973782
 30
0.0
 42
0.391902231199
  0
VERTEX
  8
0
 10
-97.9667715312
 20
-18.7734106074
 30
0.0
  0
VERTEX
  8
0
 10
-97.9667715312
 20
-21.4799816233
 30
0.0
 42
0.414213562373
  0
VERTEX
  8
0
 10
-94.2058485312
 20
-25.2409046233
 30
0.0
  0
VERTEX
  8
0
 10
-32.9667715312
 20
-25.2409046233
 30
0.0
  0
VERTEX
  8
0
 10
-32.9667715312
 20
-29.6266846233
 30
0.0
 42
0.414213562373
  0
VERTEX
  8
0
 10
-32.3525515312
 20
-30.2409046233
 30
0.0
  0
VERTEX
  8
0
 10
-19.1765115312
 20
-30.2409046233
 30
0.0
 42
0.414213562373
  0
VERTEX
  8
0
 10
-17.9667715312
 20
-29.0311646233
 30
0.0
  0
VERTEX
  8
0
 10
-17.9667715312
 20
-25.2409046233
 30
0.0
  0
VERTEX
  8
0
 10
-17.9667715312
 20
-17.7409046233
 30
0.0
  0
VERTEX
  8
0
 10
-32.9667715312
 20
-17.7409046233
 30
0.0
  0
SEQEND
  8
0
  0
CIRCLE
  8
0
 62
7
 10
-90.4667715312
 20
-20.2409046233
 30
0.0
 40
2.5
  0
POLYLINE
  8
0
 62
7
 70
1
 66
1
 10
0.0
 20
0.0
 30
0.0
  0
VERTEX
  8
0
 10
-32.9258405312
 20
-33.4200056233
 30
0.0
  0
VERTEX
  8
0
 10
-94.4037395947
 20
-38.149074782
 30
0.0
 42
0.391902231199
  0
VERTEX
  8
0
 10
-97.9258405312
 20
-41.9525116074
 30
0.0
  0
VERTEX
  8
0
 10
-97.9258405312
 20
-44.6590826233
 30
0.0
 42
0.414213562373
  0
VERTEX
  8
0
 10
-94.1649175312
 20
-48.4200056233
 30
0.0
  0
VERTEX
  8
0
 10
-32.9258405312
 20
-48.4200056233
 30
0.0
  0
VERTEX
  8
0
 10
-32.9258405312
 20
-52.8057856233
 30
0.0
 42
0.414213562373
  0
VERTEX
  8
0
 10
-32.3116205312
 20
-53.4200056233
 30
0.0
  0
VERTEX
  8
0
 10
-19.1355805312
 20
-53.4200056233
 30
0.0
 42
0.414213562373
  0
VERTEX
  8
0
 10
-17.9258405312
 20
-52.2102656233
 30
0.0
  0
VERTEX
  8
0
 10
-17.9258405312
 20
-48.4200056233
 30
0.0
  0
VERTEX
  8
0
 10
-17.9258405312
 20
-40.9200056233
 30
0.0
  0
VERTEX
  8
0
 10
-32.9258405312
 20
-40.9200056233
 30
0.0
  0
SEQEND
  8
0
  0
CIRCLE
  8
0
 62
7
 10
-90.4258405312
 20
-43.4200056233
 30
0.0
 40
2.5
  0
POLYLINE
  8
0
 62
7
 70
1
 66
1
 10
0.0
 20
0.0
 30
0.0
  0
VERTEX
  8
0
 10
-33.1259495312
 20
-57.0330736233
 30
0.0
  0
VERTEX
  8
0
 10
-94.6038485947
 20
-61.762142782
 30
0.0
 42
0.391902231199
  0
VERTEX
  8
0
 10
-98.1259495312
 20
-65.5655796074
 30
0.0
  0
VERTEX
  8
0
 10
-98.1259495312
 20
-68.2721506233
 30
0.0
 42
0.414213562373
  0
VERTEX
  8
0
 10
-94.3650265312
 20
-72.0330736233
 30
0.0
  0
VERTEX
  8
0
 10
-33.1259495312
 20
-72.0330736233
 30
0.0
  0
VERTEX
  8
0
 10
-33.1259495312
 20
-76.4188536233
 30
0.0
 42
0.414213562373
  0
VERTEX
  8
0
 10
-32.5117295312
 20
-77.0330736233
 30
0.0
  0
VERTEX
  8
0
 10
-19.3356895312
 20
-77.0330736233
 30
0.0
 42
0.414213562373
  0
VERTEX
  8
0
 10
-18.1259495312
 20
-75.8233336233
 30
0.0
  0
VERTEX
  8
0
 10
-18.1259495312
 20
-72.0330736233
 30
0.0
  0
VERTEX
  8
0
 10
-18.1259495312
 20
-64.5330736233
 30
0.0
  0
VERTEX
  8
0
 10
-33.1259495312
 20
-64.5330736233
 30
0.0
  0
SEQEND
  8
0
  0
CIRCLE
  8
0
 62
7
 10
-90.6259495312
 20
-67.0330736233
 30
0.0
 40
2.5
  0
ENDBLK
  0
BLOCK
  8
0
  2
SKETCH
 70
0
 10
0.0
 20
0.0
 30
0.0
  3
SKETCH
  0
POLYLINE
  8
0
 62
7
 70
0
 66
1
 10
0.0
 20
0.0
 30
0.0
  0
VERTEX
  8
0
 10
-14.8381275436
 20
34.4021709343
 30
0.0
  0
VERTEX
  8
0
 10
-14.8381275436
 20
47.8537588671
 30
0.0
 42
0.414213562373
  0
VERTEX
  8
0
 10
-16.6440375436
 20
49.6596688671
 30
0.0
  0
VERTEX
  8
0
 10
-114.096511544
 20
49.6596688671
 30
0.0
 42
0.414213562373
  0
VERTEX
  8
0
 10
-114.838127544
 20
48.9180528671
 30
0.0
  0
VERTEX
  8
0
 10
-114.838127544
 20
36.9535448671
 30
0.0
 42
0.414213562373
  0
VERTEX
  8
0
 10
-112.544251544
 20
34.6596688671
 30
0.0
  0
VERTEX
  8
0
 10
-107.338127544
 20
34.6596688671
 30
0.0
  0
VERTEX
  8
0
 10
-107.338127544
 20
41.9157688671
 30
0.0
  0
VERTEX
  8
0
 10
-99.8381275436
 20
41.9157688671
 30
0.0
  0
VERTEX
  8
0
 10
-99.8381275436
 20
34.4157688671
 30
0.0
  0
SEQEND
  8
0
  0
POLYLINE
  8
0
 62
7
 70
0
 66
1
 10
0.0
 20
0.0
 30
0.0
  0
VERTEX
  8
0
 10
-99.8381275436
 20
34.6596688671
 30
0.0
  0
VERTEX
  8
0
 10
-29.8337058945
 20
34.6596688671
 30
0.0
 42
0.98398458244
  0
VERTEX
  8
0
 10
-14.8376151549
 20
34.4175457093
 30
0.0
  0
SEQEND
  8
0
  0
CIRCLE
  8
0
 62
7
 10
-22.3337058945
 20
34.6596688671
 30
0.0
 40
2.5
  0
POLYLINE
  8
0
 62
7
 70
0
 66
1
 10
0.0
 20
0.0
 30
0.0
  0
VERTEX
  8
0
 10
-18.7353595436
 20
9.7708029343
 30
0.0
  0
VERTEX
  8
0
 10
-18.7353595436
 20
23.2223908671
 30
0.0
 42
0.414213562373
  0
VERTEX
  8
0
 10
-20.5412695436
 20
25.0283008671
 30
0.0
  0
VERTEX
  8
0
 10
-117.993743544
 20
25.0283008671
 30
0.0
 42
0.414213562373
  0
VERTEX
  8
0
 10
-118.735359544
 20
24.2866848671
 30
0.0
  0
VERTEX
  8
0
 10
-118.735359544
 20
12.3221768671
 30
0.0
 42
0.414213562373
  0
VERTEX
  8
0
 10
-116.441483544
 20
10.0283008671
 30
0.0
  0
VERTEX
  8
0
 10
-111.235359544
 20
10.0283008671
 30
0.0
  0
VERTEX
  8
0
 10
-111.235359544
 20
17.2844008671
 30
0.0
  0
VERTEX
  8
0
 10
-103.735359544
 20
17.2844008671
 30
0.0
  0
VERTEX
  8
0
 10
-103.735359544
 20
9.78440086706
 30
0.0
  0
SEQEND
  8
0
  0
POLYLINE
  8
0
 62
7
 70
0
 66
1
 10
0.0
 20
0.0
 30
0.0
  0
VERTEX
  8
0
 10
-103.735359544
 20
10.0283008671
 30
0.0
  0
VERTEX
  8
0
 10
-33.7309378945
 20
10.0283008671
 30
0.0
 42
0.98398458244
  0
VERTEX
  8
0
 10
-18.7348471549
 20
9.78617770927
 30
0.0
  0
SEQEND
  8
0
  0
CIRCLE
  8
0
 62
7
 10
-26.2309378945
 20
10.0283008671
 30
0.0
 40
2.5
  0
ENDBLK
  0
ENDSEC
  0
SECTION
  2
ENTITIES
  0
INSERT
  2
SKETCH001
  8
0
 62
7
 10
0.0
 20
0.0
 30
0.0
  0
INSERT
  2
SKETCH
  8
0
 62
7
 10
0.0
 20
0.0
 30
0.0
  0
ENDSEC
  0
EOF
