  0
SECTION
  2
HEADER
  9
$ACADVER
  1
AC1009
  9
$DWGCODEPAGE
  3
ansi_1252
  9
$INSBASE
 10
0.0
 20
0.0
 30
0.0
  9
$EXTMIN
 10
-700.2326181206804
 20
-1267.90059330596
 30
0.0
  9
$EXTMAX
 10
278.1447078503504
 20
-47.90059330595909
 30
0.0
  9
$LIMMIN
 10
0.0
 20
0.0
  9
$LIMMAX
 10
12.0
 20
9.0
  9
$ORTHOMODE
 70
     0
  9
$REGENMODE
 70
     1
  9
$FILLMODE
 70
     1
  9
$QTEXTMODE
 70
     0
  9
$MIRRTEXT
 70
     1
  9
$DRAGMODE
 70
     2
  9
$LTSCALE
 40
1.0
  9
$OSMODE
 70
    37
  9
$ATTMODE
 70
     1
  9
$TEXTSIZE
 40
0.2
  9
$TRACEWID
 40
0.05
  9
$TEXTSTYLE
  7
STANDARD
  9
$CLAYER
  8
DEFAULT
  9
$CELTYPE
  6
BYLAYER
  9
$CECOLOR
 62
   256
  9
$DIMSCALE
 40
1.0
  9
$DIMASZ
 40
0.18
  9
$DIMEXO
 40
0.0625
  9
$DIMDLI
 40
0.38
  9
$DIMRND
 40
0.0
  9
$DIMDLE
 40
0.0
  9
$DIMEXE
 40
0.18
  9
$DIMTP
 40
0.0
  9
$DIMTM
 40
0.0
  9
$DIMTXT
 40
0.18
  9
$DIMCEN
 40
0.09
  9
$DIMTSZ
 40
0.0
  9
$DIMTOL
 70
     0
  9
$DIMLIM
 70
     0
  9
$DIMTIH
 70
     1
  9
$DIMTOH
 70
     1
  9
$DIMSE1
 70
     0
  9
$DIMSE2
 70
     0
  9
$DIMTAD
 70
     0
  9
$DIMZIN
 70
     0
  9
$DIMBLK
  1

  9
$DIMASO
 70
     1
  9
$DIMSHO
 70
     1
  9
$DIMPOST
  1

  9
$DIMAPOST
  1

  9
$DIMALT
 70
     0
  9
$DIMALTD
 70
     2
  9
$DIMALTF
 40
25.4
  9
$DIMLFAC
 40
1.0
  9
$DIMTOFL
 70
     0
  9
$DIMTVP
 40
0.0
  9
$DIMTIX
 70
     0
  9
$DIMSOXD
 70
     0
  9
$DIMSAH
 70
     0
  9
$DIMBLK1
  1

  9
$DIMBLK2
  1

  9
$DIMSTYLE
  2
STANDARD
  9
$DIMCLRD
 70
     0
  9
$DIMCLRE
 70
     0
  9
$DIMCLRT
 70
     0
  9
$DIMTFAC
 40
1.0
  9
$DIMGAP
 40
0.09
  9
$LUNITS
 70
     2
  9
$LUPREC
 70
     2
  9
$SKETCHINC
 40
0.1
  9
$FILLETRAD
 40
0.5
  9
$AUNITS
 70
     0
  9
$AUPREC
 70
     0
  9
$MENU
  1
.
  9
$ELEVATION
 40
0.0
  9
$PELEVATION
 40
0.0
  9
$THICKNESS
 40
0.0
  9
$LIMCHECK
 70
     0
  9
$CHAMFERA
 40
0.0
  9
$CHAMFERB
 40
0.0
  9
$SKPOLY
 70
     0
  9
$TDCREATE
 40
2457826.517905718
  9
$TDUPDATE
 40
2457826.517921065
  9
$TDINDWG
 40
0.0000000116
  9
$TDUSRTIMER
 40
0.0000000116
  9
$USRTIMER
 70
     1
  9
$ANGBASE
 50
0.0
  9
$ANGDIR
 70
     0
  9
$PDMODE
 70
     0
  9
$PDSIZE
 40
0.0
  9
$PLINEWID
 40
0.0
  9
$COORDS
 70
     1
  9
$SPLFRAME
 70
     0
  9
$SPLINETYPE
 70
     6
  9
$SPLINESEGS
 70
     8
  9
$ATTDIA
 70
     0
  9
$ATTREQ
 70
     1
  9
$HANDLING
 70
     1
  9
$HANDSEED
  5
288
  9
$SURFTAB1
 70
     6
  9
$SURFTAB2
 70
     6
  9
$SURFTYPE
 70
     6
  9
$SURFU
 70
     6
  9
$SURFV
 70
     6
  9
$UCSNAME
  2

  9
$UCSORG
 10
0.0
 20
0.0
 30
0.0
  9
$UCSXDIR
 10
1.0
 20
0.0
 30
0.0
  9
$UCSYDIR
 10
0.0
 20
1.0
 30
0.0
  9
$PUCSNAME
  2

  9
$PUCSORG
 10
0.0
 20
0.0
 30
0.0
  9
$PUCSXDIR
 10
1.0
 20
0.0
 30
0.0
  9
$PUCSYDIR
 10
0.0
 20
1.0
 30
0.0
  9
$USERI1
 70
     0
  9
$USERI2
 70
     0
  9
$USERI3
 70
     0
  9
$USERI4
 70
     0
  9
$USERI5
 70
     0
  9
$USERR1
 40
0.0
  9
$USERR2
 40
0.0
  9
$USERR3
 40
0.0
  9
$USERR4
 40
0.0
  9
$USERR5
 40
0.0
  9
$WORLDVIEW
 70
     1
  9
$SHADEDGE
 70
     3
  9
$SHADEDIF
 70
    70
  9
$TILEMODE
 70
     1
  9
$MAXACTVP
 70
    64
  9
$PLIMCHECK
 70
     0
  9
$PEXTMIN
 10
1.000000000000000E+20
 20
1.000000000000000E+20
 30
1.000000000000000E+20
  9
$PEXTMAX
 10
-1.000000000000000E+20
 20
-1.000000000000000E+20
 30
-1.000000000000000E+20
  9
$PLIMMIN
 10
0.0
 20
0.0
  9
$PLIMMAX
 10
12.0
 20
9.0
  9
$UNITMODE
 70
     0
  9
$VISRETAIN
 70
     1
  9
$PLINEGEN
 70
     0
  9
$PSLTSCALE
 70
     1
  0
ENDSEC
  0
SECTION
  2
TABLES
  0
TABLE
  2
VPORT
 70
     1
  0
VPORT
  2
*ACTIVE
 70
     0
 10
0.0
 20
0.0
 11
1.0
 21
1.0
 12
-211.043955135165
 22
-657.9005933059594
 13
0.0
 23
0.0
 14
0.5
 24
0.5
 15
0.5
 25
0.5
 16
0.0
 26
0.0
 36
1.0
 17
0.0
 27
0.0
 37
0.0
 40
1244.400000000001
 41
0.8019486278451067
 42
50.0
 43
0.0
 44
0.0
 50
0.0
 51
0.0
 71
     0
 72
   100
 73
     1
 74
     3
 75
     0
 76
     0
 77
     0
 78
     0
  0
ENDTAB
  0
TABLE
  2
LTYPE
 70
     1
  0
LTYPE
  2
CONTINUOUS
 70
     0
  3
Solid line
 72
    65
 73
     0
 40
0.0
  0
ENDTAB
  0
TABLE
  2
LAYER
 70
     6
  0
LAYER
  2
0
 70
     0
 62
     7
  6
CONTINUOUS
  0
LAYER
  2
LAYER_02
 70
     0
 62
   192
  6
CONTINUOUS
  0
LAYER
  2
LAYER_03
 70
     0
 62
     5
  6
CONTINUOUS
  0
LAYER
  2
LAYER_01
 70
     0
 62
    12
  6
CONTINUOUS
  0
LAYER
  2
LAYER_04
 70
     0
 62
    96
  6
CONTINUOUS
  0
LAYER
  2
DEFAULT
 70
     0
 62
     7
  6
CONTINUOUS
  0
ENDTAB
  0
TABLE
  2
STYLE
 70
     1
  0
STYLE
  2
STANDARD
 70
     0
 40
0.0
 41
1.0
 50
0.0
 71
     0
 42
0.2
  3
txt
  4

  0
ENDTAB
  0
TABLE
  2
VIEW
 70
     0
  0
ENDTAB
  0
TABLE
  2
UCS
 70
     0
  0
ENDTAB
  0
TABLE
  2
APPID
 70
     1
  0
APPID
  2
ACAD
 70
     0
  0
ENDTAB
  0
TABLE
  2
DIMSTYLE
 70
     1
  0
DIMSTYLE
  2
STANDARD
 70
     0
  3

  4

  5

  6

  7

 40
1.0
 41
0.18
 42
0.0625
 43
0.38
 44
0.18
 45
0.0
 46
0.0
 47
0.0
 48
0.0
140
0.18
141
0.09
142
0.0
143
25.4
144
1.0
145
0.0
146
1.0
147
0.09
 71
     0
 72
     0
 73
     1
 74
     1
 75
     0
 76
     0
 77
     0
 78
     0
170
     0
171
     2
172
     0
173
     0
174
     0
175
     0
176
     0
177
     0
178
     0
  0
ENDTAB
  0
ENDSEC
  0
SECTION
  2
BLOCKS
  0
BLOCK
  8
0
  2
$MODEL_SPACE
 70
     0
 10
0.0
 20
0.0
 30
0.0
  3
$MODEL_SPACE
  1

  0
ENDBLK
  5
21
  8
0
  0
BLOCK
 67
     1
  8
0
  2
$PAPER_SPACE
 70
     0
 10
0.0
 20
0.0
 30
0.0
  3
$PAPER_SPACE
  1

  0
ENDBLK
  5
1D
 67
     1
  8
0
  0
ENDSEC
  0
SECTION
  2
ENTITIES
  0
LINE
  5
6F
  8
LAYER_02
 10
-674.2694146436652
 20
-812.0962277378221
 30
0.0
 11
-680.2694146436652
 21
-812.0962277378221
 31
0.0
  0
LINE
  5
70
  8
LAYER_02
 10
-680.2694146436652
 20
-796.0962277378221
 30
0.0
 11
-671.2694146436652
 21
-796.0962277378221
 31
0.0
  0
LINE
  5
71
  8
LAYER_02
 10
-671.2694146436652
 20
-778.0962277378221
 30
0.0
 11
-680.2694146436652
 21
-778.0962277378221
 31
0.0
  0
LINE
  5
72
  8
LAYER_02
 10
-680.2694146436653
 20
-762.0962277378221
 30
0.0
 11
-674.2694146436652
 21
-762.0962277378221
 31
0.0
  0
LINE
  5
73
  8
LAYER_02
 10
-674.2694146436652
 20
-566.2176960464656
 30
0.0
 11
-680.2694146436652
 21
-566.2176960464656
 31
0.0
  0
LINE
  5
74
  8
LAYER_02
 10
-680.2694146436652
 20
-550.2176960464656
 30
0.0
 11
-671.2694146436652
 21
-550.2176960464656
 31
0.0
  0
LINE
  5
75
  8
LAYER_02
 10
-671.2694146436652
 20
-532.2176960464656
 30
0.0
 11
-680.2694146436652
 21
-532.2176960464656
 31
0.0
  0
LINE
  5
76
  8
LAYER_02
 10
-680.2694146436653
 20
-516.2176960464656
 30
0.0
 11
-674.2694146436652
 21
-516.2176960464656
 31
0.0
  0
LINE
  5
77
  8
LAYER_02
 10
-674.2694146436652
 20
-322.625694288405
 30
0.0
 11
-680.2694146436652
 21
-322.625694288405
 31
0.0
  0
LINE
  5
78
  8
LAYER_02
 10
-680.2694146436652
 20
-306.625694288405
 30
0.0
 11
-671.2694146436652
 21
-306.625694288405
 31
0.0
  0
LINE
  5
79
  8
LAYER_02
 10
-671.2694146436652
 20
-288.625694288405
 30
0.0
 11
-680.2694146436652
 21
-288.625694288405
 31
0.0
  0
LINE
  5
7A
  8
LAYER_02
 10
-680.2694146436653
 20
-272.625694288405
 30
0.0
 11
-674.2694146436652
 21
-272.625694288405
 31
0.0
  0
LINE
  5
7B
  8
LAYER_02
 10
-680.2694146436652
 20
-566.2176960464656
 30
0.0
 11
-680.2694146436652
 21
-550.2176960464656
 31
0.0
  0
LINE
  5
7C
  8
LAYER_02
 10
-680.2694146436652
 20
-532.2176960464656
 30
0.0
 11
-680.2694146436652
 21
-516.2176960464656
 31
0.0
  0
LINE
  5
7D
  8
LAYER_02
 10
-680.2694146436652
 20
-812.0962277378221
 30
0.0
 11
-680.2694146436652
 21
-796.0962277378221
 31
0.0
  0
LINE
  5
7E
  8
LAYER_02
 10
-680.2694146436652
 20
-778.0962277378221
 30
0.0
 11
-680.2694146436652
 21
-762.0962277378221
 31
0.0
  0
LINE
  5
7F
  8
LAYER_02
 10
-671.2694146436652
 20
-712.0962277378222
 30
0.0
 11
-663.2261517278673
 21
-716.9871115173044
 31
0.0
  0
LINE
  5
80
  8
LAYER_02
 10
-663.2261517278673
 20
-716.9871115173044
 30
0.0
 11
-654.9970908645674
 21
-721.6414785478005
 31
0.0
  0
LINE
  5
81
  8
LAYER_02
 10
-654.9970908645674
 20
-721.6414785478005
 30
0.0
 11
-646.5790516441533
 21
-726.0552802370223
 31
0.0
  0
LINE
  5
82
  8
LAYER_02
 10
-646.5790516441533
 20
-726.0552802370223
 30
0.0
 11
-637.9670094546964
 21
-730.2221203631805
 31
0.0
  0
LINE
  5
83
  8
LAYER_02
 10
-637.9670094546964
 20
-730.2221203631805
 30
0.0
 11
-629.1545257411302
 21
-734.1338027856036
 31
0.0
  0
LINE
  5
84
  8
LAYER_02
 10
-629.1545257411302
 20
-734.1338027856036
 30
0.0
 11
-620.1342781322351
 21
-737.7810062849032
 31
0.0
  0
LINE
  5
85
  8
LAYER_02
 10
-620.1342781322351
 20
-737.7810062849032
 30
0.0
 11
-610.8986669963606
 21
-741.1540566951717
 31
0.0
  0
LINE
  5
86
  8
LAYER_02
 10
-610.8986669963606
 20
-741.1540566951717
 30
0.0
 11
-601.4406085893836
 21
-744.2439365641114
 31
0.0
  0
LINE
  5
87
  8
LAYER_02
 10
-601.4406085893836
 20
-744.2439365641114
 30
0.0
 11
-591.7547288107447
 21
-747.0438047785397
 31
0.0
  0
LINE
  5
88
  8
LAYER_02
 10
-591.7547288107447
 20
-747.0438047785397
 30
0.0
 11
-581.8385449576565
 21
-749.5505009117576
 31
0.0
  0
LINE
  5
89
  8
LAYER_02
 10
-581.8385449576565
 20
-749.5505009117576
 30
0.0
 11
-571.6931990011974
 21
-751.7654786681167
 31
0.0
  0
LINE
  5
8A
  8
LAYER_02
 10
-571.6931990011974
 20
-751.7654786681167
 30
0.0
 11
-561.323551774373
 21
-753.6949257824077
 31
0.0
  0
LINE
  5
8B
  8
LAYER_02
 10
-561.323551774373
 20
-753.6949257824077
 30
0.0
 11
-550.7370925061809
 21
-755.3483758803753
 31
0.0
  0
LINE
  5
8C
  8
LAYER_02
 10
-550.7370925061809
 20
-755.3483758803753
 30
0.0
 11
-539.9425787326388
 21
-756.736977115034
 31
0.0
  0
LINE
  5
8D
  8
LAYER_02
 10
-539.9425787326388
 20
-756.736977115034
 30
0.0
 11
-528.9491601507432
 21
-757.8723768518169
 31
0.0
  0
LINE
  5
8E
  8
LAYER_02
 10
-528.9491601507432
 20
-757.8723768518169
 30
0.0
 11
-517.7657181888576
 21
-758.765880955983
 31
0.0
  0
LINE
  5
8F
  8
LAYER_02
 10
-517.7657181888576
 20
-758.765880955983
 30
0.0
 11
-506.4002624755155
 21
-759.4276855105547
 31
0.0
  0
LINE
  5
90
  8
LAYER_02
 10
-506.4002624755155
 20
-759.4276855105547
 30
0.0
 11
-494.8594215266902
 21
-759.8662284723176
 31
0.0
  0
LINE
  5
91
  8
LAYER_02
 10
-494.8594215266902
 20
-759.8662284723176
 30
0.0
 11
-483.1481308443336
 21
-760.0877892462227
 31
0.0
  0
LINE
  5
92
  8
LAYER_02
 10
-483.1481308443336
 20
-760.0877892462227
 30
0.0
 11
-471.2694146436651
 21
-760.0962277378221
 31
0.0
  0
LINE
  5
93
  8
LAYER_02
 10
-671.2694146436652
 20
-759.0962277378221
 30
0.0
 11
-671.2694146436652
 21
-712.0962277378222
 31
0.0
  0
LINE
  5
94
  8
LAYER_02
 10
-671.2694146436652
 20
-732.0962277378222
 30
0.0
 11
-671.2694146436652
 21
-759.0962277378221
 31
0.0
  0
LINE
  5
95
  8
LAYER_02
 10
-671.2694146436652
 20
-759.0962277378221
 30
0.0
 11
-671.2694146436652
 21
-732.0962277378222
 31
0.0
  0
ARC
  5
96
  8
LAYER_02
 10
-671.2694146436652
 20
-762.0962277378221
 30
0.0
 40
3.000000000000007
 50
180.0
 51
90.0
  0
LINE
  5
97
  8
LAYER_02
 10
-474.2694146436651
 20
-778.0962277378221
 30
0.0
 11
-671.2694146436652
 21
-778.0962277378221
 31
0.0
  0
LINE
  5
98
  8
LAYER_02
 10
-671.2694146436652
 20
-796.0962277378221
 30
0.0
 11
-474.2694146436651
 21
-796.0962277378221
 31
0.0
  0
ARC
  5
99
  8
LAYER_02
 10
-671.2694146436652
 20
-812.0962277378221
 30
0.0
 40
3.000000000000007
 50
270.0
 51
180.0
  0
LINE
  5
9A
  8
LAYER_02
 10
-671.2694146436652
 20
-862.0962277378221
 30
0.0
 11
-671.2694146436652
 21
-815.0962277378221
 31
0.0
  0
LINE
  5
9B
  8
LAYER_02
 10
-471.2694146436651
 20
-814.0962277378221
 30
0.0
 11
-483.1481282103508
 21
-814.1046662006543
 31
0.0
  0
LINE
  5
9C
  8
LAYER_02
 10
-483.1481282103508
 20
-814.1046662006543
 30
0.0
 11
-494.859421526691
 21
-814.3262270033265
 31
0.0
  0
LINE
  5
9D
  8
LAYER_02
 10
-494.859421526691
 20
-814.3262270033265
 30
0.0
 11
-506.4002624755207
 21
-814.7647699650895
 31
0.0
  0
LINE
  5
9E
  8
LAYER_02
 10
-506.4002624755207
 20
-814.7647699650895
 30
0.0
 11
-517.7657181888665
 21
-815.4265745196617
 31
0.0
  0
LINE
  5
9F
  8
LAYER_02
 10
-517.7657181888665
 20
-815.4265745196617
 30
0.0
 11
-528.9491601507426
 21
-816.3200786238272
 31
0.0
  0
LINE
  5
A0
  8
LAYER_02
 10
-528.9491601507426
 20
-816.3200786238272
 30
0.0
 11
-539.9425787326298
 21
-817.4554783606092
 31
0.0
  0
LINE
  5
A1
  8
LAYER_02
 10
-539.9425787326298
 20
-817.4554783606092
 30
0.0
 11
-550.7370925061764
 21
-818.8440795952681
 31
0.0
  0
LINE
  5
A2
  8
LAYER_02
 10
-550.7370925061764
 20
-818.8440795952681
 30
0.0
 11
-561.3235517743731
 21
-820.4975296932366
 31
0.0
  0
LINE
  5
A3
  8
LAYER_02
 10
-561.3235517743731
 20
-820.4975296932366
 30
0.0
 11
-571.6931990012018
 21
-822.4269768075284
 31
0.0
  0
LINE
  5
A4
  8
LAYER_02
 10
-571.6931990012018
 20
-822.4269768075284
 30
0.0
 11
-581.8385449576647
 21
-824.6419545638882
 31
0.0
  0
LINE
  5
A5
  8
LAYER_02
 10
-581.8385449576647
 20
-824.6419545638882
 30
0.0
 11
-591.7547288107448
 21
-827.148650697104
 31
0.0
  0
LINE
  5
A6
  8
LAYER_02
 10
-591.7547288107448
 20
-827.148650697104
 30
0.0
 11
-601.4406085893759
 21
-829.9485189115301
 31
0.0
  0
LINE
  5
A7
  8
LAYER_02
 10
-601.4406085893759
 20
-829.9485189115301
 30
0.0
 11
-610.8986669963565
 21
-833.038398780471
 31
0.0
  0
LINE
  5
A8
  8
LAYER_02
 10
-610.8986669963565
 20
-833.038398780471
 30
0.0
 11
-620.1342781322351
 21
-836.4114491907408
 31
0.0
  0
LINE
  5
A9
  8
LAYER_02
 10
-620.1342781322351
 20
-836.4114491907408
 30
0.0
 11
-629.1545257411342
 21
-840.058652690042
 31
0.0
  0
LINE
  5
AA
  8
LAYER_02
 10
-629.1545257411342
 20
-840.058652690042
 30
0.0
 11
-637.9670094547035
 21
-843.9703351124671
 31
0.0
  0
LINE
  5
AB
  8
LAYER_02
 10
-637.9670094547035
 20
-843.9703351124671
 30
0.0
 11
-646.5790516441538
 21
-848.1371752386221
 31
0.0
  0
LINE
  5
AC
  8
LAYER_02
 10
-646.5790516441538
 20
-848.1371752386221
 30
0.0
 11
-654.9970908645613
 21
-852.5509769278406
 31
0.0
  0
LINE
  5
AD
  8
LAYER_02
 10
-654.9970908645613
 20
-852.5509769278406
 30
0.0
 11
-663.2261517278647
 21
-857.2053439583385
 31
0.0
  0
LINE
  5
AE
  8
LAYER_02
 10
-663.2261517278647
 20
-857.2053439583385
 30
0.0
 11
-671.2694146436652
 21
-862.0962277378221
 31
0.0
  0
LINE
  5
AF
  8
LAYER_02
 10
-671.2694146436652
 20
-466.2176960464656
 30
0.0
 11
-663.2261517278673
 21
-471.1085798259476
 31
0.0
  0
LINE
  5
B0
  8
LAYER_02
 10
-663.2261517278673
 20
-471.1085798259476
 30
0.0
 11
-654.9970908645674
 21
-475.7629468564436
 31
0.0
  0
LINE
  5
B1
  8
LAYER_02
 10
-654.9970908645674
 20
-475.7629468564436
 30
0.0
 11
-646.5790516441533
 21
-480.1767485456655
 31
0.0
  0
LINE
  5
B2
  8
LAYER_02
 10
-646.5790516441533
 20
-480.1767485456655
 30
0.0
 11
-637.9670094546964
 21
-484.3435886718237
 31
0.0
  0
LINE
  5
B3
  8
LAYER_02
 10
-637.9670094546964
 20
-484.3435886718237
 30
0.0
 11
-629.1545257411302
 21
-488.2552710942471
 31
0.0
  0
LINE
  5
B4
  8
LAYER_02
 10
-629.1545257411302
 20
-488.2552710942471
 30
0.0
 11
-620.1342781322351
 21
-491.9024745935466
 31
0.0
  0
LINE
  5
B5
  8
LAYER_02
 10
-620.1342781322351
 20
-491.9024745935466
 30
0.0
 11
-610.8986669963606
 21
-495.2755250038152
 31
0.0
  0
LINE
  5
B6
  8
LAYER_02
 10
-610.8986669963606
 20
-495.2755250038152
 30
0.0
 11
-601.4406085893836
 21
-498.3654048727549
 31
0.0
  0
LINE
  5
B7
  8
LAYER_02
 10
-601.4406085893836
 20
-498.3654048727549
 30
0.0
 11
-591.7547288107447
 21
-501.165273087183
 31
0.0
  0
LINE
  5
B8
  8
LAYER_02
 10
-591.7547288107447
 20
-501.165273087183
 30
0.0
 11
-581.8385449576565
 21
-503.671969220401
 31
0.0
  0
LINE
  5
B9
  8
LAYER_02
 10
-581.8385449576565
 20
-503.671969220401
 30
0.0
 11
-571.6931990011974
 21
-505.88694697676
 31
0.0
  0
LINE
  5
BA
  8
LAYER_02
 10
-571.6931990011974
 20
-505.88694697676
 30
0.0
 11
-561.323551774373
 21
-507.8163940910511
 31
0.0
  0
LINE
  5
BB
  8
LAYER_02
 10
-561.323551774373
 20
-507.8163940910511
 30
0.0
 11
-550.7370925061809
 21
-509.4698441890188
 31
0.0
  0
LINE
  5
BC
  8
LAYER_02
 10
-550.7370925061809
 20
-509.4698441890188
 30
0.0
 11
-539.9425787326388
 21
-510.8584454236776
 31
0.0
  0
LINE
  5
BD
  8
LAYER_02
 10
-539.9425787326388
 20
-510.8584454236776
 30
0.0
 11
-528.9491601507432
 21
-511.9938451604602
 31
0.0
  0
LINE
  5
BE
  8
LAYER_02
 10
-528.9491601507432
 20
-511.9938451604602
 30
0.0
 11
-517.7657181888576
 21
-512.8873492646263
 31
0.0
  0
LINE
  5
BF
  8
LAYER_02
 10
-517.7657181888576
 20
-512.8873492646263
 30
0.0
 11
-506.4002624755155
 21
-513.5491538191982
 31
0.0
  0
LINE
  5
C0
  8
LAYER_02
 10
-506.4002624755155
 20
-513.5491538191982
 30
0.0
 11
-494.8594215266902
 21
-513.9876967809612
 31
0.0
  0
LINE
  5
C1
  8
LAYER_02
 10
-494.8594215266902
 20
-513.9876967809612
 30
0.0
 11
-483.1481308443336
 21
-514.2092575548661
 31
0.0
  0
LINE
  5
C2
  8
LAYER_02
 10
-483.1481308443336
 20
-514.2092575548661
 30
0.0
 11
-471.2694146436651
 21
-514.2176960464656
 31
0.0
  0
LINE
  5
C3
  8
LAYER_02
 10
-671.2694146436652
 20
-513.2176960464656
 30
0.0
 11
-671.2694146436652
 21
-466.2176960464656
 31
0.0
  0
LINE
  5
C4
  8
LAYER_02
 10
-671.2694146436652
 20
-486.2176960464656
 30
0.0
 11
-671.2694146436652
 21
-513.2176960464656
 31
0.0
  0
LINE
  5
C5
  8
LAYER_02
 10
-671.2694146436652
 20
-513.2176960464656
 30
0.0
 11
-671.2694146436652
 21
-486.2176960464656
 31
0.0
  0
ARC
  5
C6
  8
LAYER_02
 10
-671.2694146436652
 20
-516.2176960464656
 30
0.0
 40
3.000000000000007
 50
180.0
 51
90.0
  0
LINE
  5
C7
  8
LAYER_02
 10
-474.2694146436651
 20
-532.2176960464656
 30
0.0
 11
-671.2694146436652
 21
-532.2176960464656
 31
0.0
  0
LINE
  5
C8
  8
LAYER_02
 10
-671.2694146436652
 20
-550.2176960464656
 30
0.0
 11
-474.2694146436651
 21
-550.2176960464656
 31
0.0
  0
ARC
  5
C9
  8
LAYER_02
 10
-671.2694146436652
 20
-566.2176960464656
 30
0.0
 40
3.000000000000007
 50
270.0
 51
180.0
  0
LINE
  5
CA
  8
LAYER_02
 10
-671.2694146436652
 20
-616.2176960464656
 30
0.0
 11
-671.2694146436652
 21
-569.2176960464656
 31
0.0
  0
LINE
  5
CB
  8
LAYER_02
 10
-471.2694146436651
 20
-568.2176960464656
 30
0.0
 11
-483.1481282103508
 21
-568.2261345092977
 31
0.0
  0
LINE
  5
CC
  8
LAYER_02
 10
-483.1481282103508
 20
-568.2261345092977
 30
0.0
 11
-494.859421526691
 21
-568.4476953119699
 31
0.0
  0
LINE
  5
CD
  8
LAYER_02
 10
-494.859421526691
 20
-568.4476953119699
 30
0.0
 11
-506.4002624755207
 21
-568.8862382737329
 31
0.0
  0
LINE
  5
CE
  8
LAYER_02
 10
-506.4002624755207
 20
-568.8862382737329
 30
0.0
 11
-517.7657181888665
 21
-569.5480428283051
 31
0.0
  0
LINE
  5
CF
  8
LAYER_02
 10
-517.7657181888665
 20
-569.5480428283051
 30
0.0
 11
-528.9491601507426
 21
-570.4415469324706
 31
0.0
  0
LINE
  5
D0
  8
LAYER_02
 10
-528.9491601507426
 20
-570.4415469324706
 30
0.0
 11
-539.9425787326298
 21
-571.5769466692526
 31
0.0
  0
LINE
  5
D1
  8
LAYER_02
 10
-539.9425787326298
 20
-571.5769466692526
 30
0.0
 11
-550.7370925061764
 21
-572.9655479039116
 31
0.0
  0
LINE
  5
D2
  8
LAYER_02
 10
-550.7370925061764
 20
-572.9655479039116
 30
0.0
 11
-561.3235517743731
 21
-574.61899800188
 31
0.0
  0
LINE
  5
D3
  8
LAYER_02
 10
-561.3235517743731
 20
-574.61899800188
 30
0.0
 11
-571.6931990012018
 21
-576.5484451161718
 31
0.0
  0
LINE
  5
D4
  8
LAYER_02
 10
-571.6931990012018
 20
-576.5484451161718
 30
0.0
 11
-581.8385449576647
 21
-578.7634228725317
 31
0.0
  0
LINE
  5
D5
  8
LAYER_02
 10
-581.8385449576647
 20
-578.7634228725317
 30
0.0
 11
-591.7547288107448
 21
-581.2701190057475
 31
0.0
  0
LINE
  5
D6
  8
LAYER_02
 10
-591.7547288107448
 20
-581.2701190057475
 30
0.0
 11
-601.4406085893759
 21
-584.0699872201735
 31
0.0
  0
LINE
  5
D7
  8
LAYER_02
 10
-601.4406085893759
 20
-584.0699872201735
 30
0.0
 11
-610.8986669963565
 21
-587.1598670891144
 31
0.0
  0
LINE
  5
D8
  8
LAYER_02
 10
-610.8986669963565
 20
-587.1598670891144
 30
0.0
 11
-620.1342781322351
 21
-590.5329174993842
 31
0.0
  0
LINE
  5
D9
  8
LAYER_02
 10
-620.1342781322351
 20
-590.5329174993842
 30
0.0
 11
-629.1545257411342
 21
-594.1801209986854
 31
0.0
  0
LINE
  5
DA
  8
LAYER_02
 10
-629.1545257411342
 20
-594.1801209986854
 30
0.0
 11
-637.9670094547035
 21
-598.0918034211105
 31
0.0
  0
LINE
  5
DB
  8
LAYER_02
 10
-637.9670094547035
 20
-598.0918034211105
 30
0.0
 11
-646.5790516441538
 21
-602.2586435472654
 31
0.0
  0
LINE
  5
DC
  8
LAYER_02
 10
-646.5790516441538
 20
-602.2586435472654
 30
0.0
 11
-654.9970908645613
 21
-606.6724452364839
 31
0.0
  0
LINE
  5
DD
  8
LAYER_02
 10
-654.9970908645613
 20
-606.6724452364839
 30
0.0
 11
-663.2261517278647
 21
-611.326812266982
 31
0.0
  0
LINE
  5
DE
  8
LAYER_02
 10
-663.2261517278647
 20
-611.326812266982
 30
0.0
 11
-671.2694146436652
 21
-616.2176960464656
 31
0.0
  0
LINE
  5
DF
  8
LAYER_02
 10
-471.2694146436651
 20
-324.625694288405
 30
0.0
 11
-483.1481282103508
 21
-324.6341327512371
 31
0.0
  0
LINE
  5
E0
  8
LAYER_02
 10
-483.1481282103508
 20
-324.6341327512371
 30
0.0
 11
-494.859421526691
 21
-324.8556935539094
 31
0.0
  0
LINE
  5
E1
  8
LAYER_02
 10
-494.859421526691
 20
-324.8556935539094
 30
0.0
 11
-506.4002624755207
 21
-325.2942365156724
 31
0.0
  0
LINE
  5
E2
  8
LAYER_02
 10
-506.4002624755207
 20
-325.2942365156724
 30
0.0
 11
-517.7657181888665
 21
-325.9560410702446
 31
0.0
  0
LINE
  5
E3
  8
LAYER_02
 10
-517.7657181888665
 20
-325.9560410702446
 30
0.0
 11
-528.9491601507426
 21
-326.84954517441
 31
0.0
  0
LINE
  5
E4
  8
LAYER_02
 10
-528.9491601507426
 20
-326.84954517441
 30
0.0
 11
-539.9425787326298
 21
-327.9849449111919
 31
0.0
  0
LINE
  5
E5
  8
LAYER_02
 10
-539.9425787326298
 20
-327.9849449111919
 30
0.0
 11
-550.7370925061764
 21
-329.3735461458511
 31
0.0
  0
LINE
  5
E6
  8
LAYER_02
 10
-550.7370925061764
 20
-329.3735461458511
 30
0.0
 11
-561.3235517743731
 21
-331.0269962438196
 31
0.0
  0
LINE
  5
E7
  8
LAYER_02
 10
-561.3235517743731
 20
-331.0269962438196
 30
0.0
 11
-571.6931990012018
 21
-332.9564433581113
 31
0.0
  0
LINE
  5
E8
  8
LAYER_02
 10
-571.6931990012018
 20
-332.9564433581113
 30
0.0
 11
-581.8385449576647
 21
-335.1714211144712
 31
0.0
  0
LINE
  5
E9
  8
LAYER_02
 10
-581.8385449576647
 20
-335.1714211144712
 30
0.0
 11
-591.7547288107448
 21
-337.6781172476871
 31
0.0
  0
LINE
  5
EA
  8
LAYER_02
 10
-591.7547288107448
 20
-337.6781172476871
 30
0.0
 11
-601.4406085893759
 21
-340.4779854621131
 31
0.0
  0
LINE
  5
EB
  8
LAYER_02
 10
-601.4406085893759
 20
-340.4779854621131
 30
0.0
 11
-610.8986669963565
 21
-343.5678653310538
 31
0.0
  0
LINE
  5
EC
  8
LAYER_02
 10
-610.8986669963565
 20
-343.5678653310538
 30
0.0
 11
-620.1342781322351
 21
-346.9409157413237
 31
0.0
  0
LINE
  5
ED
  8
LAYER_02
 10
-620.1342781322351
 20
-346.9409157413237
 30
0.0
 11
-629.1545257411342
 21
-350.5881192406249
 31
0.0
  0
LINE
  5
EE
  8
LAYER_02
 10
-629.1545257411342
 20
-350.5881192406249
 30
0.0
 11
-637.9670094547035
 21
-354.49980166305
 31
0.0
  0
LINE
  5
EF
  8
LAYER_02
 10
-637.9670094547035
 20
-354.49980166305
 30
0.0
 11
-646.5790516441538
 21
-358.666641789205
 31
0.0
  0
LINE
  5
F0
  8
LAYER_02
 10
-646.5790516441538
 20
-358.666641789205
 30
0.0
 11
-654.9970908645613
 21
-363.0804434784234
 31
0.0
  0
LINE
  5
F1
  8
LAYER_02
 10
-654.9970908645613
 20
-363.0804434784234
 30
0.0
 11
-663.2261517278647
 21
-367.7348105089213
 31
0.0
  0
LINE
  5
F2
  8
LAYER_02
 10
-663.2261517278647
 20
-367.7348105089213
 30
0.0
 11
-671.2694146436652
 21
-372.625694288405
 31
0.0
  0
LINE
  5
F3
  8
LAYER_02
 10
-680.2694146436652
 20
-322.625694288405
 30
0.0
 11
-680.2694146436652
 21
-306.625694288405
 31
0.0
  0
LINE
  5
F4
  8
LAYER_02
 10
-680.2694146436652
 20
-288.625694288405
 30
0.0
 11
-680.2694146436652
 21
-272.625694288405
 31
0.0
  0
LINE
  5
F5
  8
LAYER_02
 10
-262.2694146436652
 20
-692.0962277378222
 30
0.0
 11
-268.2694146436651
 21
-692.0962277378222
 31
0.0
  0
LINE
  5
F6
  8
LAYER_02
 10
-268.2694146436651
 20
-642.0962277378222
 30
0.0
 11
-262.2694146436651
 21
-642.0962277378222
 31
0.0
  0
LINE
  5
F7
  8
LAYER_02
 10
-262.2694146436652
 20
-446.2176960464656
 30
0.0
 11
-268.2694146436651
 21
-446.2176960464656
 31
0.0
  0
LINE
  5
F8
  8
LAYER_02
 10
-268.2694146436651
 20
-396.2176960464656
 30
0.0
 11
-262.2694146436651
 21
-396.2176960464656
 31
0.0
  0
LINE
  5
F9
  8
LAYER_02
 10
-262.2694146436652
 20
-202.625694288405
 30
0.0
 11
-268.2694146436651
 21
-202.625694288405
 31
0.0
  0
LINE
  5
FA
  8
LAYER_02
 10
-268.2694146436651
 20
-152.625694288405
 30
0.0
 11
-262.2694146436651
 21
-152.625694288405
 31
0.0
  0
LINE
  5
FB
  8
LAYER_02
 10
-262.2694146436651
 20
-152.625694288405
 30
0.0
 11
-262.2694146436651
 21
-202.625694288405
 31
0.0
  0
LINE
  5
FC
  8
LAYER_02
 10
-262.2694146436651
 20
-396.2176960464656
 30
0.0
 11
-262.2694146436651
 21
-446.2176960464656
 31
0.0
  0
LINE
  5
FD
  8
LAYER_02
 10
-262.2694146436651
 20
-642.0962277378222
 30
0.0
 11
-262.2694146436651
 21
-692.0962277378222
 31
0.0
  0
LINE
  5
FE
  8
LAYER_02
 10
-271.2694146436651
 20
-695.0962277378222
 30
0.0
 11
-271.2694146436651
 21
-742.0962277378222
 31
0.0
  0
LINE
  5
FF
  8
LAYER_02
 10
-271.2694146436651
 20
-722.0962277378222
 30
0.0
 11
-271.2694146436651
 21
-695.0962277378222
 31
0.0
  0
LINE
  5
100
  8
LAYER_02
 10
-271.2694146436651
 20
-695.0962277378222
 30
0.0
 11
-271.2694146436651
 21
-722.0962277378222
 31
0.0
  0
ARC
  5
101
  8
LAYER_02
 10
-271.2694146436651
 20
-692.0962277378222
 30
0.0
 40
3.000000000000007
 50
0.0
 51
270.0
  0
ARC
  5
102
  8
LAYER_02
 10
-271.2694146436651
 20
-642.0962277378222
 30
0.0
 40
2.999999999999972
 50
90.0
 51
0.0
  0
LINE
  5
103
  8
LAYER_02
 10
-271.2694146436651
 20
-592.0962277378222
 30
0.0
 11
-271.2694146436651
 21
-639.0962277378222
 31
0.0
  0
LINE
  5
104
  8
LAYER_02
 10
-471.2694146436651
 20
-640.0962277378222
 30
0.0
 11
-459.3907010769789
 21
-640.08778927499
 31
0.0
  0
LINE
  5
105
  8
LAYER_02
 10
-459.3907010769789
 20
-640.08778927499
 30
0.0
 11
-447.6794077606359
 21
-639.8662284723175
 31
0.0
  0
LINE
  5
106
  8
LAYER_02
 10
-447.6794077606359
 20
-639.8662284723175
 30
0.0
 11
-436.1385668118028
 21
-639.4276855105543
 31
0.0
  0
LINE
  5
107
  8
LAYER_02
 10
-436.1385668118028
 20
-639.4276855105543
 30
0.0
 11
-424.7731110984541
 21
-638.7658809559819
 31
0.0
  0
LINE
  5
108
  8
LAYER_02
 10
-424.7731110984541
 20
-638.7658809559819
 30
0.0
 11
-413.5896691365878
 21
-637.8723768518171
 31
0.0
  0
LINE
  5
109
  8
LAYER_02
 10
-413.5896691365878
 20
-637.8723768518171
 30
0.0
 11
-402.5962505547104
 21
-636.7369771150364
 31
0.0
  0
LINE
  5
10A
  8
LAYER_02
 10
-402.5962505547104
 20
-636.7369771150364
 30
0.0
 11
-391.8017367811614
 21
-635.3483758803773
 31
0.0
  0
LINE
  5
10B
  8
LAYER_02
 10
-391.8017367811614
 20
-635.3483758803773
 30
0.0
 11
-381.2152775129622
 21
-633.6949257824085
 31
0.0
  0
LINE
  5
10C
  8
LAYER_02
 10
-381.2152775129622
 20
-633.6949257824085
 30
0.0
 11
-370.845630286131
 21
-631.7654786681164
 31
0.0
  0
LINE
  5
10D
  8
LAYER_02
 10
-370.845630286131
 20
-631.7654786681164
 30
0.0
 11
-360.700284329666
 21
-629.550500911756
 31
0.0
  0
LINE
  5
10E
  8
LAYER_02
 10
-360.700284329666
 20
-629.550500911756
 30
0.0
 11
-350.7841004765835
 21
-627.0438047785392
 31
0.0
  0
LINE
  5
10F
  8
LAYER_02
 10
-350.7841004765835
 20
-627.0438047785392
 30
0.0
 11
-341.0982206979504
 21
-624.2439365641126
 31
0.0
  0
LINE
  5
110
  8
LAYER_02
 10
-341.0982206979504
 20
-624.2439365641126
 30
0.0
 11
-331.6401622909674
 21
-621.1540566951709
 31
0.0
  0
LINE
  5
111
  8
LAYER_02
 10
-331.6401622909674
 20
-621.1540566951709
 30
0.0
 11
-322.4045511550869
 21
-617.7810062849001
 31
0.0
  0
LINE
  5
112
  8
LAYER_02
 10
-322.4045511550869
 20
-617.7810062849001
 30
0.0
 11
-313.3843035461962
 21
-614.133802785602
 31
0.0
  0
LINE
  5
113
  8
LAYER_02
 10
-313.3843035461962
 20
-614.133802785602
 30
0.0
 11
-304.5718198326344
 21
-610.2221203631806
 31
0.0
  0
LINE
  5
114
  8
LAYER_02
 10
-304.5718198326344
 20
-610.2221203631806
 30
0.0
 11
-295.9597776431818
 21
-606.0552802370248
 31
0.0
  0
LINE
  5
115
  8
LAYER_02
 10
-295.9597776431818
 20
-606.0552802370248
 30
0.0
 11
-287.5417384227716
 21
-601.641478547805
 31
0.0
  0
LINE
  5
116
  8
LAYER_02
 10
-287.5417384227716
 20
-601.641478547805
 30
0.0
 11
-279.3126775594662
 21
-596.9871115173062
 31
0.0
  0
LINE
  5
117
  8
LAYER_02
 10
-279.3126775594662
 20
-596.9871115173062
 30
0.0
 11
-271.2694146436651
 21
-592.0962277378222
 31
0.0
  0
LINE
  5
118
  8
LAYER_02
 10
-671.2694146436652
 20
-640.0962277378222
 30
0.0
 11
-471.2694146436651
 21
-640.0962277378222
 31
0.0
  0
LINE
  5
119
  8
LAYER_02
 10
-671.2694146436652
 20
-658.0962277378222
 30
0.0
 11
-671.2694146436652
 21
-640.0962277378222
 31
0.0
  0
LINE
  5
11A
  8
LAYER_02
 10
-474.2694146436651
 20
-658.0962277378222
 30
0.0
 11
-671.2694146436652
 21
-658.0962277378222
 31
0.0
  0
ARC
  5
11B
  8
LAYER_02
 10
-471.2694146436651
 20
-658.0962277378222
 30
0.0
 40
2.999999999999972
 50
270.0
 51
180.0
  0
LINE
  5
11C
  8
LAYER_02
 10
-471.2694146436651
 20
-673.0962277378222
 30
0.0
 11
-471.2694146436651
 21
-661.0962277378222
 31
0.0
  0
ARC
  5
11D
  8
LAYER_02
 10
-471.2694146436651
 20
-676.0962277378222
 30
0.0
 40
3.000000000000007
 50
180.0
 51
90.0
  0
LINE
  5
11E
  8
LAYER_02
 10
-671.2694146436652
 20
-676.0962277378222
 30
0.0
 11
-474.2694146436651
 21
-676.0962277378222
 31
0.0
  0
LINE
  5
11F
  8
LAYER_02
 10
-671.2694146436652
 20
-694.0962277378222
 30
0.0
 11
-671.2694146436652
 21
-676.0962277378222
 31
0.0
  0
LINE
  5
120
  8
LAYER_02
 10
-471.2694146436651
 20
-694.0962277378222
 30
0.0
 11
-671.2694146436652
 21
-694.0962277378222
 31
0.0
  0
LINE
  5
121
  8
LAYER_02
 10
-271.2694146436651
 20
-742.0962277378222
 30
0.0
 11
-279.3126775594658
 21
-737.2053439583385
 31
0.0
  0
LINE
  5
122
  8
LAYER_02
 10
-279.3126775594658
 20
-737.2053439583385
 30
0.0
 11
-287.5417384227692
 21
-732.5509769278408
 31
0.0
  0
LINE
  5
123
  8
LAYER_02
 10
-287.5417384227692
 20
-732.5509769278408
 30
0.0
 11
-295.9597776431766
 21
-728.1371752386221
 31
0.0
  0
LINE
  5
124
  8
LAYER_02
 10
-295.9597776431766
 20
-728.1371752386221
 30
0.0
 11
-304.5718198326267
 21
-723.9703351124671
 31
0.0
  0
LINE
  5
125
  8
LAYER_02
 10
-304.5718198326267
 20
-723.9703351124671
 30
0.0
 11
-313.3843035461962
 21
-720.0586526900422
 31
0.0
  0
LINE
  5
126
  8
LAYER_02
 10
-313.3843035461962
 20
-720.0586526900422
 30
0.0
 11
-322.4045511550952
 21
-716.4114491907412
 31
0.0
  0
LINE
  5
127
  8
LAYER_02
 10
-322.4045511550952
 20
-716.4114491907412
 30
0.0
 11
-331.6401622909738
 21
-713.0383987804712
 31
0.0
  0
LINE
  5
128
  8
LAYER_02
 10
-331.6401622909738
 20
-713.0383987804712
 30
0.0
 11
-341.0982206979547
 21
-709.9485189115305
 31
0.0
  0
LINE
  5
129
  8
LAYER_02
 10
-341.0982206979547
 20
-709.9485189115305
 30
0.0
 11
-350.7841004765857
 21
-707.1486506971045
 31
0.0
  0
LINE
  5
12A
  8
LAYER_02
 10
-350.7841004765857
 20
-707.1486506971045
 30
0.0
 11
-360.7002843296659
 21
-704.6419545638885
 31
0.0
  0
LINE
  5
12B
  8
LAYER_02
 10
-360.7002843296659
 20
-704.6419545638885
 30
0.0
 11
-370.8456302861287
 21
-702.4269768075286
 31
0.0
  0
LINE
  5
12C
  8
LAYER_02
 10
-370.8456302861287
 20
-702.4269768075286
 30
0.0
 11
-381.2152775129575
 21
-700.4975296932367
 31
0.0
  0
LINE
  5
12D
  8
LAYER_02
 10
-381.2152775129575
 20
-700.4975296932367
 30
0.0
 11
-391.8017367811541
 21
-698.8440795952686
 31
0.0
  0
LINE
  5
12E
  8
LAYER_02
 10
-391.8017367811541
 20
-698.8440795952686
 30
0.0
 11
-402.5962505547005
 21
-697.4554783606093
 31
0.0
  0
LINE
  5
12F
  8
LAYER_02
 10
-402.5962505547005
 20
-697.4554783606093
 30
0.0
 11
-413.5896691365876
 21
-696.3200786238273
 31
0.0
  0
LINE
  5
130
  8
LAYER_02
 10
-413.5896691365876
 20
-696.3200786238273
 30
0.0
 11
-424.773111098464
 21
-695.4265745196617
 31
0.0
  0
LINE
  5
131
  8
LAYER_02
 10
-424.773111098464
 20
-695.4265745196617
 30
0.0
 11
-436.1385668118098
 21
-694.7647699650897
 31
0.0
  0
LINE
  5
132
  8
LAYER_02
 10
-436.1385668118098
 20
-694.7647699650897
 30
0.0
 11
-447.6794077606393
 21
-694.3262270033266
 31
0.0
  0
LINE
  5
133
  8
LAYER_02
 10
-447.6794077606393
 20
-694.3262270033266
 30
0.0
 11
-459.3907010769796
 21
-694.1046662006543
 31
0.0
  0
LINE
  5
134
  8
LAYER_02
 10
-459.3907010769796
 20
-694.1046662006543
 30
0.0
 11
-471.2694146436651
 21
-694.0962277378222
 31
0.0
  0
LINE
  5
135
  8
LAYER_02
 10
-271.2694146436651
 20
-814.0962277378221
 30
0.0
 11
-471.2694146436651
 21
-814.0962277378221
 31
0.0
  0
LINE
  5
136
  8
LAYER_02
 10
-271.2694146436651
 20
-787.0962277378221
 30
0.0
 11
-271.2694146436651
 21
-814.0962277378221
 31
0.0
  0
LINE
  5
137
  8
LAYER_02
 10
-271.2694146436651
 20
-760.0962277378221
 30
0.0
 11
-271.2694146436651
 21
-787.0962277378221
 31
0.0
  0
LINE
  5
138
  8
LAYER_02
 10
-471.2694146436651
 20
-760.0962277378221
 30
0.0
 11
-271.2694146436651
 21
-760.0962277378221
 31
0.0
  0
ARC
  5
139
  8
LAYER_02
 10
-471.2694146436651
 20
-778.0962277378221
 30
0.0
 40
3.000000000000007
 50
270.0
 51
180.0
  0
LINE
  5
13A
  8
LAYER_02
 10
-471.2694146436651
 20
-793.0962277378221
 30
0.0
 11
-471.2694146436651
 21
-781.0962277378221
 31
0.0
  0
ARC
  5
13B
  8
LAYER_02
 10
-471.2694146436651
 20
-796.0962277378221
 30
0.0
 40
3.000000000000007
 50
180.0
 51
90.0
  0
LINE
  5
13C
  8
LAYER_02
 10
-271.2694146436651
 20
-449.2176960464656
 30
0.0
 11
-271.2694146436651
 21
-496.2176960464656
 31
0.0
  0
LINE
  5
13D
  8
LAYER_02
 10
-271.2694146436651
 20
-476.2176960464656
 30
0.0
 11
-271.2694146436651
 21
-449.2176960464656
 31
0.0
  0
LINE
  5
13E
  8
LAYER_02
 10
-271.2694146436651
 20
-449.2176960464656
 30
0.0
 11
-271.2694146436651
 21
-476.2176960464656
 31
0.0
  0
ARC
  5
13F
  8
LAYER_02
 10
-271.2694146436651
 20
-446.2176960464656
 30
0.0
 40
3.000000000000007
 50
0.0
 51
270.0
  0
ARC
  5
140
  8
LAYER_02
 10
-271.2694146436651
 20
-396.2176960464656
 30
0.0
 40
2.999999999999972
 50
90.0
 51
0.0
  0
LINE
  5
141
  8
LAYER_02
 10
-271.2694146436651
 20
-346.2176960464656
 30
0.0
 11
-271.2694146436651
 21
-393.2176960464656
 31
0.0
  0
LINE
  5
142
  8
LAYER_02
 10
-471.2694146436651
 20
-394.2176960464656
 30
0.0
 11
-459.3907010769789
 21
-394.2092575836333
 31
0.0
  0
LINE
  5
143
  8
LAYER_02
 10
-459.3907010769789
 20
-394.2092575836333
 30
0.0
 11
-447.6794077606359
 21
-393.9876967809609
 31
0.0
  0
LINE
  5
144
  8
LAYER_02
 10
-447.6794077606359
 20
-393.9876967809609
 30
0.0
 11
-436.1385668118028
 21
-393.5491538191976
 31
0.0
  0
LINE
  5
145
  8
LAYER_02
 10
-436.1385668118028
 20
-393.5491538191976
 30
0.0
 11
-424.7731110984541
 21
-392.8873492646251
 31
0.0
  0
LINE
  5
146
  8
LAYER_02
 10
-424.7731110984541
 20
-392.8873492646251
 30
0.0
 11
-413.5896691365878
 21
-391.9938451604604
 31
0.0
  0
LINE
  5
147
  8
LAYER_02
 10
-413.5896691365878
 20
-391.9938451604604
 30
0.0
 11
-402.5962505547104
 21
-390.8584454236798
 31
0.0
  0
LINE
  5
148
  8
LAYER_02
 10
-402.5962505547104
 20
-390.8584454236798
 30
0.0
 11
-391.8017367811614
 21
-389.4698441890205
 31
0.0
  0
LINE
  5
149
  8
LAYER_02
 10
-391.8017367811614
 20
-389.4698441890205
 30
0.0
 11
-381.2152775129622
 21
-387.816394091052
 31
0.0
  0
LINE
  5
14A
  8
LAYER_02
 10
-381.2152775129622
 20
-387.816394091052
 30
0.0
 11
-370.845630286131
 21
-385.8869469767596
 31
0.0
  0
LINE
  5
14B
  8
LAYER_02
 10
-370.845630286131
 20
-385.8869469767596
 30
0.0
 11
-360.700284329666
 21
-383.6719692203992
 31
0.0
  0
LINE
  5
14C
  8
LAYER_02
 10
-360.700284329666
 20
-383.6719692203992
 30
0.0
 11
-350.7841004765835
 21
-381.1652730871825
 31
0.0
  0
LINE
  5
14D
  8
LAYER_02
 10
-350.7841004765835
 20
-381.1652730871825
 30
0.0
 11
-341.0982206979504
 21
-378.3654048727559
 31
0.0
  0
LINE
  5
14E
  8
LAYER_02
 10
-341.0982206979504
 20
-378.3654048727559
 30
0.0
 11
-331.6401622909674
 21
-375.2755250038142
 31
0.0
  0
LINE
  5
14F
  8
LAYER_02
 10
-331.6401622909674
 20
-375.2755250038142
 30
0.0
 11
-322.4045511550869
 21
-371.9024745935434
 31
0.0
  0
LINE
  5
150
  8
LAYER_02
 10
-322.4045511550869
 20
-371.9024745935434
 30
0.0
 11
-313.3843035461962
 21
-368.2552710942454
 31
0.0
  0
LINE
  5
151
  8
LAYER_02
 10
-313.3843035461962
 20
-368.2552710942454
 30
0.0
 11
-304.5718198326344
 21
-364.343588671824
 31
0.0
  0
LINE
  5
152
  8
LAYER_02
 10
-304.5718198326344
 20
-364.343588671824
 30
0.0
 11
-295.9597776431818
 21
-360.176748545668
 31
0.0
  0
LINE
  5
153
  8
LAYER_02
 10
-295.9597776431818
 20
-360.176748545668
 30
0.0
 11
-287.5417384227716
 21
-355.7629468564484
 31
0.0
  0
LINE
  5
154
  8
LAYER_02
 10
-287.5417384227716
 20
-355.7629468564484
 30
0.0
 11
-279.3126775594662
 21
-351.1085798259494
 31
0.0
  0
LINE
  5
155
  8
LAYER_02
 10
-279.3126775594662
 20
-351.1085798259494
 30
0.0
 11
-271.2694146436651
 21
-346.2176960464656
 31
0.0
  0
LINE
  5
156
  8
LAYER_02
 10
-671.2694146436652
 20
-394.2176960464656
 30
0.0
 11
-471.2694146436651
 21
-394.2176960464656
 31
0.0
  0
LINE
  5
157
  8
LAYER_02
 10
-671.2694146436652
 20
-412.2176960464656
 30
0.0
 11
-671.2694146436652
 21
-394.2176960464656
 31
0.0
  0
LINE
  5
158
  8
LAYER_02
 10
-474.2694146436651
 20
-412.2176960464656
 30
0.0
 11
-671.2694146436652
 21
-412.2176960464656
 31
0.0
  0
ARC
  5
159
  8
LAYER_02
 10
-471.2694146436651
 20
-412.2176960464656
 30
0.0
 40
2.999999999999972
 50
270.0
 51
180.0
  0
LINE
  5
15A
  8
LAYER_02
 10
-471.2694146436651
 20
-427.2176960464656
 30
0.0
 11
-471.2694146436651
 21
-415.2176960464656
 31
0.0
  0
ARC
  5
15B
  8
LAYER_02
 10
-471.2694146436651
 20
-430.2176960464656
 30
0.0
 40
3.000000000000007
 50
180.0
 51
90.0
  0
LINE
  5
15C
  8
LAYER_02
 10
-671.2694146436652
 20
-430.2176960464656
 30
0.0
 11
-474.2694146436651
 21
-430.2176960464656
 31
0.0
  0
LINE
  5
15D
  8
LAYER_02
 10
-671.2694146436652
 20
-448.2176960464656
 30
0.0
 11
-671.2694146436652
 21
-430.2176960464656
 31
0.0
  0
LINE
  5
15E
  8
LAYER_02
 10
-471.2694146436651
 20
-448.2176960464656
 30
0.0
 11
-671.2694146436652
 21
-448.2176960464656
 31
0.0
  0
LINE
  5
15F
  8
LAYER_02
 10
-271.2694146436651
 20
-496.2176960464656
 30
0.0
 11
-279.3126775594658
 21
-491.3268122669819
 31
0.0
  0
LINE
  5
160
  8
LAYER_02
 10
-279.3126775594658
 20
-491.3268122669819
 30
0.0
 11
-287.5417384227692
 21
-486.672445236484
 31
0.0
  0
LINE
  5
161
  8
LAYER_02
 10
-287.5417384227692
 20
-486.672445236484
 30
0.0
 11
-295.9597776431766
 21
-482.2586435472655
 31
0.0
  0
LINE
  5
162
  8
LAYER_02
 10
-295.9597776431766
 20
-482.2586435472655
 30
0.0
 11
-304.5718198326267
 21
-478.0918034211106
 31
0.0
  0
LINE
  5
163
  8
LAYER_02
 10
-304.5718198326267
 20
-478.0918034211106
 30
0.0
 11
-313.3843035461962
 21
-474.1801209986856
 31
0.0
  0
LINE
  5
164
  8
LAYER_02
 10
-313.3843035461962
 20
-474.1801209986856
 30
0.0
 11
-322.4045511550952
 21
-470.5329174993844
 31
0.0
  0
LINE
  5
165
  8
LAYER_02
 10
-322.4045511550952
 20
-470.5329174993844
 30
0.0
 11
-331.6401622909738
 21
-467.1598670891145
 31
0.0
  0
LINE
  5
166
  8
LAYER_02
 10
-331.6401622909738
 20
-467.1598670891145
 30
0.0
 11
-341.0982206979547
 21
-464.0699872201737
 31
0.0
  0
LINE
  5
167
  8
LAYER_02
 10
-341.0982206979547
 20
-464.0699872201737
 30
0.0
 11
-350.7841004765857
 21
-461.2701190057477
 31
0.0
  0
LINE
  5
168
  8
LAYER_02
 10
-350.7841004765857
 20
-461.2701190057477
 30
0.0
 11
-360.7002843296659
 21
-458.7634228725318
 31
0.0
  0
LINE
  5
169
  8
LAYER_02
 10
-360.7002843296659
 20
-458.7634228725318
 30
0.0
 11
-370.8456302861287
 21
-456.5484451161718
 31
0.0
  0
LINE
  5
16A
  8
LAYER_02
 10
-370.8456302861287
 20
-456.5484451161718
 30
0.0
 11
-381.2152775129575
 21
-454.6189980018801
 31
0.0
  0
LINE
  5
16B
  8
LAYER_02
 10
-381.2152775129575
 20
-454.6189980018801
 30
0.0
 11
-391.8017367811541
 21
-452.9655479039116
 31
0.0
  0
LINE
  5
16C
  8
LAYER_02
 10
-391.8017367811541
 20
-452.9655479039116
 30
0.0
 11
-402.5962505547005
 21
-451.5769466692525
 31
0.0
  0
LINE
  5
16D
  8
LAYER_02
 10
-402.5962505547005
 20
-451.5769466692525
 30
0.0
 11
-413.5896691365876
 21
-450.4415469324707
 31
0.0
  0
LINE
  5
16E
  8
LAYER_02
 10
-413.5896691365876
 20
-450.4415469324707
 30
0.0
 11
-424.773111098464
 21
-449.5480428283052
 31
0.0
  0
LINE
  5
16F
  8
LAYER_02
 10
-424.773111098464
 20
-449.5480428283052
 30
0.0
 11
-436.1385668118098
 21
-448.886238273733
 31
0.0
  0
LINE
  5
170
  8
LAYER_02
 10
-436.1385668118098
 20
-448.886238273733
 30
0.0
 11
-447.6794077606393
 21
-448.4476953119699
 31
0.0
  0
LINE
  5
171
  8
LAYER_02
 10
-447.6794077606393
 20
-448.4476953119699
 30
0.0
 11
-459.3907010769796
 21
-448.2261345092976
 31
0.0
  0
LINE
  5
172
  8
LAYER_02
 10
-459.3907010769796
 20
-448.2261345092976
 30
0.0
 11
-471.2694146436651
 21
-448.2176960464656
 31
0.0
  0
LINE
  5
173
  8
LAYER_02
 10
-271.2694146436651
 20
-568.2176960464656
 30
0.0
 11
-471.2694146436651
 21
-568.2176960464656
 31
0.0
  0
LINE
  5
174
  8
LAYER_02
 10
-271.2694146436651
 20
-541.2176960464656
 30
0.0
 11
-271.2694146436651
 21
-568.2176960464656
 31
0.0
  0
LINE
  5
175
  8
LAYER_02
 10
-271.2694146436651
 20
-514.2176960464656
 30
0.0
 11
-271.2694146436651
 21
-541.2176960464656
 31
0.0
  0
LINE
  5
176
  8
LAYER_02
 10
-471.2694146436651
 20
-514.2176960464656
 30
0.0
 11
-271.2694146436651
 21
-514.2176960464656
 31
0.0
  0
ARC
  5
177
  8
LAYER_02
 10
-471.2694146436651
 20
-532.2176960464656
 30
0.0
 40
3.000000000000007
 50
270.0
 51
180.0
  0
LINE
  5
178
  8
LAYER_02
 10
-471.2694146436651
 20
-547.2176960464656
 30
0.0
 11
-471.2694146436651
 21
-535.2176960464656
 31
0.0
  0
ARC
  5
179
  8
LAYER_02
 10
-471.2694146436651
 20
-550.2176960464656
 30
0.0
 40
3.000000000000007
 50
180.0
 51
90.0
  0
LINE
  5
17A
  8
LAYER_02
 10
-271.2694146436651
 20
-324.625694288405
 30
0.0
 11
-471.2694146436651
 21
-324.625694288405
 31
0.0
  0
LINE
  5
17B
  8
LAYER_02
 10
-271.2694146436651
 20
-297.625694288405
 30
0.0
 11
-271.2694146436651
 21
-324.625694288405
 31
0.0
  0
LINE
  5
17C
  8
LAYER_02
 10
-271.2694146436651
 20
-270.625694288405
 30
0.0
 11
-271.2694146436651
 21
-297.625694288405
 31
0.0
  0
LINE
  5
17D
  8
LAYER_02
 10
-471.2694146436651
 20
-270.625694288405
 30
0.0
 11
-271.2694146436651
 21
-270.625694288405
 31
0.0
  0
LINE
  5
17E
  8
LAYER_02
 10
-671.2694146436652
 20
-222.625694288405
 30
0.0
 11
-663.2261517278673
 21
-227.5165780678871
 31
0.0
  0
LINE
  5
17F
  8
LAYER_02
 10
-663.2261517278673
 20
-227.5165780678871
 30
0.0
 11
-654.9970908645674
 21
-232.1709450983832
 31
0.0
  0
LINE
  5
180
  8
LAYER_02
 10
-654.9970908645674
 20
-232.1709450983832
 30
0.0
 11
-646.5790516441533
 21
-236.5847467876051
 31
0.0
  0
LINE
  5
181
  8
LAYER_02
 10
-646.5790516441533
 20
-236.5847467876051
 30
0.0
 11
-637.9670094546964
 21
-240.7515869137632
 31
0.0
  0
LINE
  5
182
  8
LAYER_02
 10
-637.9670094546964
 20
-240.7515869137632
 30
0.0
 11
-629.1545257411302
 21
-244.6632693361865
 31
0.0
  0
LINE
  5
183
  8
LAYER_02
 10
-629.1545257411302
 20
-244.6632693361865
 30
0.0
 11
-620.1342781322351
 21
-248.3104728354861
 31
0.0
  0
LINE
  5
184
  8
LAYER_02
 10
-620.1342781322351
 20
-248.3104728354861
 30
0.0
 11
-610.8986669963606
 21
-251.6835232457546
 31
0.0
  0
LINE
  5
185
  8
LAYER_02
 10
-610.8986669963606
 20
-251.6835232457546
 30
0.0
 11
-601.4406085893836
 21
-254.7734031146943
 31
0.0
  0
LINE
  5
186
  8
LAYER_02
 10
-601.4406085893836
 20
-254.7734031146943
 30
0.0
 11
-591.7547288107447
 21
-257.5732713291226
 31
0.0
  0
LINE
  5
187
  8
LAYER_02
 10
-591.7547288107447
 20
-257.5732713291226
 30
0.0
 11
-581.8385449576565
 21
-260.0799674623405
 31
0.0
  0
LINE
  5
188
  8
LAYER_02
 10
-581.8385449576565
 20
-260.0799674623405
 30
0.0
 11
-571.6931990011974
 21
-262.2949452186995
 31
0.0
  0
LINE
  5
189
  8
LAYER_02
 10
-571.6931990011974
 20
-262.2949452186995
 30
0.0
 11
-561.323551774373
 21
-264.2243923329905
 31
0.0
  0
LINE
  5
18A
  8
LAYER_02
 10
-561.323551774373
 20
-264.2243923329905
 30
0.0
 11
-550.7370925061809
 21
-265.8778424309583
 31
0.0
  0
LINE
  5
18B
  8
LAYER_02
 10
-550.7370925061809
 20
-265.8778424309583
 30
0.0
 11
-539.9425787326388
 21
-267.266443665617
 31
0.0
  0
LINE
  5
18C
  8
LAYER_02
 10
-539.9425787326388
 20
-267.266443665617
 30
0.0
 11
-528.9491601507432
 21
-268.4018434023998
 31
0.0
  0
LINE
  5
18D
  8
LAYER_02
 10
-528.9491601507432
 20
-268.4018434023998
 30
0.0
 11
-517.7657181888576
 21
-269.2953475065658
 31
0.0
  0
LINE
  5
18E
  8
LAYER_02
 10
-517.7657181888576
 20
-269.2953475065658
 30
0.0
 11
-506.4002624755155
 21
-269.9571520611377
 31
0.0
  0
LINE
  5
18F
  8
LAYER_02
 10
-506.4002624755155
 20
-269.9571520611377
 30
0.0
 11
-494.8594215266902
 21
-270.3956950229006
 31
0.0
  0
LINE
  5
190
  8
LAYER_02
 10
-494.8594215266902
 20
-270.3956950229006
 30
0.0
 11
-483.1481308443336
 21
-270.6172557968055
 31
0.0
  0
LINE
  5
191
  8
LAYER_02
 10
-483.1481308443336
 20
-270.6172557968055
 30
0.0
 11
-471.2694146436651
 21
-270.625694288405
 31
0.0
  0
LINE
  5
192
  8
LAYER_02
 10
-671.2694146436652
 20
-269.625694288405
 30
0.0
 11
-671.2694146436652
 21
-222.625694288405
 31
0.0
  0
LINE
  5
193
  8
LAYER_02
 10
-671.2694146436652
 20
-242.625694288405
 30
0.0
 11
-671.2694146436652
 21
-269.625694288405
 31
0.0
  0
LINE
  5
194
  8
LAYER_02
 10
-671.2694146436652
 20
-269.625694288405
 30
0.0
 11
-671.2694146436652
 21
-242.625694288405
 31
0.0
  0
ARC
  5
195
  8
LAYER_02
 10
-671.2694146436652
 20
-272.625694288405
 30
0.0
 40
3.000000000000007
 50
180.0
 51
90.0
  0
LINE
  5
196
  8
LAYER_02
 10
-474.2694146436651
 20
-288.625694288405
 30
0.0
 11
-671.2694146436652
 21
-288.625694288405
 31
0.0
  0
ARC
  5
197
  8
LAYER_02
 10
-471.2694146436651
 20
-288.625694288405
 30
0.0
 40
3.000000000000007
 50
270.0
 51
180.0
  0
LINE
  5
198
  8
LAYER_02
 10
-471.2694146436651
 20
-303.625694288405
 30
0.0
 11
-471.2694146436651
 21
-291.625694288405
 31
0.0
  0
ARC
  5
199
  8
LAYER_02
 10
-471.2694146436651
 20
-306.625694288405
 30
0.0
 40
3.000000000000007
 50
180.0
 51
90.0
  0
LINE
  5
19A
  8
LAYER_02
 10
-671.2694146436652
 20
-306.625694288405
 30
0.0
 11
-474.2694146436651
 21
-306.625694288405
 31
0.0
  0
ARC
  5
19B
  8
LAYER_02
 10
-671.2694146436652
 20
-322.625694288405
 30
0.0
 40
3.000000000000007
 50
270.0
 51
180.0
  0
LINE
  5
19C
  8
LAYER_02
 10
-671.2694146436652
 20
-372.625694288405
 30
0.0
 11
-671.2694146436652
 21
-325.625694288405
 31
0.0
  0
LINE
  5
19D
  8
LAYER_02
 10
-271.2694146436651
 20
-205.625694288405
 30
0.0
 11
-271.2694146436651
 21
-252.625694288405
 31
0.0
  0
LINE
  5
19E
  8
LAYER_02
 10
-271.2694146436651
 20
-232.625694288405
 30
0.0
 11
-271.2694146436651
 21
-205.625694288405
 31
0.0
  0
LINE
  5
19F
  8
LAYER_02
 10
-271.2694146436651
 20
-205.625694288405
 30
0.0
 11
-271.2694146436651
 21
-232.625694288405
 31
0.0
  0
ARC
  5
1A0
  8
LAYER_02
 10
-271.2694146436651
 20
-202.625694288405
 30
0.0
 40
3.000000000000007
 50
0.0
 51
270.0
  0
ARC
  5
1A1
  8
LAYER_02
 10
-271.2694146436651
 20
-152.625694288405
 30
0.0
 40
2.999999999999972
 50
90.0
 51
0.0
  0
LINE
  5
1A2
  8
LAYER_02
 10
-271.2694146436651
 20
-102.625694288405
 30
0.0
 11
-271.2694146436651
 21
-149.625694288405
 31
0.0
  0
LINE
  5
1A3
  8
LAYER_02
 10
-471.2694146436651
 20
-150.625694288405
 30
0.0
 11
-459.3907010769789
 21
-150.6172558255728
 31
0.0
  0
LINE
  5
1A4
  8
LAYER_02
 10
-459.3907010769789
 20
-150.6172558255728
 30
0.0
 11
-447.6794077606359
 21
-150.3956950229004
 31
0.0
  0
LINE
  5
1A5
  8
LAYER_02
 10
-447.6794077606359
 20
-150.3956950229004
 30
0.0
 11
-436.1385668118028
 21
-149.957152061137
 31
0.0
  0
LINE
  5
1A6
  8
LAYER_02
 10
-436.1385668118028
 20
-149.957152061137
 30
0.0
 11
-424.7731110984541
 21
-149.2953475065646
 31
0.0
  0
LINE
  5
1A7
  8
LAYER_02
 10
-424.7731110984541
 20
-149.2953475065646
 30
0.0
 11
-413.5896691365878
 21
-148.4018434023999
 31
0.0
  0
LINE
  5
1A8
  8
LAYER_02
 10
-413.5896691365878
 20
-148.4018434023999
 30
0.0
 11
-402.5962505547104
 21
-147.2664436656192
 31
0.0
  0
LINE
  5
1A9
  8
LAYER_02
 10
-402.5962505547104
 20
-147.2664436656192
 30
0.0
 11
-391.8017367811614
 21
-145.87784243096
 31
0.0
  0
LINE
  5
1AA
  8
LAYER_02
 10
-391.8017367811614
 20
-145.87784243096
 30
0.0
 11
-381.2152775129622
 21
-144.2243923329913
 31
0.0
  0
LINE
  5
1AB
  8
LAYER_02
 10
-381.2152775129622
 20
-144.2243923329913
 30
0.0
 11
-370.845630286131
 21
-142.2949452186991
 31
0.0
  0
LINE
  5
1AC
  8
LAYER_02
 10
-370.845630286131
 20
-142.2949452186991
 30
0.0
 11
-360.700284329666
 21
-140.0799674623387
 31
0.0
  0
LINE
  5
1AD
  8
LAYER_02
 10
-360.700284329666
 20
-140.0799674623387
 30
0.0
 11
-350.7841004765835
 21
-137.573271329122
 31
0.0
  0
LINE
  5
1AE
  8
LAYER_02
 10
-350.7841004765835
 20
-137.573271329122
 30
0.0
 11
-341.0982206979504
 21
-134.7734031146954
 31
0.0
  0
LINE
  5
1AF
  8
LAYER_02
 10
-341.0982206979504
 20
-134.7734031146954
 30
0.0
 11
-331.6401622909674
 21
-131.6835232457537
 31
0.0
  0
LINE
  5
1B0
  8
LAYER_02
 10
-331.6401622909674
 20
-131.6835232457537
 30
0.0
 11
-322.4045511550869
 21
-128.3104728354828
 31
0.0
  0
LINE
  5
1B1
  8
LAYER_02
 10
-322.4045511550869
 20
-128.3104728354828
 30
0.0
 11
-313.3843035461962
 21
-124.6632693361849
 31
0.0
  0
LINE
  5
1B2
  8
LAYER_02
 10
-313.3843035461962
 20
-124.6632693361849
 30
0.0
 11
-304.5718198326344
 21
-120.7515869137635
 31
0.0
  0
LINE
  5
1B3
  8
LAYER_02
 10
-304.5718198326344
 20
-120.7515869137635
 30
0.0
 11
-295.9597776431818
 21
-116.5847467876075
 31
0.0
  0
LINE
  5
1B4
  8
LAYER_02
 10
-295.9597776431818
 20
-116.5847467876075
 30
0.0
 11
-287.5417384227716
 21
-112.1709450983879
 31
0.0
  0
LINE
  5
1B5
  8
LAYER_02
 10
-287.5417384227716
 20
-112.1709450983879
 30
0.0
 11
-279.3126775594662
 21
-107.5165780678889
 31
0.0
  0
LINE
  5
1B6
  8
LAYER_02
 10
-279.3126775594662
 20
-107.5165780678889
 30
0.0
 11
-271.2694146436651
 21
-102.625694288405
 31
0.0
  0
LINE
  5
1B7
  8
LAYER_02
 10
-671.2694146436652
 20
-150.625694288405
 30
0.0
 11
-471.2694146436651
 21
-150.625694288405
 31
0.0
  0
LINE
  5
1B8
  8
LAYER_02
 10
-671.2694146436652
 20
-168.625694288405
 30
0.0
 11
-671.2694146436652
 21
-150.625694288405
 31
0.0
  0
LINE
  5
1B9
  8
LAYER_02
 10
-474.2694146436651
 20
-168.625694288405
 30
0.0
 11
-671.2694146436652
 21
-168.625694288405
 31
0.0
  0
ARC
  5
1BA
  8
LAYER_02
 10
-471.2694146436651
 20
-168.625694288405
 30
0.0
 40
2.999999999999972
 50
270.0
 51
180.0
  0
LINE
  5
1BB
  8
LAYER_02
 10
-471.2694146436651
 20
-183.625694288405
 30
0.0
 11
-471.2694146436651
 21
-171.625694288405
 31
0.0
  0
ARC
  5
1BC
  8
LAYER_02
 10
-471.2694146436651
 20
-186.625694288405
 30
0.0
 40
3.000000000000007
 50
180.0
 51
90.0
  0
LINE
  5
1BD
  8
LAYER_02
 10
-671.2694146436652
 20
-186.625694288405
 30
0.0
 11
-474.2694146436651
 21
-186.625694288405
 31
0.0
  0
LINE
  5
1BE
  8
LAYER_02
 10
-671.2694146436652
 20
-204.625694288405
 30
0.0
 11
-671.2694146436652
 21
-186.625694288405
 31
0.0
  0
LINE
  5
1BF
  8
LAYER_02
 10
-471.2694146436651
 20
-204.625694288405
 30
0.0
 11
-671.2694146436652
 21
-204.625694288405
 31
0.0
  0
LINE
  5
1C0
  8
LAYER_02
 10
-271.2694146436651
 20
-252.625694288405
 30
0.0
 11
-279.3126775594658
 21
-247.7348105089214
 31
0.0
  0
LINE
  5
1C1
  8
LAYER_02
 10
-279.3126775594658
 20
-247.7348105089214
 30
0.0
 11
-287.5417384227692
 21
-243.0804434784235
 31
0.0
  0
LINE
  5
1C2
  8
LAYER_02
 10
-287.5417384227692
 20
-243.0804434784235
 30
0.0
 11
-295.9597776431766
 21
-238.666641789205
 31
0.0
  0
LINE
  5
1C3
  8
LAYER_02
 10
-295.9597776431766
 20
-238.666641789205
 30
0.0
 11
-304.5718198326267
 21
-234.4998016630501
 31
0.0
  0
LINE
  5
1C4
  8
LAYER_02
 10
-304.5718198326267
 20
-234.4998016630501
 30
0.0
 11
-313.3843035461962
 21
-230.588119240625
 31
0.0
  0
LINE
  5
1C5
  8
LAYER_02
 10
-313.3843035461962
 20
-230.588119240625
 30
0.0
 11
-322.4045511550952
 21
-226.9409157413239
 31
0.0
  0
LINE
  5
1C6
  8
LAYER_02
 10
-322.4045511550952
 20
-226.9409157413239
 30
0.0
 11
-331.6401622909738
 21
-223.567865331054
 31
0.0
  0
LINE
  5
1C7
  8
LAYER_02
 10
-331.6401622909738
 20
-223.567865331054
 30
0.0
 11
-341.0982206979547
 21
-220.4779854621132
 31
0.0
  0
LINE
  5
1C8
  8
LAYER_02
 10
-341.0982206979547
 20
-220.4779854621132
 30
0.0
 11
-350.7841004765857
 21
-217.6781172476872
 31
0.0
  0
LINE
  5
1C9
  8
LAYER_02
 10
-350.7841004765857
 20
-217.6781172476872
 30
0.0
 11
-360.7002843296659
 21
-215.1714211144712
 31
0.0
  0
LINE
  5
1CA
  8
LAYER_02
 10
-360.7002843296659
 20
-215.1714211144712
 30
0.0
 11
-370.8456302861287
 21
-212.9564433581112
 31
0.0
  0
LINE
  5
1CB
  8
LAYER_02
 10
-370.8456302861287
 20
-212.9564433581112
 30
0.0
 11
-381.2152775129575
 21
-211.0269962438195
 31
0.0
  0
LINE
  5
1CC
  8
LAYER_02
 10
-381.2152775129575
 20
-211.0269962438195
 30
0.0
 11
-391.8017367811541
 21
-209.3735461458512
 31
0.0
  0
LINE
  5
1CD
  8
LAYER_02
 10
-391.8017367811541
 20
-209.3735461458512
 30
0.0
 11
-402.5962505547005
 21
-207.984944911192
 31
0.0
  0
LINE
  5
1CE
  8
LAYER_02
 10
-402.5962505547005
 20
-207.984944911192
 30
0.0
 11
-413.5896691365876
 21
-206.8495451744102
 31
0.0
  0
LINE
  5
1CF
  8
LAYER_02
 10
-413.5896691365876
 20
-206.8495451744102
 30
0.0
 11
-424.773111098464
 21
-205.9560410702447
 31
0.0
  0
LINE
  5
1D0
  8
LAYER_02
 10
-424.773111098464
 20
-205.9560410702447
 30
0.0
 11
-436.1385668118098
 21
-205.2942365156725
 31
0.0
  0
LINE
  5
1D1
  8
LAYER_02
 10
-436.1385668118098
 20
-205.2942365156725
 30
0.0
 11
-447.6794077606393
 21
-204.8556935539094
 31
0.0
  0
LINE
  5
1D2
  8
LAYER_02
 10
-447.6794077606393
 20
-204.8556935539094
 30
0.0
 11
-459.3907010769796
 21
-204.6341327512371
 31
0.0
  0
LINE
  5
1D3
  8
LAYER_02
 10
-459.3907010769796
 20
-204.6341327512371
 30
0.0
 11
-471.2694146436651
 21
-204.625694288405
 31
0.0
  0
LINE
  5
1D5
  8
LAYER_03
 10
-120.8095196288609
 20
-1073.67565480405
 30
0.0
 11
119.8105001296371
 21
-1141.442619381059
 31
0.0
  0
ARC
  5
1D6
  8
LAYER_03
 10
122.5213878842862
 20
-1131.817075885667
 30
0.0
 40
9.99999999999993
 50
254.2709343982647
 51
331.0217352852196
  0
LINE
  5
1D7
  8
LAYER_03
 10
131.2694234627902
 20
-1136.661853849333
 30
0.0
 11
133.2858851050352
 21
-1133.107686494793
 31
0.0
  0
LINE
  5
1D8
  8
LAYER_03
 10
133.2858851050352
 20
-1133.107686494793
 30
0.0
 11
135.3572186643751
 21
-1129.629157062516
 31
0.0
  0
LINE
  5
1D9
  8
LAYER_03
 10
135.3572186643751
 20
-1129.629157062516
 30
0.0
 11
137.4316200298509
 21
-1126.308854317808
 31
0.0
  0
LINE
  5
1DA
  8
LAYER_03
 10
137.4316200298509
 20
-1126.308854317808
 30
0.0
 11
139.5594677782449
 21
-1123.06222447485
 31
0.0
  0
LINE
  5
1DB
  8
LAYER_03
 10
139.5594677782449
 20
-1123.06222447485
 30
0.0
 11
141.7415586459026
 21
-1119.890365790912
 31
0.0
  0
LINE
  5
1DC
  8
LAYER_03
 10
141.7415586459026
 20
-1119.890365790912
 30
0.0
 11
143.9788032978045
 21
-1116.794533567627
 31
0.0
  0
LINE
  5
1DD
  8
LAYER_03
 10
143.9788032978045
 20
-1116.794533567627
 30
0.0
 11
146.2722126736412
 21
-1113.776121329806
 31
0.0
  0
LINE
  5
1DE
  8
LAYER_03
 10
146.2722126736412
 20
-1113.776121329806
 30
0.0
 11
148.6228823290824
 21
-1110.836639240735
 31
0.0
  0
LINE
  5
1DF
  8
LAYER_03
 10
148.6228823290824
 20
-1110.836639240735
 30
0.0
 11
151.0319716879141
 21
-1107.977685502392
 31
0.0
  0
LINE
  5
1E0
  8
LAYER_03
 10
151.0319716879141
 20
-1107.977685502392
 30
0.0
 11
153.5006812893693
 21
-1105.200914992135
 31
0.0
  0
LINE
  5
1E1
  8
LAYER_03
 10
153.5006812893693
 20
-1105.200914992135
 30
0.0
 11
156.0302298440201
 21
-1102.50800763552
 31
0.0
  0
LINE
  5
1E2
  8
LAYER_03
 10
156.0302298440201
 20
-1102.50800763552
 30
0.0
 11
158.621828317118
 21
-1099.900632681599
 31
0.0
  0
LINE
  5
1E3
  8
LAYER_03
 10
158.621828317118
 20
-1099.900632681599
 30
0.0
 11
161.276646466221
 21
-1097.380402576886
 31
0.0
  0
LINE
  5
1E4
  8
LAYER_03
 10
161.276646466221
 20
-1097.380402576886
 30
0.0
 11
163.9957764062675
 21
-1094.94882274181
 31
0.0
  0
LINE
  5
1E5
  8
LAYER_03
 10
163.9957764062675
 20
-1094.94882274181
 30
0.0
 11
166.7801959780021
 21
-1092.607241076103
 31
0.0
  0
LINE
  5
1E6
  8
LAYER_03
 10
166.7801959780021
 20
-1092.607241076103
 30
0.0
 11
169.6307299760874
 21
-1090.356794513885
 31
0.0
  0
LINE
  5
1E7
  8
LAYER_03
 10
169.6307299760874
 20
-1090.356794513885
 30
0.0
 11
172.5480059441115
 21
-1088.198348089509
 31
0.0
  0
LINE
  5
1E8
  8
LAYER_03
 10
172.5480059441115
 20
-1088.198348089509
 30
0.0
 11
175.5324078292817
 21
-1086.132431053102
 31
0.0
  0
LINE
  5
1E9
  8
LAYER_03
 10
175.5324078292817
 20
-1086.132431053102
 30
0.0
 11
178.5840303717884
 21
-1084.159173998812
 31
0.0
  0
LINE
  5
1EA
  8
LAYER_03
 10
178.5840303717884
 20
-1084.159173998812
 30
0.0
 11
181.7026547358775
 21
-1082.278275273582
 31
0.0
  0
LINE
  5
1EB
  8
LAYER_03
 10
181.7026547358775
 20
-1082.278275273582
 30
0.0
 11
184.8877780621875
 21
-1080.489041713415
 31
0.0
  0
LINE
  5
1EC
  8
LAYER_03
 10
184.8877780621875
 20
-1080.489041713415
 30
0.0
 11
188.1386642617961
 21
-1078.790458660186
 31
0.0
  0
LINE
  5
1ED
  8
LAYER_03
 10
188.1386642617961
 20
-1078.790458660186
 30
0.0
 11
191.4543954707133
 21
-1077.181260888825
 31
0.0
  0
LINE
  5
1EE
  8
LAYER_03
 10
191.4543954707133
 20
-1077.181260888825
 30
0.0
 11
194.8339194342628
 21
-1075.65999792409
 31
0.0
  0
LINE
  5
1EF
  8
LAYER_03
 10
194.8339194342628
 20
-1075.65999792409
 30
0.0
 11
198.2760865596434
 21
-1074.225085115479
 31
0.0
  0
LINE
  5
1F0
  8
LAYER_03
 10
198.2760865596434
 20
-1074.225085115479
 30
0.0
 11
201.7796828983795
 21
-1072.874849101733
 31
0.0
  0
LINE
  5
1F1
  8
LAYER_03
 10
201.7796828983795
 20
-1072.874849101733
 30
0.0
 11
205.3434628884226
 21
-1071.607572943987
 31
0.0
  0
LINE
  5
1F2
  8
LAYER_03
 10
205.3434628884226
 20
-1071.607572943987
 30
0.0
 11
208.9661799168324
 21
-1070.421538254843
 31
0.0
  0
LINE
  5
1F3
  8
LAYER_03
 10
208.9661799168324
 20
-1070.421538254843
 30
0.0
 11
212.6466113503406
 21
-1069.315059701528
 31
0.0
  0
LINE
  5
1F4
  8
LAYER_03
 10
212.6466113503406
 20
-1069.315059701528
 30
0.0
 11
216.3835813864933
 21
-1068.286516504977
 31
0.0
  0
LINE
  5
1F5
  8
LAYER_03
 10
216.3835813864933
 20
-1068.286516504977
 30
0.0
 11
220.4053673781054
 21
-1067.279630613282
 31
0.0
  0
LINE
  5
1F6
  8
LAYER_03
 10
220.4053673781054
 20
-1067.279630613282
 30
0.0
 11
224.4882343520629
 21
-1066.356941499145
 31
0.0
  0
ARC
  5
1F7
  8
LAYER_03
 10
218.2041657325732
 20
-1037.022482554321
 30
0.0
 40
29.99999999999996
 50
282.0912334156819
 51
0.0
  0
LINE
  5
1F8
  8
LAYER_03
 10
248.2041657325731
 20
-1037.022482554321
 30
0.0
 11
248.2041657325736
 21
-218.5989483240267
 31
0.0
  0
ARC
  5
1F9
  8
LAYER_03
 10
102.6011787776534
 20
-218.5989483240267
 30
0.0
 40
145.6029869549203
 50
0.0
 51
223.0802279729871
  0
ARC
  5
1FA
  8
LAYER_03
 10
-25.65889555456556
 20
-338.5396101522072
 30
0.0
 40
29.99999999999563
 50
334.3982083904721
 51
43.08022797299198
  0
LINE
  5
1FB
  8
LAYER_03
 10
1.395674891389604
 20
-351.5030286050917
 30
0.0
 11
-242.1552227445434
 21
-859.7921763493321
 31
0.0
  0
ARC
  5
1FC
  8
LAYER_03
 10
-215.1006522985834
 20
-872.7555948022161
 30
0.0
 40
29.99999999999983
 50
154.3982083904769
 51
253.0915233244974
  0
LINE
  5
1FD
  8
LAYER_03
 10
-223.8259647103949
 20
-901.4587117639032
 30
0.0
 11
-217.9709125928243
 21
-903.0245253534408
 31
0.0
  0
LINE
  5
1FE
  8
LAYER_03
 10
-217.9709125928243
 20
-903.0245253534408
 30
0.0
 11
-212.2755743367135
 21
-904.7129475944578
 31
0.0
  0
LINE
  5
1FF
  8
LAYER_03
 10
-212.2755743367135
 20
-904.7129475944578
 30
0.0
 11
-206.740665033881
 21
-906.5245274464748
 31
0.0
  0
LINE
  5
200
  8
LAYER_03
 10
-206.740665033881
 20
-906.5245274464748
 30
0.0
 11
-201.3673560559262
 21
-908.460164144482
 31
0.0
  0
LINE
  5
201
  8
LAYER_03
 10
-201.3673560559262
 20
-908.460164144482
 30
0.0
 11
-196.1572578506303
 21
-910.5210939921888
 31
0.0
  0
LINE
  5
202
  8
LAYER_03
 10
-196.1572578506303
 20
-910.5210939921888
 30
0.0
 11
-191.1123954253401
 21
-912.7088715410217
 31
0.0
  0
LINE
  5
203
  8
LAYER_03
 10
-191.1123954253401
 20
-912.7088715410217
 30
0.0
 11
-188.6526633957778
 21
-913.8508930336441
 31
0.0
  0
LINE
  5
204
  8
LAYER_03
 10
-188.6526633957778
 20
-913.8508930336441
 30
0.0
 11
-186.2351652657649
 21
-915.0253365178428
 31
0.0
  0
LINE
  5
205
  8
LAYER_03
 10
-186.2351652657649
 20
-915.0253365178428
 30
0.0
 11
-183.8602503695106
 21
-916.2324701694414
 31
0.0
  0
LINE
  5
206
  8
LAYER_03
 10
-183.8602503695106
 20
-916.2324701694414
 30
0.0
 11
-181.5282849417619
 21
-917.4725751384167
 31
0.0
  0
LINE
  5
207
  8
LAYER_03
 10
-181.5282849417619
 20
-917.4725751384167
 30
0.0
 11
-179.2396505295962
 21
-918.7459443296412
 31
0.0
  0
LINE
  5
208
  8
LAYER_03
 10
-179.2396505295962
 20
-918.7459443296412
 30
0.0
 11
-176.9947422840787
 21
-920.0528810915108
 31
0.0
  0
LINE
  5
209
  8
LAYER_03
 10
-176.9947422840787
 20
-920.0528810915108
 30
0.0
 11
-174.7939669472978
 21
-921.393697670555
 31
0.0
  0
LINE
  5
20A
  8
LAYER_03
 10
-174.7939669472978
 20
-921.393697670555
 30
0.0
 11
-172.6377407192642
 21
-922.7687135739324
 31
0.0
  0
LINE
  5
20B
  8
LAYER_03
 10
-172.6377407192642
 20
-922.7687135739324
 30
0.0
 11
-170.5264871202135
 21
-924.1782539283695
 31
0.0
  0
LINE
  5
20C
  8
LAYER_03
 10
-170.5264871202135
 20
-924.1782539283695
 30
0.0
 11
-168.4606348529093
 21
-925.6226478391002
 31
0.0
  0
LINE
  5
20D
  8
LAYER_03
 10
-168.4606348529093
 20
-925.6226478391002
 30
0.0
 11
-166.4406156649459
 21
-927.1022267488046
 31
0.0
  0
LINE
  5
20E
  8
LAYER_03
 10
-166.4406156649459
 20
-927.1022267488046
 30
0.0
 11
-164.4668622110509
 21
-928.6173227965483
 31
0.0
  0
LINE
  5
20F
  8
LAYER_03
 10
-164.4668622110509
 20
-928.6173227965483
 30
0.0
 11
-162.5398058974969
 21
-930.1682671630142
 31
0.0
  0
LINE
  5
210
  8
LAYER_03
 10
-162.5398058974969
 20
-930.1682671630142
 30
0.0
 11
-160.6598742618554
 21
-931.7553880589178
 31
0.0
  0
LINE
  5
211
  8
LAYER_03
 10
-160.6598742618554
 20
-931.7553880589178
 30
0.0
 11
-158.8274871729513
 21
-933.3790078078817
 31
0.0
  0
LINE
  5
212
  8
LAYER_03
 10
-158.8274871729513
 20
-933.3790078078817
 30
0.0
 11
-157.0430525661622
 21
-935.0394395724961
 31
0.0
  0
LINE
  5
213
  8
LAYER_03
 10
-157.0430525661622
 20
-935.0394395724961
 30
0.0
 11
-155.3069621608246
 21
-936.7369840666697
 31
0.0
  0
LINE
  5
214
  8
LAYER_03
 10
-155.3069621608246
 20
-936.7369840666697
 30
0.0
 11
-153.619587177641
 21
-938.4719262679829
 31
0.0
  0
LINE
  5
215
  8
LAYER_03
 10
-153.619587177641
 20
-938.4719262679829
 30
0.0
 11
-151.9812740560862
 21
-940.2445321300379
 31
0.0
  0
LINE
  5
216
  8
LAYER_03
 10
-151.9812740560862
 20
-940.2445321300379
 30
0.0
 11
-150.3923401718142
 21
-942.0550452948119
 31
0.0
  0
LINE
  5
217
  8
LAYER_03
 10
-150.3923401718142
 20
-942.0550452948119
 30
0.0
 11
-148.8530695661822
 21
-943.9036838142824
 31
0.0
  0
LINE
  5
218
  8
LAYER_03
 10
-148.8530695661822
 20
-943.9036838142824
 30
0.0
 11
-147.3637089904133
 21
-945.7906371137058
 31
0.0
  0
LINE
  5
219
  8
LAYER_03
 10
-147.3637089904133
 20
-945.7906371137058
 30
0.0
 11
-145.9244647486847
 21
-947.7160635680452
 31
0.0
  0
LINE
  5
21A
  8
LAYER_03
 10
-145.9244647486847
 20
-947.7160635680452
 30
0.0
 11
-144.5354998558524
 21
-949.6800883200497
 31
0.0
  0
LINE
  5
21B
  8
LAYER_03
 10
-144.5354998558524
 20
-949.6800883200497
 30
0.0
 11
-143.1969312072948
 21
-951.6828011076079
 31
0.0
  0
LINE
  5
21C
  8
LAYER_03
 10
-143.1969312072948
 20
-951.6828011076079
 30
0.0
 11
-141.908826748756
 21
-953.724254091102
 31
0.0
  0
LINE
  5
21D
  8
LAYER_03
 10
-141.908826748756
 20
-953.724254091102
 30
0.0
 11
-140.6712026461886
 21
-955.804459680761
 31
0.0
  0
LINE
  5
21E
  8
LAYER_03
 10
-140.6712026461886
 20
-955.804459680761
 30
0.0
 11
-139.4840204555976
 21
-957.9233883640161
 31
0.0
  0
LINE
  5
21F
  8
LAYER_03
 10
-139.4840204555976
 20
-957.9233883640161
 30
0.0
 11
-138.3471843613769
 21
-960.080966585434
 31
0.0
  0
LINE
  5
220
  8
LAYER_03
 10
-138.3471843613769
 20
-960.080966585434
 30
0.0
 11
-137.2605401954843
 21
-962.2770759937606
 31
0.0
  0
LINE
  5
221
  8
LAYER_03
 10
-137.2605401954843
 20
-962.2770759937606
 30
0.0
 11
-136.223878977203
 21
-964.5115561593151
 31
0.0
  0
LINE
  5
222
  8
LAYER_03
 10
-136.223878977203
 20
-964.5115561593151
 30
0.0
 11
-135.2369422337418
 21
-966.784208658491
 31
0.0
  0
LINE
  5
223
  8
LAYER_03
 10
-135.2369422337418
 20
-966.784208658491
 30
0.0
 11
-134.299427389328
 21
-969.0948012108391
 31
0.0
  0
LINE
  5
224
  8
LAYER_03
 10
-134.299427389328
 20
-969.0948012108391
 30
0.0
 11
-133.4109931543008
 21
-971.4430718161505
 31
0.0
  0
LINE
  5
225
  8
LAYER_03
 10
-133.4109931543008
 20
-971.4430718161505
 30
0.0
 11
-132.5712649142047
 21
-973.8287328915392
 31
0.0
  0
LINE
  5
226
  8
LAYER_03
 10
-132.5712649142047
 20
-973.8287328915392
 30
0.0
 11
-131.7798401188829
 21
-976.2514754085247
 31
0.0
  0
LINE
  5
227
  8
LAYER_03
 10
-131.7798401188829
 20
-976.2514754085247
 30
0.0
 11
-131.036293647364
 21
-978.7109730115601
 31
0.0
  0
LINE
  5
228
  8
LAYER_03
 10
-131.036293647364
 20
-978.7109730115601
 30
0.0
 11
-130.3401825435827
 21
-981.2068856534524
 31
0.0
  0
LINE
  5
229
  8
LAYER_03
 10
-130.3401825435827
 20
-981.2068856534524
 30
0.0
 11
-129.6910491548734
 21
-983.7388620047952
 31
0.0
  0
LINE
  5
22A
  8
LAYER_03
 10
-129.6910491548734
 20
-983.7388620047952
 30
0.0
 11
-129.0884236412991
 21
-986.3065413802944
 31
0.0
  0
LINE
  5
22B
  8
LAYER_03
 10
-129.0884236412991
 20
-986.3065413802944
 30
0.0
 11
-128.5318264607736
 21
-988.9095556465393
 31
0.0
  0
LINE
  5
22C
  8
LAYER_03
 10
-128.5318264607736
 20
-988.9095556465393
 30
0.0
 11
-128.020770854183
 21
-991.5475311297736
 31
0.0
  0
LINE
  5
22D
  8
LAYER_03
 10
-128.020770854183
 20
-991.5475311297736
 30
0.0
 11
-127.5547653305072
 21
-994.2200905236655
 31
0.0
  0
LINE
  5
22E
  8
LAYER_03
 10
-127.5547653305072
 20
-994.2200905236655
 30
0.0
 11
-127.1333161519423
 21
-996.9268547970792
 31
0.0
  0
LINE
  5
22F
  8
LAYER_03
 10
-127.1333161519423
 20
-996.9268547970792
 30
0.0
 11
-126.4221154449775
 21
-1002.441484595445
 31
0.0
  0
LINE
  5
230
  8
LAYER_03
 10
-126.4221154449775
 20
-1002.441484595445
 30
0.0
 11
-125.8832651175561
 21
-1008.088423809072
 31
0.0
  0
LINE
  5
231
  8
LAYER_03
 10
-125.8832651175561
 20
-1008.088423809072
 30
0.0
 11
-125.5129712504276
 21
-1013.864759933565
 31
0.0
  0
LINE
  5
232
  8
LAYER_03
 10
-125.5129712504276
 20
-1013.864759933565
 30
0.0
 11
-125.3076159634705
 21
-1019.767715605715
 31
0.0
  0
LINE
  5
233
  8
LAYER_03
 10
-125.3076159634705
 20
-1019.767715605715
 30
0.0
 11
-125.263823335835
 21
-1025.794699208924
 31
0.0
  0
LINE
  5
234
  8
LAYER_03
 10
-125.263823335835
 20
-1025.794699208924
 30
0.0
 11
-125.3785172206465
 21
-1031.94334925606
 31
0.0
  0
LINE
  5
235
  8
LAYER_03
 10
-125.3785172206465
 20
-1031.94334925606
 30
0.0
 11
-125.6489584843549
 21
-1038.211562977408
 31
0.0
  0
LINE
  5
236
  8
LAYER_03
 10
-125.6489584843549
 20
-1038.211562977408
 30
0.0
 11
-126.0727741406504
 21
-1044.597518686055
 31
0.0
  0
LINE
  5
237
  8
LAYER_03
 10
-126.0727741406504
 20
-1044.597518686055
 30
0.0
 11
-126.9003574366374
 21
-1053.548716508228
 31
0.0
  0
LINE
  5
238
  8
LAYER_03
 10
-126.9003574366374
 20
-1053.548716508228
 30
0.0
 11
-128.0092193729295
 21
-1062.71584917914
 31
0.0
  0
ARC
  5
239
  8
LAYER_03
 10
-118.0986318742116
 20
-1064.050111308657
 30
0.0
 40
10.00000000000026
 50
172.3323747518392
 51
254.2709343982636
  0
LINE
  5
23B
  8
LAYER_01
 10
-112.0214852062803
 20
-851.5312011945718
 30
0.0
 11
-121.2138733617054
 21
-860.7235893499972
 31
0.0
  0
ARC
  5
23C
  8
LAYER_01
 10
-123.3351937052652
 20
-862.8449096935567
 30
0.0
 40
2.999999999999999
 50
135.0
 51
45.0
  0
LINE
  5
23D
  8
LAYER_01
 10
-125.4565140488247
 20
-860.7235893499972
 30
0.0
 11
-133.9417954230634
 21
-852.2383079757585
 31
0.0
  0
ARC
  5
23E
  8
LAYER_01
 10
-136.0631157666229
 20
-850.116987632199
 30
0.0
 40
2.999999999999889
 50
44.99999999999962
 51
315.0000000000003
  0
LINE
  5
23F
  8
LAYER_01
 10
-133.9417954230634
 20
-847.9956672886394
 30
0.0
 11
-124.7494072676382
 21
-838.8032791332146
 31
0.0
  0
LINE
  5
240
  8
LAYER_01
 10
-124.7494072676382
 20
-838.8032791332146
 30
0.0
 11
-133.9417954230631
 21
-829.6108909777893
 31
0.0
  0
ARC
  5
241
  8
LAYER_01
 10
-136.0631157666229
 20
-827.4895706342297
 30
0.0
 40
3.000000000000038
 50
44.99999999999962
 51
315.0000000000003
  0
LINE
  5
242
  8
LAYER_01
 10
-133.9417954230631
 20
-825.3682502906697
 30
0.0
 11
-125.4565140488247
 21
-816.8829689164315
 31
0.0
  0
ARC
  5
243
  8
LAYER_01
 10
-123.3351937052651
 20
-814.7616485728715
 30
0.0
 40
2.999999999999987
 50
315.0
 51
225.0
  0
LINE
  5
244
  8
LAYER_01
 10
-121.2138733617054
 20
-816.8829689164315
 30
0.0
 11
-112.0214852062804
 21
-826.0753570718564
 31
0.0
  0
LINE
  5
245
  8
LAYER_01
 10
-112.0214852062804
 20
-826.0753570718564
 30
0.0
 11
-102.8290970508552
 21
-816.8829689164315
 31
0.0
  0
ARC
  5
246
  8
LAYER_01
 10
-100.7077767072957
 20
-814.7616485728715
 30
0.0
 40
3.000000000000011
 50
315.0
 51
225.0
  0
LINE
  5
247
  8
LAYER_01
 10
-98.58645636373592
 20
-816.8829689164315
 30
0.0
 11
-90.1011749894974
 21
-825.3682502906702
 31
0.0
  0
ARC
  5
248
  8
LAYER_01
 10
-87.97985464593773
 20
-827.4895706342297
 30
0.0
 40
3.000000000000038
 50
224.9999999999998
 51
135.0000000000002
  0
LINE
  5
249
  8
LAYER_01
 10
-90.1011749894974
 20
-829.6108909777897
 30
0.0
 11
-99.29356314492247
 21
-838.8032791332146
 31
0.0
  0
LINE
  5
24A
  8
LAYER_01
 10
-99.29356314492247
 20
-838.8032791332146
 30
0.0
 11
-90.1011749894974
 21
-847.9956672886394
 31
0.0
  0
ARC
  5
24B
  8
LAYER_01
 10
-87.97985464593785
 20
-850.116987632199
 30
0.0
 40
2.999999999999889
 50
224.9999999999996
 51
135.0000000000004
  0
LINE
  5
24C
  8
LAYER_01
 10
-90.1011749894974
 20
-852.2383079757585
 30
0.0
 11
-98.58645636373592
 21
-860.7235893499972
 31
0.0
  0
ARC
  5
24D
  8
LAYER_01
 10
-100.7077767072955
 20
-862.8449096935567
 30
0.0
 40
2.999999999999978
 50
134.9999999999998
 51
45.0000000000002
  0
LINE
  5
24E
  8
LAYER_01
 10
-102.8290970508552
 20
-860.7235893499972
 30
0.0
 11
-112.0214852062803
 21
-851.5312011945718
 31
0.0
  0
LINE
  5
24F
  8
LAYER_01
 10
149.6478305068791
 20
-1003.501867761464
 30
0.0
 11
140.4554423514538
 21
-1012.694255916889
 31
0.0
  0
ARC
  5
250
  8
LAYER_01
 10
138.3341220078942
 20
-1014.815576260449
 30
0.0
 40
3.000000000000014
 50
135.0000000000019
 51
44.99999999999962
  0
LINE
  5
251
  8
LAYER_01
 10
136.2128016643345
 20
-1012.694255916889
 30
0.0
 11
127.7275202900959
 21
-1004.20897454265
 31
0.0
  0
ARC
  5
252
  8
LAYER_01
 10
125.6061999465363
 20
-1002.087654199091
 30
0.0
 40
2.999999999999973
 50
45.0000000000002
 51
314.9999999999968
  0
LINE
  5
253
  8
LAYER_01
 10
127.7275202900961
 20
-999.9663338555313
 30
0.0
 11
136.9199084455212
 21
-990.773945700106
 31
0.0
  0
LINE
  5
254
  8
LAYER_01
 10
136.9199084455212
 20
-990.773945700106
 30
0.0
 11
127.7275202900962
 21
-981.5815575446807
 31
0.0
  0
ARC
  5
255
  8
LAYER_01
 10
125.6061999465364
 20
-979.4602372011211
 30
0.0
 40
3.000000000000099
 50
44.99999999999866
 51
315.0000000000013
  0
LINE
  5
256
  8
LAYER_01
 10
127.7275202900962
 20
-977.3389168575616
 30
0.0
 11
136.2128016643346
 21
-968.8536354833229
 31
0.0
  0
ARC
  5
257
  8
LAYER_01
 10
138.3341220078943
 20
-966.7323151397634
 30
0.0
 40
2.999999999999958
 50
314.9999999999996
 51
224.9999999999988
  0
LINE
  5
258
  8
LAYER_01
 10
140.4554423514538
 20
-968.8536354833229
 30
0.0
 11
149.6478305068789
 21
-978.0460236387482
 31
0.0
  0
LINE
  5
259
  8
LAYER_01
 10
149.6478305068789
 20
-978.0460236387482
 30
0.0
 11
158.8402186623041
 21
-968.8536354833229
 31
0.0
  0
ARC
  5
25A
  8
LAYER_01
 10
160.9615390058638
 20
-966.7323151397634
 30
0.0
 40
2.999999999999958
 50
314.9999999999996
 51
224.9999999999988
  0
LINE
  5
25B
  8
LAYER_01
 10
163.0828593494233
 20
-968.8536354833229
 30
0.0
 11
171.5681407236618
 21
-977.338916857562
 31
0.0
  0
ARC
  5
25C
  8
LAYER_01
 10
173.6894610672215
 20
-979.4602372011216
 30
0.0
 40
2.999999999999914
 50
224.9999999999988
 51
135.0000000000008
  0
LINE
  5
25D
  8
LAYER_01
 10
171.5681407236618
 20
-981.5815575446811
 30
0.0
 11
162.3757525682369
 21
-990.7739457001064
 31
0.0
  0
LINE
  5
25E
  8
LAYER_01
 10
162.3757525682369
 20
-990.7739457001064
 30
0.0
 11
171.5681407236618
 21
-999.9663338555313
 31
0.0
  0
ARC
  5
25F
  8
LAYER_01
 10
173.6894610672215
 20
-1002.087654199091
 30
0.0
 40
3.000000000000049
 50
224.9999999999996
 51
135.0000000000004
  0
LINE
  5
260
  8
LAYER_01
 10
171.5681407236618
 20
-1004.20897454265
 30
0.0
 11
163.0828593494235
 21
-1012.694255916889
 31
0.0
  0
ARC
  5
261
  8
LAYER_01
 10
160.9615390058639
 20
-1014.815576260449
 30
0.0
 40
3.000000000000014
 50
135.0000000000019
 51
44.99999999999962
  0
LINE
  5
262
  8
LAYER_01
 10
158.8402186623042
 20
-1012.694255916889
 30
0.0
 11
149.6478305068791
 21
-1003.501867761464
 31
0.0
  0
LINE
  5
263
  8
LAYER_01
 10
89.0425819695497
 20
-240.0114271584855
 30
0.0
 11
80.55730059531106
 21
-231.5261457842471
 31
0.0
  0
ARC
  5
264
  8
LAYER_01
 10
78.43598025175152
 20
-229.4048254406875
 30
0.0
 40
2.999999999999914
 50
44.99999999999866
 51
315.000000000001
  0
LINE
  5
265
  8
LAYER_01
 10
80.55730059531106
 20
-227.283505097128
 30
0.0
 11
89.74968875073637
 21
-218.0911169417022
 31
0.0
  0
LINE
  5
266
  8
LAYER_01
 10
89.74968875073637
 20
-218.0911169417022
 30
0.0
 11
80.55730059531129
 21
-208.8987287862774
 31
0.0
  0
ARC
  5
267
  8
LAYER_01
 10
78.43598025175174
 20
-206.7774084427178
 30
0.0
 40
2.999999999999914
 50
44.99999999999866
 51
315.000000000001
  0
LINE
  5
268
  8
LAYER_01
 10
80.55730059531129
 20
-204.6560880991583
 30
0.0
 11
89.0425819695497
 21
-196.1708067249192
 31
0.0
  0
ARC
  5
269
  8
LAYER_01
 10
91.16390231310936
 20
-194.0494863813596
 30
0.0
 40
2.999999999999973
 50
315.0000000000011
 51
224.9999999999988
  0
LINE
  5
26A
  8
LAYER_01
 10
93.28522265666902
 20
-196.1708067249192
 30
0.0
 11
102.4776108120941
 21
-205.3631948803445
 31
0.0
  0
LINE
  5
26B
  8
LAYER_01
 10
102.4776108120941
 20
-205.3631948803445
 30
0.0
 11
111.6699989675192
 21
-196.1708067249192
 31
0.0
  0
ARC
  5
26C
  8
LAYER_01
 10
113.7913193110788
 20
-194.0494863813596
 30
0.0
 40
2.999999999999984
 50
315.0
 51
225.0
  0
LINE
  5
26D
  8
LAYER_01
 10
115.9126396546385
 20
-196.1708067249192
 30
0.0
 11
124.397921028877
 21
-204.6560880991583
 31
0.0
  0
ARC
  5
26E
  8
LAYER_01
 10
126.5192413724367
 20
-206.7774084427178
 30
0.0
 40
2.999999999999914
 50
224.9999999999986
 51
135.000000000001
  0
LINE
  5
26F
  8
LAYER_01
 10
124.397921028877
 20
-208.8987287862774
 30
0.0
 11
115.2055328734521
 21
-218.0911169417027
 31
0.0
  0
LINE
  5
270
  8
LAYER_01
 10
115.2055328734521
 20
-218.0911169417027
 30
0.0
 11
124.397921028877
 21
-227.283505097128
 31
0.0
  0
ARC
  5
271
  8
LAYER_01
 10
126.5192413724367
 20
-229.4048254406875
 30
0.0
 40
2.999999999999914
 50
224.9999999999986
 51
135.000000000001
  0
LINE
  5
272
  8
LAYER_01
 10
124.397921028877
 20
-231.5261457842471
 30
0.0
 11
115.9126396546386
 21
-240.0114271584855
 31
0.0
  0
ARC
  5
273
  8
LAYER_01
 10
113.791319311079
 20
-242.132747502045
 30
0.0
 40
2.999999999999973
 50
135.0000000000011
 51
44.99999999999885
  0
LINE
  5
274
  8
LAYER_01
 10
111.6699989675193
 20
-240.0114271584855
 30
0.0
 11
102.4776108120942
 21
-230.8190390030604
 31
0.0
  0
LINE
  5
275
  8
LAYER_01
 10
102.4776108120942
 20
-230.8190390030604
 30
0.0
 11
93.28522265666902
 21
-240.0114271584855
 31
0.0
  0
ARC
  5
276
  8
LAYER_01
 10
91.16390231310936
 20
-242.132747502045
 30
0.0
 40
2.999999999999988
 50
135.0000000000015
 51
44.99999999999847
  0
CIRCLE
  5
278
  8
LAYER_04
 10
273.1447078503504
 20
-52.90059330595909
 30
0.0
 40
5.0
  0
CIRCLE
  5
279
  8
LAYER_04
 10
273.1447078503504
 20
-1262.90059330596
 30
0.0
 40
5.0
  0
CIRCLE
  5
27A
  8
LAYER_04
 10
-695.2326181206804
 20
-52.90059330595909
 30
0.0
 40
5.0
  0
CIRCLE
  5
27B
  8
LAYER_04
 10
-695.2326181206804
 20
-1262.900593305959
 30
0.0
 40
5.0
  0
LINE
  5
27D
  8
DEFAULT
 10
273.1447078503504
 20
-52.90059330595909
 30
0.0
 11
273.1447078503504
 21
-1262.90059330596
 31
0.0
  0
LINE
  5
27E
  8
DEFAULT
 10
273.1447078503504
 20
-1262.90059330596
 30
0.0
 11
-695.2326181206804
 21
-1262.900593305959
 31
0.0
  0
LINE
  5
27F
  8
DEFAULT
 10
-695.2326181206804
 20
-1262.900593305959
 30
0.0
 11
-695.2326181206804
 21
-52.90059330595909
 31
0.0
  0
LINE
  5
280
  8
DEFAULT
 10
-695.2326181206804
 20
-52.90059330595909
 30
0.0
 11
273.1447078503504
 21
-52.90059330595909
 31
0.0
  0
ENDSEC
  0
EOF
