  0
SECTION
  2
HEADER
  9
$ACADVER
  1
AC1009
  9
$DWGCODEPAGE
  3
ansi_1252
  9
$INSBASE
 10
0.0
 20
0.0
 30
0.0
  9
$EXTMIN
 10
2356.699450337031
 20
-668.9297629542489
 30
0.0
  9
$EXTMAX
 10
3606.699450337031
 20
-18.92976295424887
 30
0.0
  9
$LIMMIN
 10
0.0
 20
0.0
  9
$LIMMAX
 10
12.0
 20
9.0
  9
$ORTHOMODE
 70
     0
  9
$REGENMODE
 70
     1
  9
$FILLMODE
 70
     1
  9
$QTEXTMODE
 70
     0
  9
$MIRRTEXT
 70
     1
  9
$DRAGMODE
 70
     2
  9
$LTSCALE
 40
1.0
  9
$OSMODE
 70
    37
  9
$ATTMODE
 70
     1
  9
$TEXTSIZE
 40
0.2
  9
$TRACEWID
 40
0.05
  9
$TEXTSTYLE
  7
STANDARD
  9
$CLAYER
  8
DEFAULT
  9
$CELTYPE
  6
BYLAYER
  9
$CECOLOR
 62
   256
  9
$DIMSCALE
 40
1.0
  9
$DIMASZ
 40
0.18
  9
$DIMEXO
 40
0.0625
  9
$DIMDLI
 40
0.38
  9
$DIMRND
 40
0.0
  9
$DIMDLE
 40
0.0
  9
$DIMEXE
 40
0.18
  9
$DIMTP
 40
0.0
  9
$DIMTM
 40
0.0
  9
$DIMTXT
 40
0.18
  9
$DIMCEN
 40
0.09
  9
$DIMTSZ
 40
0.0
  9
$DIMTOL
 70
     0
  9
$DIMLIM
 70
     0
  9
$DIMTIH
 70
     1
  9
$DIMTOH
 70
     1
  9
$DIMSE1
 70
     0
  9
$DIMSE2
 70
     0
  9
$DIMTAD
 70
     0
  9
$DIMZIN
 70
     0
  9
$DIMBLK
  1

  9
$DIMASO
 70
     1
  9
$DIMSHO
 70
     1
  9
$DIMPOST
  1

  9
$DIMAPOST
  1

  9
$DIMALT
 70
     0
  9
$DIMALTD
 70
     2
  9
$DIMALTF
 40
25.4
  9
$DIMLFAC
 40
1.0
  9
$DIMTOFL
 70
     0
  9
$DIMTVP
 40
0.0
  9
$DIMTIX
 70
     0
  9
$DIMSOXD
 70
     0
  9
$DIMSAH
 70
     0
  9
$DIMBLK1
  1

  9
$DIMBLK2
  1

  9
$DIMSTYLE
  2
STANDARD
  9
$DIMCLRD
 70
     0
  9
$DIMCLRE
 70
     0
  9
$DIMCLRT
 70
     0
  9
$DIMTFAC
 40
1.0
  9
$DIMGAP
 40
0.09
  9
$LUNITS
 70
     2
  9
$LUPREC
 70
     2
  9
$SKETCHINC
 40
0.1
  9
$FILLETRAD
 40
0.5
  9
$AUNITS
 70
     0
  9
$AUPREC
 70
     0
  9
$MENU
  1
.
  9
$ELEVATION
 40
0.0
  9
$PELEVATION
 40
0.0
  9
$THICKNESS
 40
0.0
  9
$LIMCHECK
 70
     0
  9
$CHAMFERA
 40
0.0
  9
$CHAMFERB
 40
0.0
  9
$SKPOLY
 70
     0
  9
$TDCREATE
 40
2457862.528288657
  9
$TDUPDATE
 40
2457862.528301713
  9
$TDINDWG
 40
0.0000000116
  9
$TDUSRTIMER
 40
0.0000000116
  9
$USRTIMER
 70
     1
  9
$ANGBASE
 50
0.0
  9
$ANGDIR
 70
     0
  9
$PDMODE
 70
     0
  9
$PDSIZE
 40
0.0
  9
$PLINEWID
 40
0.0
  9
$COORDS
 70
     1
  9
$SPLFRAME
 70
     0
  9
$SPLINETYPE
 70
     6
  9
$SPLINESEGS
 70
     8
  9
$ATTDIA
 70
     0
  9
$ATTREQ
 70
     1
  9
$HANDLING
 70
     1
  9
$HANDSEED
  5
10E
  9
$SURFTAB1
 70
     6
  9
$SURFTAB2
 70
     6
  9
$SURFTYPE
 70
     6
  9
$SURFU
 70
     6
  9
$SURFV
 70
     6
  9
$UCSNAME
  2

  9
$UCSORG
 10
0.0
 20
0.0
 30
0.0
  9
$UCSXDIR
 10
1.0
 20
0.0
 30
0.0
  9
$UCSYDIR
 10
0.0
 20
1.0
 30
0.0
  9
$PUCSNAME
  2

  9
$PUCSORG
 10
0.0
 20
0.0
 30
0.0
  9
$PUCSXDIR
 10
1.0
 20
0.0
 30
0.0
  9
$PUCSYDIR
 10
0.0
 20
1.0
 30
0.0
  9
$USERI1
 70
     0
  9
$USERI2
 70
     0
  9
$USERI3
 70
     0
  9
$USERI4
 70
     0
  9
$USERI5
 70
     0
  9
$USERR1
 40
0.0
  9
$USERR2
 40
0.0
  9
$USERR3
 40
0.0
  9
$USERR4
 40
0.0
  9
$USERR5
 40
0.0
  9
$WORLDVIEW
 70
     1
  9
$SHADEDGE
 70
     3
  9
$SHADEDIF
 70
    70
  9
$TILEMODE
 70
     1
  9
$MAXACTVP
 70
    64
  9
$PLIMCHECK
 70
     0
  9
$PEXTMIN
 10
1.000000000000000E+20
 20
1.000000000000000E+20
 30
1.000000000000000E+20
  9
$PEXTMAX
 10
-1.000000000000000E+20
 20
-1.000000000000000E+20
 30
-1.000000000000000E+20
  9
$PLIMMIN
 10
0.0
 20
0.0
  9
$PLIMMAX
 10
12.0
 20
9.0
  9
$UNITMODE
 70
     0
  9
$VISRETAIN
 70
     1
  9
$PLINEGEN
 70
     0
  9
$PSLTSCALE
 70
     1
  0
ENDSEC
  0
SECTION
  2
TABLES
  0
TABLE
  2
VPORT
 70
     1
  0
VPORT
  2
*ACTIVE
 70
     0
 10
0.0
 20
0.0
 11
1.0
 21
1.0
 12
2981.699450337031
 22
-343.9297629542489
 13
0.0
 23
0.0
 14
0.5
 24
0.5
 15
0.5
 25
0.5
 16
0.0
 26
0.0
 36
1.0
 17
0.0
 27
0.0
 37
0.0
 40
663.0
 41
1.923076923076923
 42
50.0
 43
0.0
 44
0.0
 50
0.0
 51
0.0
 71
     0
 72
   100
 73
     1
 74
     3
 75
     0
 76
     0
 77
     0
 78
     0
  0
ENDTAB
  0
TABLE
  2
LTYPE
 70
     1
  0
LTYPE
  2
CONTINUOUS
 70
     0
  3
Solid line
 72
    65
 73
     0
 40
0.0
  0
ENDTAB
  0
TABLE
  2
LAYER
 70
     4
  0
LAYER
  2
0
 70
     0
 62
     7
  6
CONTINUOUS
  0
LAYER
  2
DEFAULT
 70
     0
 62
     7
  6
CONTINUOUS
  0
LAYER
  2
LAYER_01
 70
     0
 62
    12
  6
CONTINUOUS
  0
LAYER
  2
LAYER_02
 70
     0
 62
   192
  6
CONTINUOUS
  0
ENDTAB
  0
TABLE
  2
STYLE
 70
     1
  0
STYLE
  2
STANDARD
 70
     0
 40
0.0
 41
1.0
 50
0.0
 71
     0
 42
0.2
  3
txt
  4

  0
ENDTAB
  0
TABLE
  2
VIEW
 70
     0
  0
ENDTAB
  0
TABLE
  2
UCS
 70
     0
  0
ENDTAB
  0
TABLE
  2
APPID
 70
     1
  0
APPID
  2
ACAD
 70
     0
  0
ENDTAB
  0
TABLE
  2
DIMSTYLE
 70
     1
  0
DIMSTYLE
  2
STANDARD
 70
     0
  3

  4

  5

  6

  7

 40
1.0
 41
0.18
 42
0.0625
 43
0.38
 44
0.18
 45
0.0
 46
0.0
 47
0.0
 48
0.0
140
0.18
141
0.09
142
0.0
143
25.4
144
1.0
145
0.0
146
1.0
147
0.09
 71
     0
 72
     0
 73
     1
 74
     1
 75
     0
 76
     0
 77
     0
 78
     0
170
     0
171
     2
172
     0
173
     0
174
     0
175
     0
176
     0
177
     0
178
     0
  0
ENDTAB
  0
ENDSEC
  0
SECTION
  2
BLOCKS
  0
BLOCK
  8
0
  2
$MODEL_SPACE
 70
     0
 10
0.0
 20
0.0
 30
0.0
  3
$MODEL_SPACE
  1

  0
ENDBLK
  5
21
  8
0
  0
BLOCK
 67
     1
  8
0
  2
$PAPER_SPACE
 70
     0
 10
0.0
 20
0.0
 30
0.0
  3
$PAPER_SPACE
  1

  0
ENDBLK
  5
1D
 67
     1
  8
0
  0
ENDSEC
  0
SECTION
  2
ENTITIES
  0
ARC
  5
6F
  8
DEFAULT
 62
     7
 10
3066.84755721293
 20
-227.3255834010833
 30
0.0
 40
129.9999999999997
 50
92.28205278474745
 51
262.0011204805359
  0
LINE
  5
70
  8
DEFAULT
 62
     7
 10
3061.671112573695
 20
-97.42868420446302
 30
0.0
 11
3514.625581093203
 21
-79.37826310212222
 31
0.0
  0
LINE
  5
71
  8
DEFAULT
 62
     7
 10
3514.625581093203
 20
-79.37826310212222
 30
0.0
 11
3515.909746667344
 21
-42.40055469856907
 31
0.0
  0
ARC
  5
72
  8
DEFAULT
 62
     7
 10
3528.901914484809
 20
-42.85174800840286
 30
0.0
 40
13.0000000000004
 50
88.01102574797062
 51
178.0110257479704
  0
LINE
  5
73
  8
DEFAULT
 62
     7
 10
3529.353107794641
 20
-29.85958019093778
 30
0.0
 11
3578.836759343812
 21
-31.57805341563653
 31
0.0
  0
LINE
  5
74
  8
DEFAULT
 62
     7
 10
3578.836759343812
 20
-31.57805341563653
 30
0.0
 11
3577.166754075409
 21
-79.66606409816995
 31
0.0
  0
ARC
  5
75
  8
DEFAULT
 62
     7
 10
3577.062632542371
 20
-82.6642566714313
 30
0.0
 40
3.0
 50
88.01102574797322
 51
358.0110257479712
  0
LINE
  5
76
  8
DEFAULT
 62
     7
 10
3580.060825115632
 20
-82.76837820446963
 30
0.0
 11
3595.051787981937
 21
-83.2889858696617
 31
0.0
  0
LINE
  5
77
  8
DEFAULT
 62
     7
 10
3595.051787981937
 20
-83.2889858696617
 30
0.0
 11
3592.448749655977
 21
-158.2438002011877
 31
0.0
  0
LINE
  5
78
  8
DEFAULT
 62
     7
 10
3592.448749655977
 20
-158.2438002011877
 30
0.0
 11
3577.457786789671
 21
-157.7231925359956
 31
0.0
  0
ARC
  5
79
  8
DEFAULT
 62
     7
 10
3574.459594216411
 20
-157.6190710029578
 30
0.0
 40
3.0
 50
358.0110257479715
 51
268.0110257479732
  0
LINE
  5
7A
  8
DEFAULT
 62
     7
 10
3574.355472683372
 20
-160.6172635762186
 30
0.0
 11
3571.092997981501
 21
-254.5606308717315
 31
0.0
  0
ARC
  5
7B
  8
DEFAULT
 62
     7
 10
3570.988876448463
 20
-257.5588234449924
 30
0.0
 40
3.0
 50
88.01102574797324
 51
358.011025747971
  0
LINE
  5
7C
  8
DEFAULT
 62
     7
 10
3573.987069021724
 20
-257.6629449780312
 30
0.0
 11
3588.978031888029
 21
-258.1835526432233
 31
0.0
  0
LINE
  5
7D
  8
DEFAULT
 62
     7
 10
3588.978031888029
 20
-258.1835526432233
 30
0.0
 11
3586.374993562069
 21
-333.1383669747493
 31
0.0
  0
LINE
  5
7E
  8
DEFAULT
 62
     7
 10
3586.374993562069
 20
-333.1383669747493
 30
0.0
 11
3571.384030695764
 21
-332.6177593095572
 31
0.0
  0
ARC
  5
7F
  8
DEFAULT
 62
     7
 10
3568.385838122503
 20
-332.5136377765189
 30
0.0
 40
3.0
 50
358.011025747971
 51
268.0110257479732
  0
LINE
  5
80
  8
DEFAULT
 62
     7
 10
3568.281716589464
 20
-335.5118303497802
 30
0.0
 11
3565.88692132958
 21
-404.4702595347844
 31
0.0
  0
ARC
  5
81
  8
DEFAULT
 62
     7
 10
3565.782799796542
 20
-407.4684521080453
 30
0.0
 40
3.0
 50
88.01102574797324
 51
358.011025747971
  0
LINE
  5
82
  8
DEFAULT
 62
     7
 10
3568.780992369803
 20
-407.5725736410836
 30
0.0
 11
3583.771955236109
 21
-408.0931813062757
 31
0.0
  0
LINE
  5
83
  8
DEFAULT
 62
     7
 10
3583.771955236109
 20
-408.0931813062757
 30
0.0
 11
3581.168916910148
 21
-483.0479956378022
 31
0.0
  0
LINE
  5
84
  8
DEFAULT
 62
     7
 10
3581.168916910148
 20
-483.0479956378022
 30
0.0
 11
3566.177954043842
 21
-482.5273879726101
 31
0.0
  0
ARC
  5
85
  8
DEFAULT
 62
     7
 10
3563.179761470581
 20
-482.4232664395713
 30
0.0
 40
3.0
 50
358.011025747971
 51
268.0110257479732
  0
LINE
  5
86
  8
DEFAULT
 62
     7
 10
3563.075639937543
 20
-485.4214590128327
 30
0.0
 11
3560.789026950486
 21
-551.2647661142182
 31
0.0
  0
LINE
  5
87
  8
DEFAULT
 62
     7
 10
3560.789026950486
 20
-551.2647661142182
 30
0.0
 11
3504.751575913868
 21
-549.3186918821848
 31
0.0
  0
ARC
  5
88
  8
DEFAULT
 62
     7
 10
3505.202769223702
 20
-536.3265240647206
 30
0.0
 40
12.99999999999983
 50
178.0110257479705
 51
268.0110257479705
  0
LINE
  5
89
  8
DEFAULT
 62
     7
 10
3492.210601406237
 20
-535.8753307548868
 30
0.0
 11
3496.271341194735
 21
-418.945820397706
 31
0.0
  0
LINE
  5
8A
  8
DEFAULT
 62
     7
 10
3496.271341194735
 20
-418.945820397706
 30
0.0
 11
3048.757571639884
 21
-356.0607861312101
 31
0.0
  0
ARC
  5
8C
  8
LAYER_01
 62
     7
 10
3066.847557212934
 20
-227.3255834010833
 30
0.0
 40
70.00000000000009
 50
191.6196545173778
 51
262.001120480534
  0
LINE
  5
8D
  8
LAYER_01
 62
     7
 10
3057.106795750523
 20
-296.6445387173053
 30
0.0
 11
3498.3652805447
 21
-358.6505747869123
 31
0.0
  0
LINE
  5
8E
  8
LAYER_01
 62
     7
 10
3498.3652805447
 20
-358.6505747869123
 30
0.0
 11
3501.558469025096
 21
-266.7023129090089
 31
0.0
  0
LINE
  5
8F
  8
LAYER_01
 62
     7
 10
3501.558469025096
 20
-266.7023129090089
 30
0.0
 11
3501.017655168821
 21
-266.6751497819591
 31
0.0
  0
LINE
  5
90
  8
LAYER_01
 62
     7
 10
3501.017655168821
 20
-266.6751497819591
 30
0.0
 11
2998.282122163527
 21
-241.4245591257768
 31
0.0
  0
ARC
  5
91
  8
LAYER_01
 62
     7
 10
3066.847557212934
 20
-227.3255834010833
 30
0.0
 40
70.00000000000017
 50
92.28205278474988
 51
162.6646292379224
  0
LINE
  5
92
  8
LAYER_01
 62
     7
 10
3064.060240868728
 20
-157.381099218288
 30
0.0
 11
3505.966554097726
 21
-139.7709516296391
 31
0.0
  0
LINE
  5
93
  8
LAYER_01
 62
     7
 10
3505.966554097726
 20
-139.7709516296391
 30
0.0
 11
3502.77336561733
 21
-231.7192135075438
 31
0.0
  0
LINE
  5
94
  8
LAYER_01
 62
     7
 10
3502.77336561733
 20
-231.7192135075438
 30
0.0
 11
3000.027164602556
 21
-206.4680875927424
 31
0.0
  0
ARC
  5
95
  8
LAYER_01
 62
     7
 10
2892.357442472421
 20
-435.8038558503517
 30
0.0
 40
70.00000000000009
 50
13.60862876940641
 51
83.99009473256255
  0
LINE
  5
96
  8
LAYER_01
 62
     7
 10
2899.686470065208
 20
-366.1885891731054
 30
0.0
 11
2456.541778221364
 21
-319.5347468603477
 31
0.0
  0
LINE
  5
97
  8
LAYER_01
 62
     7
 10
2456.541778221364
 20
-319.5347468603477
 30
0.0
 11
2456.541778221364
 21
-411.5384387158315
 31
0.0
  0
LINE
  5
98
  8
LAYER_01
 62
     7
 10
2456.541778221364
 20
-411.5384387158315
 30
0.0
 11
2457.083209005975
 21
-411.5468153551592
 31
0.0
  0
LINE
  5
99
  8
LAYER_01
 62
     7
 10
2457.083209005975
 20
-411.5468153551592
 30
0.0
 11
2960.392232866027
 21
-419.3336616773004
 31
0.0
  0
ARC
  5
9A
  8
LAYER_01
 62
     7
 10
2892.35744247242
 20
-435.8038558503513
 30
0.0
 40
70.00000000000017
 50
274.2710270367784
 51
344.6536034899511
  0
LINE
  5
9B
  8
LAYER_01
 62
     7
 10
2897.570655166828
 20
-505.6094603058887
 30
0.0
 11
2456.541778221364
 21
-538.5463191415806
 31
0.0
  0
LINE
  5
9C
  8
LAYER_01
 62
     7
 10
2456.541778221364
 20
-538.5463191415806
 30
0.0
 11
2456.541778221364
 21
-446.5426272860959
 31
0.0
  0
LINE
  5
9D
  8
LAYER_01
 62
     7
 10
2456.541778221364
 20
-446.5426272860959
 30
0.0
 11
2959.861482240997
 21
-454.3296382878752
 31
0.0
  0
ARC
  5
9E
  8
DEFAULT
 62
     7
 10
2892.357442472417
 20
-435.8038558503513
 30
0.0
 40
130.0000000000003
 50
274.2710270367794
 51
83.9900947325612
  0
LINE
  5
9F
  8
DEFAULT
 62
     7
 10
2902.039123190605
 20
-565.4428355534919
 30
0.0
 11
2449.984027849461
 21
-599.203152937534
 31
0.0
  0
LINE
  5
A0
  8
DEFAULT
 62
     7
 10
2449.984027849461
 20
-599.203152937534
 30
0.0
 11
2449.984027849461
 21
-636.2031529375336
 31
0.0
  0
ARC
  5
A1
  8
DEFAULT
 62
     7
 10
2436.984027849461
 20
-636.2031529375336
 30
0.0
 40
13.0000000000004
 50
270.0
 51
359.999999999999
  0
LINE
  5
A2
  8
DEFAULT
 62
     7
 10
2436.984027849461
 20
-649.203152937534
 30
0.0
 11
2387.470545636393
 21
-649.203152937534
 31
0.0
  0
LINE
  5
A3
  8
DEFAULT
 62
     7
 10
2387.470545636393
 20
-649.203152937534
 30
0.0
 11
2387.470545636393
 21
-601.0861529375338
 31
0.0
  0
ARC
  5
A4
  8
DEFAULT
 62
     7
 10
2387.470545636393
 20
-598.0861529375338
 30
0.0
 40
3.0
 50
270.0
 51
180.0
  0
LINE
  5
A5
  8
DEFAULT
 62
     7
 10
2384.470545636393
 20
-598.0861529375338
 30
0.0
 11
2369.470545636393
 21
-598.0861529375338
 31
0.0
  0
LINE
  5
A6
  8
DEFAULT
 62
     7
 10
2369.470545636393
 20
-598.0861529375338
 30
0.0
 11
2369.470545636393
 21
-523.0861529375343
 31
0.0
  0
LINE
  5
A7
  8
DEFAULT
 62
     7
 10
2369.470545636393
 20
-523.0861529375343
 30
0.0
 11
2384.470545636393
 21
-523.0861529375343
 31
0.0
  0
ARC
  5
A8
  8
DEFAULT
 62
     7
 10
2387.470545636393
 20
-523.0861529375343
 30
0.0
 40
3.0
 50
180.0
 51
90.0
  0
LINE
  5
A9
  8
DEFAULT
 62
     7
 10
2387.470545636393
 20
-520.0861529375343
 30
0.0
 11
2387.470545636393
 21
-426.0861529375343
 31
0.0
  0
ARC
  5
AA
  8
DEFAULT
 62
     7
 10
2387.470545636393
 20
-423.0861529375343
 30
0.0
 40
3.0
 50
270.0
 51
180.0
  0
LINE
  5
AB
  8
DEFAULT
 62
     7
 10
2384.470545636393
 20
-423.0861529375343
 30
0.0
 11
2369.470545636393
 21
-423.0861529375343
 31
0.0
  0
LINE
  5
AC
  8
DEFAULT
 62
     7
 10
2369.470545636393
 20
-423.0861529375343
 30
0.0
 11
2369.470545636393
 21
-348.0861529375343
 31
0.0
  0
LINE
  5
AD
  8
DEFAULT
 62
     7
 10
2369.470545636393
 20
-348.0861529375343
 30
0.0
 11
2384.470545636393
 21
-348.0861529375343
 31
0.0
  0
ARC
  5
AE
  8
DEFAULT
 62
     7
 10
2387.470545636393
 20
-348.0861529375343
 30
0.0
 40
3.0
 50
180.0
 51
90.0
  0
LINE
  5
AF
  8
DEFAULT
 62
     7
 10
2387.470545636393
 20
-345.0861529375343
 30
0.0
 11
2387.470545636393
 21
-276.0861529375343
 31
0.0
  0
ARC
  5
B0
  8
DEFAULT
 62
     7
 10
2387.470545636393
 20
-273.0861529375343
 30
0.0
 40
3.0
 50
270.0
 51
180.0
  0
LINE
  5
B1
  8
DEFAULT
 62
     7
 10
2384.470545636393
 20
-273.0861529375343
 30
0.0
 11
2369.470545636393
 21
-273.0861529375343
 31
0.0
  0
LINE
  5
B2
  8
DEFAULT
 62
     7
 10
2369.470545636393
 20
-273.0861529375343
 30
0.0
 11
2369.470545636393
 21
-198.0861529375343
 31
0.0
  0
LINE
  5
B3
  8
DEFAULT
 62
     7
 10
2369.470545636393
 20
-198.0861529375343
 30
0.0
 11
2384.470545636393
 21
-198.0861529375343
 31
0.0
  0
ARC
  5
B4
  8
DEFAULT
 62
     7
 10
2387.470545636393
 20
-198.0861529375343
 30
0.0
 40
3.0
 50
180.0
 51
90.0
  0
LINE
  5
B5
  8
DEFAULT
 62
     7
 10
2387.470545636393
 20
-195.0861529375343
 30
0.0
 11
2387.470545636393
 21
-129.203152937534
 31
0.0
  0
LINE
  5
B6
  8
DEFAULT
 62
     7
 10
2387.470545636393
 20
-129.203152937534
 30
0.0
 11
2443.541778221364
 21
-129.203152937534
 31
0.0
  0
ARC
  5
B7
  8
DEFAULT
 62
     7
 10
2443.541778221364
 20
-142.2031529375336
 30
0.0
 40
12.99999999999983
 50
359.999999999999
 51
90.0
  0
LINE
  5
B8
  8
DEFAULT
 62
     7
 10
2456.541778221364
 20
-142.203152937534
 30
0.0
 11
2456.541778221364
 21
-259.203152937534
 31
0.0
  0
LINE
  5
B9
  8
DEFAULT
 62
     7
 10
2456.541778221364
 20
-259.203152937534
 30
0.0
 11
2905.968493716169
 21
-306.5183605926077
 31
0.0
  0
LINE
  5
BA
  8
DEFAULT
 62
     7
 10
3448.718262754551
 20
-512.6161125635927
 30
0.0
 11
3448.718262754551
 21
-480.6161125635927
 31
0.0
  0
ARC
  5
BB
  8
DEFAULT
 62
     7
 10
3448.718262754551
 20
-477.6161125635927
 30
0.0
 40
3.0
 50
270.0
 51
180.0
  0
LINE
  5
BC
  8
DEFAULT
 62
     7
 10
3445.718262754551
 20
-477.6161125635927
 30
0.0
 11
3416.718262754551
 21
-477.6161125635927
 31
0.0
  0
ARC
  5
BD
  8
DEFAULT
 62
     7
 10
3413.718262754551
 20
-477.6161125635927
 30
0.0
 40
3.0
 50
0.0
 51
270.0
  0
LINE
  5
BE
  8
DEFAULT
 62
     7
 10
3413.718262754551
 20
-480.6161125635927
 30
0.0
 11
3413.718262754551
 21
-512.6161125635927
 31
0.0
  0
LINE
  5
BF
  8
DEFAULT
 62
     7
 10
3413.718262754551
 20
-512.6161125635927
 30
0.0
 11
3393.718262754551
 21
-512.6161125635927
 31
0.0
  0
LINE
  5
C0
  8
DEFAULT
 62
     7
 10
3393.718262754551
 20
-512.6161125635927
 30
0.0
 11
3393.718262754551
 21
-457.6161125635927
 31
0.0
  0
LINE
  5
C1
  8
DEFAULT
 62
     7
 10
3393.718262754551
 20
-457.6161125635927
 30
0.0
 11
3408.718262754551
 21
-442.6161125635927
 31
0.0
  0
LINE
  5
C2
  8
DEFAULT
 62
     7
 10
3408.718262754551
 20
-442.6161125635927
 30
0.0
 11
3453.718262754551
 21
-442.6161125635927
 31
0.0
  0
LINE
  5
C3
  8
DEFAULT
 62
     7
 10
3453.718262754551
 20
-442.6161125635927
 30
0.0
 11
3468.718262754551
 21
-457.6161125635927
 31
0.0
  0
LINE
  5
C4
  8
DEFAULT
 62
     7
 10
3468.718262754551
 20
-457.6161125635927
 30
0.0
 11
3468.718262754551
 21
-512.6161125635927
 31
0.0
  0
LINE
  5
C5
  8
DEFAULT
 62
     7
 10
3468.718262754551
 20
-512.6161125635927
 30
0.0
 11
3448.718262754551
 21
-512.6161125635927
 31
0.0
  0
LINE
  5
C6
  8
DEFAULT
 62
     7
 10
3447.238449381162
 20
-626.1457316851556
 30
0.0
 11
3447.238449381162
 21
-594.1457316851556
 31
0.0
  0
ARC
  5
C7
  8
DEFAULT
 62
     7
 10
3447.238449381162
 20
-591.1457316851556
 30
0.0
 40
3.0
 50
270.0
 51
180.0
  0
LINE
  5
C8
  8
DEFAULT
 62
     7
 10
3444.238449381162
 20
-591.1457316851556
 30
0.0
 11
3415.238449381163
 21
-591.1457316851556
 31
0.0
  0
ARC
  5
C9
  8
DEFAULT
 62
     7
 10
3412.238449381163
 20
-591.1457316851556
 30
0.0
 40
3.0
 50
0.0
 51
270.0
  0
LINE
  5
CA
  8
DEFAULT
 62
     7
 10
3412.238449381163
 20
-594.1457316851556
 30
0.0
 11
3412.238449381163
 21
-626.1457316851556
 31
0.0
  0
LINE
  5
CB
  8
DEFAULT
 62
     7
 10
3412.238449381163
 20
-626.1457316851556
 30
0.0
 11
3392.238449381162
 21
-626.1457316851556
 31
0.0
  0
LINE
  5
CC
  8
DEFAULT
 62
     7
 10
3392.238449381162
 20
-626.1457316851556
 30
0.0
 11
3392.238449381162
 21
-571.1457316851556
 31
0.0
  0
LINE
  5
CD
  8
DEFAULT
 62
     7
 10
3392.238449381162
 20
-571.1457316851556
 30
0.0
 11
3407.238449381163
 21
-556.1457316851556
 31
0.0
  0
LINE
  5
CE
  8
DEFAULT
 62
     7
 10
3407.238449381163
 20
-556.1457316851556
 30
0.0
 11
3452.238449381163
 21
-556.1457316851556
 31
0.0
  0
LINE
  5
CF
  8
DEFAULT
 62
     7
 10
3452.238449381163
 20
-556.1457316851556
 30
0.0
 11
3467.238449381163
 21
-571.1457316851556
 31
0.0
  0
LINE
  5
D0
  8
DEFAULT
 62
     7
 10
3467.238449381163
 20
-571.1457316851556
 30
0.0
 11
3467.238449381163
 21
-626.1457316851556
 31
0.0
  0
LINE
  5
D1
  8
DEFAULT
 62
     7
 10
3467.238449381163
 20
-626.1457316851556
 30
0.0
 11
3447.238449381162
 21
-626.1457316851556
 31
0.0
  0
LINE
  5
D2
  8
DEFAULT
 62
     7
 10
3338.554107975511
 20
-500.1366338772468
 30
0.0
 11
3338.554107975511
 21
-468.1366338772468
 31
0.0
  0
ARC
  5
D3
  8
DEFAULT
 62
     7
 10
3338.554107975511
 20
-465.1366338772468
 30
0.0
 40
3.0
 50
270.0
 51
180.0
  0
LINE
  5
D4
  8
DEFAULT
 62
     7
 10
3335.554107975511
 20
-465.1366338772468
 30
0.0
 11
3306.554107975511
 21
-465.1366338772468
 31
0.0
  0
ARC
  5
D5
  8
DEFAULT
 62
     7
 10
3303.554107975511
 20
-465.1366338772468
 30
0.0
 40
3.0
 50
0.0
 51
270.0
  0
LINE
  5
D6
  8
DEFAULT
 62
     7
 10
3303.554107975511
 20
-468.1366338772468
 30
0.0
 11
3303.554107975511
 21
-500.1366338772468
 31
0.0
  0
LINE
  5
D7
  8
DEFAULT
 62
     7
 10
3303.554107975511
 20
-500.1366338772468
 30
0.0
 11
3283.554107975511
 21
-500.1366338772468
 31
0.0
  0
LINE
  5
D8
  8
DEFAULT
 62
     7
 10
3283.554107975511
 20
-500.1366338772468
 30
0.0
 11
3283.554107975511
 21
-445.1366338772468
 31
0.0
  0
LINE
  5
D9
  8
DEFAULT
 62
     7
 10
3283.554107975511
 20
-445.1366338772468
 30
0.0
 11
3298.554107975511
 21
-430.1366338772468
 31
0.0
  0
LINE
  5
DA
  8
DEFAULT
 62
     7
 10
3298.554107975511
 20
-430.1366338772468
 30
0.0
 11
3343.554107975511
 21
-430.1366338772468
 31
0.0
  0
LINE
  5
DB
  8
DEFAULT
 62
     7
 10
3343.554107975511
 20
-430.1366338772468
 30
0.0
 11
3358.554107975511
 21
-445.1366338772468
 31
0.0
  0
LINE
  5
DC
  8
DEFAULT
 62
     7
 10
3358.554107975511
 20
-445.1366338772468
 30
0.0
 11
3358.554107975511
 21
-500.1366338772468
 31
0.0
  0
LINE
  5
DD
  8
DEFAULT
 62
     7
 10
3358.554107975511
 20
-500.1366338772468
 30
0.0
 11
3338.554107975511
 21
-500.1366338772468
 31
0.0
  0
LINE
  5
DE
  8
DEFAULT
 62
     7
 10
3303.785801254496
 20
-610.5527216056234
 30
0.0
 11
3303.785801254496
 21
-578.5527216056234
 31
0.0
  0
ARC
  5
DF
  8
DEFAULT
 62
     7
 10
3303.785801254496
 20
-575.5527216056234
 30
0.0
 40
3.0
 50
270.0
 51
180.0
  0
LINE
  5
E0
  8
DEFAULT
 62
     7
 10
3300.785801254496
 20
-575.5527216056234
 30
0.0
 11
3271.785801254497
 21
-575.5527216056234
 31
0.0
  0
ARC
  5
E1
  8
DEFAULT
 62
     7
 10
3268.785801254497
 20
-575.5527216056234
 30
0.0
 40
3.0
 50
0.0
 51
270.0
  0
LINE
  5
E2
  8
DEFAULT
 62
     7
 10
3268.785801254497
 20
-578.5527216056234
 30
0.0
 11
3268.785801254497
 21
-610.5527216056234
 31
0.0
  0
LINE
  5
E3
  8
DEFAULT
 62
     7
 10
3268.785801254497
 20
-610.5527216056234
 30
0.0
 11
3248.785801254496
 21
-610.5527216056234
 31
0.0
  0
LINE
  5
E4
  8
DEFAULT
 62
     7
 10
3248.785801254496
 20
-610.5527216056234
 30
0.0
 11
3248.785801254496
 21
-555.5527216056234
 31
0.0
  0
LINE
  5
E5
  8
DEFAULT
 62
     7
 10
3248.785801254496
 20
-555.5527216056234
 30
0.0
 11
3263.785801254496
 21
-540.5527216056234
 31
0.0
  0
LINE
  5
E6
  8
DEFAULT
 62
     7
 10
3263.785801254496
 20
-540.5527216056234
 30
0.0
 11
3308.785801254497
 21
-540.5527216056234
 31
0.0
  0
LINE
  5
E7
  8
DEFAULT
 62
     7
 10
3308.785801254497
 20
-540.5527216056234
 30
0.0
 11
3323.785801254497
 21
-555.5527216056234
 31
0.0
  0
LINE
  5
E8
  8
DEFAULT
 62
     7
 10
3323.785801254497
 20
-555.5527216056234
 30
0.0
 11
3323.785801254497
 21
-610.5527216056234
 31
0.0
  0
LINE
  5
E9
  8
DEFAULT
 62
     7
 10
3323.785801254497
 20
-610.5527216056234
 30
0.0
 11
3303.785801254496
 21
-610.5527216056234
 31
0.0
  0
LINE
  5
EA
  8
DEFAULT
 62
     7
 10
3205.931510600637
 20
-610.7107092801843
 30
0.0
 11
3205.931510600637
 21
-578.7107092801843
 31
0.0
  0
ARC
  5
EB
  8
DEFAULT
 62
     7
 10
3205.931510600637
 20
-575.7107092801843
 30
0.0
 40
3.0
 50
270.0
 51
180.0
  0
LINE
  5
EC
  8
DEFAULT
 62
     7
 10
3202.931510600637
 20
-575.7107092801843
 30
0.0
 11
3173.931510600637
 21
-575.7107092801843
 31
0.0
  0
ARC
  5
ED
  8
DEFAULT
 62
     7
 10
3170.931510600637
 20
-575.7107092801843
 30
0.0
 40
3.0
 50
0.0
 51
270.0
  0
LINE
  5
EE
  8
DEFAULT
 62
     7
 10
3170.931510600637
 20
-578.7107092801843
 30
0.0
 11
3170.931510600637
 21
-610.7107092801843
 31
0.0
  0
LINE
  5
EF
  8
DEFAULT
 62
     7
 10
3170.931510600637
 20
-610.7107092801843
 30
0.0
 11
3150.931510600637
 21
-610.7107092801843
 31
0.0
  0
LINE
  5
F0
  8
DEFAULT
 62
     7
 10
3150.931510600637
 20
-610.7107092801843
 30
0.0
 11
3150.931510600637
 21
-555.7107092801843
 31
0.0
  0
LINE
  5
F1
  8
DEFAULT
 62
     7
 10
3150.931510600637
 20
-555.7107092801843
 30
0.0
 11
3165.931510600637
 21
-540.7107092801843
 31
0.0
  0
LINE
  5
F2
  8
DEFAULT
 62
     7
 10
3165.931510600637
 20
-540.7107092801843
 30
0.0
 11
3210.931510600637
 21
-540.7107092801843
 31
0.0
  0
LINE
  5
F3
  8
DEFAULT
 62
     7
 10
3210.931510600637
 20
-540.7107092801843
 30
0.0
 11
3225.931510600637
 21
-555.7107092801843
 31
0.0
  0
LINE
  5
F4
  8
DEFAULT
 62
     7
 10
3225.931510600637
 20
-555.7107092801843
 30
0.0
 11
3225.931510600637
 21
-610.7107092801843
 31
0.0
  0
LINE
  5
F5
  8
DEFAULT
 62
     7
 10
3225.931510600637
 20
-610.7107092801843
 30
0.0
 11
3205.931510600637
 21
-610.7107092801843
 31
0.0
  0
LINE
  5
F6
  8
DEFAULT
 62
     7
 10
3121.012999930946
 20
-618.4422481340234
 30
0.0
 11
3121.012999930946
 21
-586.4422481340234
 31
0.0
  0
ARC
  5
F7
  8
DEFAULT
 62
     7
 10
3121.012999930946
 20
-583.4422481340234
 30
0.0
 40
3.0
 50
270.0
 51
180.0
  0
LINE
  5
F8
  8
DEFAULT
 62
     7
 10
3118.012999930946
 20
-583.4422481340234
 30
0.0
 11
3089.012999930946
 21
-583.4422481340234
 31
0.0
  0
ARC
  5
F9
  8
DEFAULT
 62
     7
 10
3086.012999930946
 20
-583.4422481340234
 30
0.0
 40
3.0
 50
0.0
 51
270.0
  0
LINE
  5
FA
  8
DEFAULT
 62
     7
 10
3086.012999930946
 20
-586.4422481340234
 30
0.0
 11
3086.012999930946
 21
-618.4422481340234
 31
0.0
  0
LINE
  5
FB
  8
DEFAULT
 62
     7
 10
3086.012999930946
 20
-618.4422481340234
 30
0.0
 11
3066.012999930946
 21
-618.4422481340234
 31
0.0
  0
LINE
  5
FC
  8
DEFAULT
 62
     7
 10
3066.012999930946
 20
-618.4422481340234
 30
0.0
 11
3066.012999930946
 21
-563.4422481340234
 31
0.0
  0
LINE
  5
FD
  8
DEFAULT
 62
     7
 10
3066.012999930946
 20
-563.4422481340234
 30
0.0
 11
3081.012999930946
 21
-548.4422481340234
 31
0.0
  0
LINE
  5
FE
  8
DEFAULT
 62
     7
 10
3081.012999930946
 20
-548.4422481340234
 30
0.0
 11
3126.012999930946
 21
-548.4422481340234
 31
0.0
  0
LINE
  5
FF
  8
DEFAULT
 62
     7
 10
3126.012999930946
 20
-548.4422481340234
 30
0.0
 11
3141.012999930946
 21
-563.4422481340234
 31
0.0
  0
LINE
  5
100
  8
DEFAULT
 62
     7
 10
3141.012999930946
 20
-563.4422481340234
 30
0.0
 11
3141.012999930946
 21
-618.4422481340234
 31
0.0
  0
LINE
  5
101
  8
DEFAULT
 62
     7
 10
3141.012999930946
 20
-618.4422481340234
 30
0.0
 11
3121.012999930946
 21
-618.4422481340234
 31
0.0
  0
LINE
  5
103
  8
LAYER_02
 10
2356.699450337031
 20
-18.92976295424887
 30
0.0
 11
2356.699450337031
 21
-668.9297629542489
 31
0.0
  0
LINE
  5
104
  8
LAYER_02
 10
2356.699450337031
 20
-668.9297629542489
 30
0.0
 11
3606.699450337031
 21
-668.9297629542489
 31
0.0
  0
LINE
  5
105
  8
LAYER_02
 10
3606.699450337031
 20
-668.9297629542489
 30
0.0
 11
3606.699450337031
 21
-18.92976295424887
 31
0.0
  0
LINE
  5
106
  8
LAYER_02
 10
3606.699450337031
 20
-18.92976295424887
 30
0.0
 11
2356.699450337031
 21
-18.92976295424887
 31
0.0
  0
ENDSEC
  0
EOF
