0
SECTION
2
HEADER
9
$INSUNITS
70
4
9
$ACADVER
1
AC1014
9
$HANDSEED
5
FFFF
0
ENDSEC
0
SECTION
2
TABLES
0
TABLE
2
VPORT
5
8
100
AcDbSymbolTable
0
ENDTAB
0
TABLE
2
LTYPE
5
5
100
AcDbSymbolTable
0
LTYPE
5
14
100
AcDbSymbolTableRecord
100
AcDbLinetypeTableRecord
2
BYBLOCK
70
0
0
LTYPE
5
15
100
AcDbSymbolTableRecord
100
AcDbLinetypeTableRecord
2
BYLAYER
70
0
0
ENDTAB
0
TABLE
2
LAYER
5
2
100
AcDbSymbolTable
70
2
0
LAYER
5
50
100
AcDbSymbolTableRecord
100
AcDbLayerTableRecord
2
0
70
0
6
CONTINUOUS
0
ENDTAB
0
TABLE
2
STYLE
5
3
100
AcDbSymbolTable
70
1
0
STYLE
5
11
100
AcDbSymbolTableRecord
100
AcDbTextStyleTableRecord
2
STANDARD
70
0
0
ENDTAB
0
TABLE
2
VIEW
5
6
100
AcDbSymbolTable
70
0
0
ENDTAB
0
TABLE
2
UCS
5
7
100
AcDbSymbolTable
70
0
0
ENDTAB
0
TABLE
2
APPID
5
9
100
AcDbSymbolTable
70
2
0
APPID
5
12
100
AcDbSymbolTableRecord
100
AcDbRegAppTableRecord
2
ACAD
70
0
0
ENDTAB
0
TABLE
2
DIMSTYLE
5
A
100
AcDbSymbolTable
70
1
0
ENDTAB
0
TABLE
2
BLOCK_RECORD
5
1
100
AcDbSymbolTable
70
1
0
BLOCK_RECORD
5
1F
100
AcDbSymbolTableRecord
100
AcDbBlockTableRecord
2
*MODEL_SPACE
0
BLOCK_RECORD
5
1B
100
AcDbSymbolTableRecord
100
AcDbBlockTableRecord
2
*PAPER_SPACE
0
ENDTAB
0
ENDSEC
0
SECTION
2
BLOCKS
0
BLOCK
5
20
100
AcDbEntity
100
AcDbBlockBegin
2
*MODEL_SPACE
0
ENDBLK
5
21
100
AcDbEntity
100
AcDbBlockEnd
0
BLOCK
5
1C
100
AcDbEntity
100
AcDbBlockBegin
2
*PAPER_SPACE
0
ENDBLK
5
1D
100
AcDbEntity
100
AcDbBlockEnd
0
ENDSEC
0
SECTION
2
ENTITIES
0
LWPOLYLINE
5
100
100
AcDbEntity
8
0
100
AcDbPolyline
90
16
70
1
43
0.0
10
68845.013977295312
20
-16470.101588491401
10
68845.013977295312
20
-15799.63145709433
42
-0.3121005350213083
10
68854.719859648278
20
-15785.596774399699
42
1.5496962022285421
10
68819.283725688496
20
-15750.160640439934
42
-0.31210053502055946
10
68805.249042993863
20
-15759.86652279287
10
68704.778911596775
20
-15759.866522792869
42
-0.31210053502097834
10
68690.744228902142
20
-15750.160640439924
42
1.5496962022295548
10
68655.308094942375
20
-15785.596774399692
42
-0.31210053502041846
10
68665.013977295312
20
-15799.63145709433
10
68665.013977295312
20
-16470.101588491398
42
-0.31210053502031021
10
68655.308094942375
20
-16484.136271186064
42
1.5496962022285237
10
68690.744228902127
20
-16519.572405145806
42
-0.31210053502042356
10
68704.778911596775
20
-16509.866522792869
10
68805.249042993863
20
-16509.866522792861
42
-0.31210053502071583
10
68819.283725688525
20
-16519.572405145802
42
1.5496962022296434
10
68854.719859648249
20
-16484.136271186046
42
-0.31210053502030688
0
LWPOLYLINE
5
101
100
AcDbEntity
8
0
100
AcDbPolyline
90
16
70
1
43
0.0
10
68665.013977295312
20
-17549.631457094332
10
68665.013977295312
20
-18220.101588491401
42
-0.31210053502001023
10
68655.308094942389
20
-18234.136271186049
42
1.5496962022284666
10
68690.744228902127
20
-18269.572405145809
42
-0.31210053502050139
10
68704.778911596775
20
-18259.866522792869
10
68805.249042993863
20
-18259.866522792861
42
-0.31210053502088914
10
68819.283725688467
20
-18269.572405145816
42
1.5496962022293166
10
68854.719859648249
20
-18234.136271186046
42
-0.31210053502030688
10
68845.013977295312
20
-18220.101588491401
10
68845.013977295312
20
-17549.631457094332
42
-0.31210053502092938
10
68854.719859648263
20
-17535.596774399684
42
1.5496962022281946
10
68819.283725688496
20
-17500.160640439932
42
-0.31210053502055946
10
68805.249042993863
20
-17509.866522792869
10
68704.778911596775
20
-17509.866522792869
42
-0.31210053502095925
10
68690.744228902127
20
-17500.160640439928
42
1.5496962022292744
10
68655.308094942375
20
-17535.596774399695
42
-0.31210053502054474
0
LWPOLYLINE
5
102
100
AcDbEntity
8
0
100
AcDbPolyline
90
12
70
1
43
0.0
10
72249.676065726875
20
-10251.101694440149
10
72270.664942134797
20
-10296.483045975039
10
72615.563213799935
20
-10136.96758527485
10
72594.574337392027
20
-10091.586233739959
10
72757.947202917625
20
-10016.026278671439
10
72673.991697285936
20
-9834.5008725318949
10
72510.618831760337
20
-9910.0608276004095
10
72489.629955352415
20
-9864.6794760655212
10
72144.731683687278
20
-10024.19493676572
10
72165.7205600952
20
-10069.576288300599
10
72002.347694569602
20
-10145.136243369121
10
72086.303200201277
20
-10326.66164950866
0
LWPOLYLINE
5
103
100
AcDbEntity
8
0
100
AcDbPolyline
90
12
70
1
43
0.0
10
69553.002717228315
20
-12238.468807622172
10
69539.291333858389
20
-12190.385567651439
10
69173.858710080851
20
-12294.592081262961
10
69187.570093450791
20
-12342.67532123369
10
69014.470429556168
20
-12392.036301365461
10
69069.31596303593
20
-12584.369261248372
10
69242.415626930539
20
-12535.008281116599
10
69256.127010300464
20
-12583.091521087332
10
69621.559634078003
20
-12478.88500747581
10
69607.848250708063
20
-12430.80176750508
10
69780.947914602701
20
-12381.440787373311
10
69726.102381122939
20
-12189.107827490399
0
LWPOLYLINE
5
104
100
AcDbEntity
8
0
100
AcDbPolyline
90
4
70
1
43
0.0
10
68738.196181495645
20
-11477.898255925958
10
68738.196181495645
20
-11657.898255925958
10
68938.196181495645
20
-11657.898255925958
10
68938.196181495645
20
-11477.898255925958
0
LWPOLYLINE
5
105
100
AcDbEntity
8
0
100
AcDbPolyline
90
4
70
1
43
0.0
10
68738.196181495645
20
-10874.89825592596
10
68738.196181495645
20
-11054.89825592596
10
68938.196181495645
20
-11054.89825592596
10
68938.196181495645
20
-10874.89825592596
0
LWPOLYLINE
5
106
100
AcDbEntity
8
0
100
AcDbPolyline
90
5
70
1
43
0.0
10
68357.900384517241
20
-11356.39825592596
10
68267.900384517241
20
-11356.39825592596
10
68177.900384517241
20
-11356.39825592596
10
68177.900384517241
20
-11176.39825592596
10
68357.900384517241
20
-11176.39825592596
0
LWPOLYLINE
5
107
100
AcDbEntity
8
0
100
AcDbPolyline
90
5
70
1
43
0.0
10
67718.232915288507
20
-8678.6475943033765
10
67530.496802773036
20
-8678.6475943033765
10
67530.496802773036
20
-20380.865274434742
10
78982.399666217098
20
-20380.865274434742
10
78982.399666217098
20
-8678.6475943033765
0
CIRCLE
5
108
100
AcDbEntity
8
0
100
AcDbCircle
10
71673.441102041514
20
-16132.966522792869
30
0
40
4000
0
CIRCLE
5
109
100
AcDbEntity
8
0
100
AcDbCircle
10
71393.441102041514
20
-16132.966522792869
30
0
40
40
0
CIRCLE
5
110
100
AcDbEntity
8
0
100
AcDbCircle
10
71953.441102041514
20
-16132.966522792869
30
0
40
40
0
CIRCLE
5
111
100
AcDbEntity
8
0
100
AcDbCircle
10
76038.196181495645
20
-10966.39825592596
30
0
40
50
0
CIRCLE
5
112
100
AcDbEntity
8
0
100
AcDbCircle
10
76638.196181495645
20
-10966.39825592596
30
0
40
50
0
CIRCLE
5
113
100
AcDbEntity
8
0
100
AcDbCircle
10
76638.196181495645
20
-11566.39825592596
30
0
40
50
0
CIRCLE
5
114
100
AcDbEntity
8
0
100
AcDbCircle
10
76038.196181495645
20
-11566.39825592596
30
0
40
50
0
LWPOLYLINE
5
115
100
AcDbEntity
8
0
100
AcDbPolyline
90
11
70
1
43
0.0
10
78380.609468376148
20
-16415.245267523896
10
77820.585411590204
20
-16415.217198426559
10
77820.585411590204
20
-16515.217198426559
10
77640.585411590204
20
-16515.217198426559
10
77640.585411590204
20
-16695.217198426559
10
77820.585411590204
20
-16695.217198426559
10
77820.585411590204
20
-16795.217198426559
10
78200.585411590204
20
-16895.217198426559
10
78200.585411590204
20
-16695.217198426559
10
78380.585411590204
20
-16695.217198426559
10
78380.585411590204
20
-16895.217198426551
42
1.0034510568773511
0
LWPOLYLINE
5
116
100
AcDbEntity
8
0
100
AcDbPolyline
90
2
70
1
43
0.0
10
75079.648163275429
20
-19424.681803065654
10
75079.648163275429
20
-19146.718155047634
42
-7.0534100697512025
0
LWPOLYLINE
5
117
100
AcDbEntity
8
0
100
AcDbPolyline
90
4
70
1
43
0.0
10
75459.943960253833
20
-19677.199979056641
10
75659.943960253833
20
-19677.199979056641
10
75659.943960253833
20
-19497.199979056641
10
75459.943960253833
20
-19497.199979056641
0
LWPOLYLINE
5
118
100
AcDbEntity
8
0
100
AcDbPolyline
90
4
70
1
43
0.0
10
75459.943960253833
20
-19074.199979056644
10
75659.943960253833
20
-19074.199979056644
10
75659.943960253833
20
-18894.199979056644
10
75459.943960253833
20
-18894.199979056644
0
CIRCLE
5
119
100
AcDbEntity
8
0
100
AcDbCircle
10
75714.943960253833
20
-19130.699979056641
30
0
40
30
0
CIRCLE
5
120
100
AcDbEntity
8
0
100
AcDbCircle
10
75714.943960253833
20
-19440.699979056641
30
0
40
30
0
CIRCLE
5
121
100
AcDbEntity
8
0
100
AcDbCircle
10
75404.943960253833
20
-19440.699979056641
30
0
40
30
0
CIRCLE
5
122
100
AcDbEntity
8
0
100
AcDbCircle
10
75404.943960253833
20
-19130.699979056641
30
0
40
30
0
CIRCLE
5
123
100
AcDbEntity
8
0
100
AcDbCircle
10
75559.943960253833
20
-19285.699979056641
30
0
40
110
0
LWPOLYLINE
5
124
100
AcDbEntity
8
0
100
AcDbPolyline
90
4
70
1
43
0.0
10
69152.48189578134
20
-12215.726697402311
42
-1.3844373104862921
10
69152.481895781355
20
-10317.069814449609
42
0.25346621131740593
10
74779.372652083854
20
-9311.898523474656
42
-2.0766559657304215
10
74779.372652083868
20
-13220.897988377281
42
0.2534662113173296
0
LWPOLYLINE
5
125
100
AcDbEntity
8
0
100
AcDbPolyline
90
16
70
1
43
0.0
10
74501.868226787687
20
-14297.731457094331
10
74501.868226787687
20
-14968.2015884914
42
-0.31210053502044199
10
74492.16234443475
20
-14982.236271186019
42
1.5496962022298775
10
74527.598478394517
20
-15017.672405145806
42
-0.31210053502071505
10
74541.63316108915
20
-15007.96652279286
10
74642.103292486237
20
-15007.966522792865
42
-0.31210053502052049
10
74656.137975180871
20
-15017.672405145804
42
1.5496962022288461
10
74691.574109140638
20
-14982.236271186044
42
-0.31210053502060348
10
74681.868226787687
20
-14968.2015884914
10
74681.868226787687
20
-14297.731457094331
42
-0.31210053502047719
10
74691.574109140623
20
-14283.696774399683
42
1.5496962022269933
10
74656.137975180856
20
-14248.260640439927
42
-0.31210053502081198
10
74642.103292486223
20
-14257.96652279286
10
74541.63316108915
20
-14257.966522792867
42
-0.31210053502069668
10
74527.598478394488
20
-14248.260640439934
42
1.549696202229998
10
74492.16234443475
20
-14283.696774399696
42
-0.31210053502054474
0
LWPOLYLINE
5
126
100
AcDbEntity
8
0
100
AcDbPolyline
90
16
70
1
43
0.0
10
74501.868226787687
20
-15797.731457094331
10
74501.868226787687
20
-16468.2015884914
42
-0.31210053502081198
10
74492.16234443475
20
-16482.236271186026
42
1.5496962022292831
10
74527.598478394502
20
-16517.672405145804
42
-0.31210053502028773
10
74541.63316108915
20
-16507.966522792871
10
74642.103292486223
20
-16507.966522792874
42
-0.31210053502052981
10
74656.137975180842
20
-16517.672405145819
42
1.5496962022273333
10
74691.574109140638
20
-16482.236271186044
42
-0.31210053502060348
10
74681.868226787687
20
-16468.2015884914
10
74681.868226787687
20
-15797.731457094338
42
-0.31210053502054719
10
74691.574109140638
20
-15783.696774399697
42
1.5496962022278917
10
74656.137975180871
20
-15748.260640439927
42
-0.31210053502067614
10
74642.103292486223
20
-15757.966522792869
10
74541.63316108915
20
-15757.966522792871
42
-0.31210053502069668
10
74527.598478394488
20
-15748.260640439934
42
1.549696202229998
10
74492.16234443475
20
-15783.696774399696
42
-0.31210053502054474
0
LWPOLYLINE
5
127
100
AcDbEntity
8
0
100
AcDbPolyline
90
16
70
1
43
0.0
10
74501.868226787687
20
-17547.731457094331
10
74501.868226787687
20
-18218.2015884914
42
-0.31210053502031082
10
74492.16234443475
20
-18232.236271186041
42
1.5496962022289296
10
74527.598478394517
20
-18267.672405145815
42
-0.31210053502071505
10
74541.63316108915
20
-18257.96652279286
10
74642.103292486237
20
-18257.966522792864
42
-0.31210053502055946
10
74656.137975180871
20
-18267.672405145808
42
1.5496962022276024
10
74691.574109140638
20
-18232.236271186044
42
-0.31210053502060348
10
74681.868226787687
20
-18218.2015884914
10
74681.868226787687
20
-17547.731457094334
42
-0.31210053502048701
10
74691.574109140623
20
-17533.696774399694
42
1.5496962022273149
10
74656.137975180871
20
-17498.260640439923
42
-0.31210053502071505
10
74642.103292486223
20
-17507.966522792871
10
74541.63316108915
20
-17507.966522792871
42
-0.31210053502069668
10
74527.598478394488
20
-17498.260640439934
42
1.549696202229998
10
74492.16234443475
20
-17533.696774399694
42
-0.31210053502054474
0
LWPOLYLINE
5
128
100
AcDbEntity
8
0
100
AcDbPolyline
90
16
70
1
43
0.0
10
68665.013977295312
20
-14299.63145709433
10
68665.013977295312
20
-14970.1015884914
42
-0.31210053502026869
10
68655.308094942375
20
-14984.136271186064
42
1.5496962022285237
10
68690.744228902127
20
-15019.572405145806
42
-0.31210053502042356
10
68704.778911596775
20
-15009.86652279287
10
68805.249042993863
20
-15009.86652279287
42
-0.31210053502069462
10
68819.283725688467
20
-15019.572405145816
42
1.5496962022293166
10
68854.719859648249
20
-14984.136271186046
42
-0.31210053502030688
10
68845.013977295312
20
-14970.1015884914
10
68845.013977295312
20
-14299.63145709433
42
-0.3121005350207004
10
68854.719859648249
20
-14285.596774399695
42
1.5496962022284504
10
68819.283725688496
20
-14250.160640439928
42
-0.31210053502048163
10
68805.249042993863
20
-14259.866522792861
10
68704.778911596775
20
-14259.866522792869
42
-0.31210053502097834
10
68690.744228902142
20
-14250.160640439924
42
1.5496962022295548
10
68655.308094942375
20
-14285.596774399692
42
-0.31210053502041846
0
ENDSEC
0
SECTION
2
OBJECTS
0
DICTIONARY
5
C
100
AcDbDictionary
3
ACAD_GROUP
350
D
3
ACAD_MLINESTYLE
350
17
0
DICTIONARY
5
D
100
AcDbDictionary
0
DICTIONARY
5
1A
330
C
100
AcDbDictionary
0
DICTIONARY
5
17
100
AcDbDictionary
0
ENDSEC
0
EOF
