0
SECTION
2
HEADER
9
$INSUNITS
70
4
9
$ACADVER
1
AC1014
9
$HANDSEED
5
FFFF
0
ENDSEC
0
SECTION
2
TABLES
0
TABLE
2
VPORT
5
8
100
AcDbSymbolTable
0
ENDTAB
0
TABLE
2
LTYPE
5
5
100
AcDbSymbolTable
0
LTYPE
5
14
100
AcDbSymbolTableRecord
100
AcDbLinetypeTableRecord
2
BYBLOCK
70
0
0
LTYPE
5
15
100
AcDbSymbolTableRecord
100
AcDbLinetypeTableRecord
2
BYLAYER
70
0
0
ENDTAB
0
TABLE
2
LAYER
5
2
100
AcDbSymbolTable
70
2
0
LAYER
5
50
100
AcDbSymbolTableRecord
100
AcDbLayerTableRecord
2
0
70
0
6
CONTINUOUS
0
ENDTAB
0
TABLE
2
STYLE
5
3
100
AcDbSymbolTable
70
1
0
STYLE
5
11
100
AcDbSymbolTableRecord
100
AcDbTextStyleTableRecord
2
STANDARD
70
0
0
ENDTAB
0
TABLE
2
VIEW
5
6
100
AcDbSymbolTable
70
0
0
ENDTAB
0
TABLE
2
UCS
5
7
100
AcDbSymbolTable
70
0
0
ENDTAB
0
TABLE
2
APPID
5
9
100
AcDbSymbolTable
70
2
0
APPID
5
12
100
AcDbSymbolTableRecord
100
AcDbRegAppTableRecord
2
ACAD
70
0
0
ENDTAB
0
TABLE
2
DIMSTYLE
5
A
100
AcDbSymbolTable
70
1
0
ENDTAB
0
TABLE
2
BLOCK_RECORD
5
1
100
AcDbSymbolTable
70
1
0
BLOCK_RECORD
5
1F
100
AcDbSymbolTableRecord
100
AcDbBlockTableRecord
2
*MODEL_SPACE
0
BLOCK_RECORD
5
1B
100
AcDbSymbolTableRecord
100
AcDbBlockTableRecord
2
*PAPER_SPACE
0
ENDTAB
0
ENDSEC
0
SECTION
2
BLOCKS
0
BLOCK
5
20
100
AcDbEntity
100
AcDbBlockBegin
2
*MODEL_SPACE
0
ENDBLK
5
21
100
AcDbEntity
100
AcDbBlockEnd
0
BLOCK
5
1C
100
AcDbEntity
100
AcDbBlockBegin
2
*PAPER_SPACE
0
ENDBLK
5
1D
100
AcDbEntity
100
AcDbBlockEnd
0
ENDSEC
0
SECTION
2
ENTITIES
0
LWPOLYLINE
5
100
100
AcDbEntity
8
0
100
AcDbPolyline
90
4
70
1
43
0.0
10
-5
20
-15
10
-25
20
-15
10
-25
20
-30
10
-5
20
-30
0
LWPOLYLINE
5
101
100
AcDbEntity
8
0
100
AcDbPolyline
90
4
70
1
43
0.0
10
20.000000298023224
20
-15.000000223517418
10
10.000000149011612
20
-15.000000223517418
10
10.000000149011612
20
-25.00000037252903
10
20.000000298023224
20
-25.00000037252903
0
LWPOLYLINE
5
102
100
AcDbEntity
8
0
100
AcDbPolyline
90
4
70
1
43
0.0
10
20.000000298023224
20
-30.000000447034836
10
10.000000149011612
20
-30.000000447034836
10
10.000000149011612
20
-40.000000596046448
10
20.000000298023224
20
-40.000000596046448
0
LWPOLYLINE
5
103
100
AcDbEntity
8
0
100
AcDbPolyline
90
4
70
1
43
0.0
10
20.000000298023224
20
0
10
10.000000149011612
20
0
10
10.000000149011612
20
-10.000000149011612
10
20.000000298023224
20
-10.000000149011612
0
LWPOLYLINE
5
104
100
AcDbEntity
8
0
100
AcDbPolyline
90
4
70
1
43
0.0
10
35.000000521540642
20
0
10
25.00000037252903
20
0
10
25.00000037252903
20
-10.000000149011612
10
35.000000521540642
20
-10.000000149011612
0
LWPOLYLINE
5
105
100
AcDbEntity
8
0
100
AcDbPolyline
90
4
70
1
43
0.0
10
35.000000521540642
20
-15.000000223517418
10
25.00000037252903
20
-15.000000223517418
10
25.00000037252903
20
-26.000000387430191
10
35.000000521540642
20
-26.000000387430191
0
LWPOLYLINE
5
106
100
AcDbEntity
8
0
100
AcDbPolyline
90
4
70
1
43
0.0
10
35.000000521540642
20
-30.000000447034836
10
25.00000037252903
20
-30.000000447034836
10
25.00000037252903
20
-40.000000596046448
10
35.000000521540642
20
-40.000000596046448
0
LWPOLYLINE
5
107
100
AcDbEntity
8
0
100
AcDbPolyline
90
4
70
1
43
0.0
10
-9.999999925494194
20
-20.999999977648258
10
-20.000000074505806
20
-20.999999977648258
10
-20.000000074505806
20
-24.000000022351742
10
-9.999999925494194
20
-24.000000022351742
0
LINE
5
108
100
AcDbEntity
8
0
100
AcDbLine
10
-30.000000447034836
20
-15.000000223517418
30
0
11
-30.000000447034836
21
-30.000000447034836
31
0
0
LINE
5
109
100
AcDbEntity
8
0
100
AcDbLine
10
-30.000000447034836
20
-30.000000447034836
30
0
11
-35.000000521540642
21
-30.000000447034836
31
0
0
LINE
5
110
100
AcDbEntity
8
0
100
AcDbLine
10
-35.000000521540642
20
-30.000000447034836
30
0
11
-35.000000521540642
21
-27.410000335276127
31
0
0
LINE
5
111
100
AcDbEntity
8
0
100
AcDbLine
10
-35.000000521540642
20
-17.410000335276127
30
0
11
-35.000000521540642
21
-15.000000223517418
31
0
0
LINE
5
112
100
AcDbEntity
8
0
100
AcDbLine
10
-35.000000521540642
20
-15.000000223517418
30
0
11
-30.000000447034836
21
-15.000000223517418
31
0
0
LINE
5
113
100
AcDbEntity
8
0
100
AcDbLine
10
-38.000000566244125
20
-17.410000335276127
30
0
11
-35.000000521540642
21
-17.410000335276127
31
0
0
LINE
5
114
100
AcDbEntity
8
0
100
AcDbLine
10
-38.000000566244125
20
-17.410000335276127
30
0
11
-38.000000566244125
21
-27.590000335276127
31
0
0
LINE
5
115
100
AcDbEntity
8
0
100
AcDbLine
10
-35.000000521540642
20
-27.590000335276127
30
0
11
-38.000000566244125
21
-27.590000335276127
31
0
0
ENDSEC
0
SECTION
2
OBJECTS
0
DICTIONARY
5
C
100
AcDbDictionary
3
ACAD_GROUP
350
D
3
ACAD_MLINESTYLE
350
17
0
DICTIONARY
5
D
100
AcDbDictionary
0
DICTIONARY
5
1A
330
C
100
AcDbDictionary
0
DICTIONARY
5
17
100
AcDbDictionary
0
ENDSEC
0
EOF
