  0
SECTION
  2
HEADER
  9
$ACADVER
  1
AC1018
  9
$ACADMAINTVER
 70
     0
  9
$DWGCODEPAGE
  3
ANSI_1255
  9
$INSBASE
 10
0.0
 20
0.0
 30
0.0
  9
$EXTMIN
 10
182.993246720729
 20
-31.65538556018952
 30
0.0
  9
$EXTMAX
 10
489.6787648142655
 20
568.3446144398105
 30
0.0
  9
$LIMMIN
 10
0.0
 20
0.0
  9
$LIMMAX
 10
12.0
 20
9.0
  9
$ORTHOMODE
 70
     0
  9
$REGENMODE
 70
     1
  9
$FILLMODE
 70
     1
  9
$QTEXTMODE
 70
     0
  9
$MIRRTEXT
 70
     1
  9
$LTSCALE
 40
1.0
  9
$ATTMODE
 70
     1
  9
$TEXTSIZE
 40
0.2
  9
$TRACEWID
 40
0.05
  9
$TEXTSTYLE
  7
Standard
  9
$CLAYER
  8
cut_out
  9
$CELTYPE
  6
ByLayer
  9
$CECOLOR
 62
   256
  9
$CELTSCALE
 40
1.0
  9
$DISPSILH
 70
     0
  9
$DIMSCALE
 40
1.0
  9
$DIMASZ
 40
0.18
  9
$DIMEXO
 40
0.0625
  9
$DIMDLI
 40
0.38
  9
$DIMRND
 40
0.0
  9
$DIMDLE
 40
0.0
  9
$DIMEXE
 40
0.18
  9
$DIMTP
 40
0.0
  9
$DIMTM
 40
0.0
  9
$DIMTXT
 40
0.18
  9
$DIMCEN
 40
0.09
  9
$DIMTSZ
 40
0.0
  9
$DIMTOL
 70
     0
  9
$DIMLIM
 70
     0
  9
$DIMTIH
 70
     1
  9
$DIMTOH
 70
     1
  9
$DIMSE1
 70
     0
  9
$DIMSE2
 70
     0
  9
$DIMTAD
 70
     0
  9
$DIMZIN
 70
     0
  9
$DIMBLK
  1

  9
$DIMASO
 70
     1
  9
$DIMSHO
 70
     1
  9
$DIMPOST
  1

  9
$DIMAPOST
  1

  9
$DIMALT
 70
     0
  9
$DIMALTD
 70
     2
  9
$DIMALTF
 40
25.4
  9
$DIMLFAC
 40
1.0
  9
$DIMTOFL
 70
     0
  9
$DIMTVP
 40
0.0
  9
$DIMTIX
 70
     0
  9
$DIMSOXD
 70
     0
  9
$DIMSAH
 70
     0
  9
$DIMBLK1
  1

  9
$DIMBLK2
  1

  9
$DIMSTYLE
  2
Standard
  9
$DIMCLRD
 70
     0
  9
$DIMCLRE
 70
     0
  9
$DIMCLRT
 70
     0
  9
$DIMTFAC
 40
1.0
  9
$DIMGAP
 40
0.09
  9
$DIMJUST
 70
     0
  9
$DIMSD1
 70
     0
  9
$DIMSD2
 70
     0
  9
$DIMTOLJ
 70
     1
  9
$DIMTZIN
 70
     0
  9
$DIMALTZ
 70
     0
  9
$DIMALTTZ
 70
     0
  9
$DIMUPT
 70
     0
  9
$DIMDEC
 70
     4
  9
$DIMTDEC
 70
     4
  9
$DIMALTU
 70
     2
  9
$DIMALTTD
 70
     2
  9
$DIMTXSTY
  7
Standard
  9
$DIMAUNIT
 70
     0
  9
$DIMADEC
 70
     0
  9
$DIMALTRND
 40
0.0
  9
$DIMAZIN
 70
     0
  9
$DIMDSEP
 70
    46
  9
$DIMATFIT
 70
     3
  9
$DIMFRAC
 70
     0
  9
$DIMLDRBLK
  1

  9
$DIMLUNIT
 70
     2
  9
$DIMLWD
 70
    -2
  9
$DIMLWE
 70
    -2
  9
$DIMTMOVE
 70
     2
  9
$LUNITS
 70
     2
  9
$LUPREC
 70
     3
  9
$SKETCHINC
 40
0.1
  9
$FILLETRAD
 40
0.5
  9
$AUNITS
 70
     0
  9
$AUPREC
 70
     0
  9
$MENU
  1
.
  9
$ELEVATION
 40
0.0
  9
$PELEVATION
 40
0.0
  9
$THICKNESS
 40
0.0
  9
$LIMCHECK
 70
     0
  9
$CHAMFERA
 40
0.0
  9
$CHAMFERB
 40
0.0
  9
$CHAMFERC
 40
0.0
  9
$CHAMFERD
 40
0.0
  9
$SKPOLY
 70
     0
  9
$TDCREATE
 40
2458045.697165614
  9
$TDUCREATE
 40
2458045.572165614
  9
$TDUPDATE
 40
2458045.69718346
  9
$TDUUPDATE
 40
2458045.57218346
  9
$TDINDWG
 40
0.0000000116
  9
$TDUSRTIMER
 40
0.0000000116
  9
$USRTIMER
 70
     1
  9
$ANGBASE
 50
0.0
  9
$ANGDIR
 70
     0
  9
$PDMODE
 70
     0
  9
$PDSIZE
 40
0.0
  9
$PLINEWID
 40
0.0
  9
$SPLFRAME
 70
     0
  9
$SPLINETYPE
 70
     6
  9
$SPLINESEGS
 70
     8
  9
$HANDSEED
  5
4CD
  9
$SURFTAB1
 70
     6
  9
$SURFTAB2
 70
     6
  9
$SURFTYPE
 70
     6
  9
$SURFU
 70
     6
  9
$SURFV
 70
     6
  9
$UCSBASE
  2

  9
$UCSNAME
  2

  9
$UCSORG
 10
0.0
 20
0.0
 30
0.0
  9
$UCSXDIR
 10
1.0
 20
0.0
 30
0.0
  9
$UCSYDIR
 10
0.0
 20
1.0
 30
0.0
  9
$UCSORTHOREF
  2

  9
$UCSORTHOVIEW
 70
     0
  9
$UCSORGTOP
 10
0.0
 20
0.0
 30
0.0
  9
$UCSORGBOTTOM
 10
0.0
 20
0.0
 30
0.0
  9
$UCSORGLEFT
 10
0.0
 20
0.0
 30
0.0
  9
$UCSORGRIGHT
 10
0.0
 20
0.0
 30
0.0
  9
$UCSORGFRONT
 10
0.0
 20
0.0
 30
0.0
  9
$UCSORGBACK
 10
0.0
 20
0.0
 30
0.0
  9
$PUCSBASE
  2

  9
$PUCSNAME
  2

  9
$PUCSORG
 10
0.0
 20
0.0
 30
0.0
  9
$PUCSXDIR
 10
1.0
 20
0.0
 30
0.0
  9
$PUCSYDIR
 10
0.0
 20
1.0
 30
0.0
  9
$PUCSORTHOREF
  2

  9
$PUCSORTHOVIEW
 70
     0
  9
$PUCSORGTOP
 10
0.0
 20
0.0
 30
0.0
  9
$PUCSORGBOTTOM
 10
0.0
 20
0.0
 30
0.0
  9
$PUCSORGLEFT
 10
0.0
 20
0.0
 30
0.0
  9
$PUCSORGRIGHT
 10
0.0
 20
0.0
 30
0.0
  9
$PUCSORGFRONT
 10
0.0
 20
0.0
 30
0.0
  9
$PUCSORGBACK
 10
0.0
 20
0.0
 30
0.0
  9
$USERI1
 70
     0
  9
$USERI2
 70
     0
  9
$USERI3
 70
     0
  9
$USERI4
 70
     0
  9
$USERI5
 70
     0
  9
$USERR1
 40
0.0
  9
$USERR2
 40
0.0
  9
$USERR3
 40
0.0
  9
$USERR4
 40
0.0
  9
$USERR5
 40
0.0
  9
$WORLDVIEW
 70
     1
  9
$SHADEDGE
 70
     3
  9
$SHADEDIF
 70
    70
  9
$TILEMODE
 70
     1
  9
$MAXACTVP
 70
    64
  9
$PINSBASE
 10
0.0
 20
0.0
 30
0.0
  9
$PLIMCHECK
 70
     0
  9
$PEXTMIN
 10
1.000000000000000E+20
 20
1.000000000000000E+20
 30
1.000000000000000E+20
  9
$PEXTMAX
 10
-1.000000000000000E+20
 20
-1.000000000000000E+20
 30
-1.000000000000000E+20
  9
$PLIMMIN
 10
0.0
 20
0.0
  9
$PLIMMAX
 10
12.0
 20
9.0
  9
$UNITMODE
 70
     0
  9
$VISRETAIN
 70
     1
  9
$PLINEGEN
 70
     0
  9
$PSLTSCALE
 70
     1
  9
$TREEDEPTH
 70
  3020
  9
$CMLSTYLE
  2
Standard
  9
$CMLJUST
 70
     0
  9
$CMLSCALE
 40
1.0
  9
$PROXYGRAPHICS
 70
     1
  9
$MEASUREMENT
 70
     0
  9
$CELWEIGHT
370
    -1
  9
$ENDCAPS
280
     0
  9
$JOINSTYLE
280
     0
  9
$LWDISPLAY
290
     0
  9
$INSUNITS
 70
     4
  9
$HYPERLINKBASE
  1

  9
$STYLESHEET
  1

  9
$XEDIT
290
     1
  9
$CEPSNTYPE
380
     0
  9
$PSTYLEMODE
290
     1
  9
$FINGERPRINTGUID
  2
{592755F6-2484-45DF-85C3-0A237C0A3F76}
  9
$VERSIONGUID
  2
{FAEB1C32-E019-11D5-929B-00C0DF256EC4}
  9
$EXTNAMES
290
     1
  9
$PSVPSCALE
 40
0.0
  9
$OLESTARTUP
290
     0
  9
$SORTENTS
280
   127
  9
$INDEXCTL
280
     0
  9
$HIDETEXT
280
     1
  9
$XCLIPFRAME
290
     0
  9
$HALOGAP
280
     0
  9
$OBSCOLOR
 70
   257
  9
$OBSLTYPE
280
     0
  9
$INTERSECTIONDISPLAY
280
     0
  9
$INTERSECTIONCOLOR
 70
   257
  9
$DIMASSOC
280
     2
  9
$PROJECTNAME
  1

  0
ENDSEC
  0
SECTION
  2
CLASSES
  0
CLASS
  1
ACDBDICTIONARYWDFLT
  2
AcDbDictionaryWithDefault
  3
ObjectDBX Classes
 90
        0
 91
        4
280
     0
281
     0
  0
CLASS
  1
VISUALSTYLE
  2
AcDbVisualStyle
  3
ObjectDBX Classes
 90
     4095
 91
        4
280
     0
281
     0
  0
CLASS
  1
MATERIAL
  2
AcDbMaterial
  3
ObjectDBX Classes
 90
     1153
 91
        4
280
     0
281
     0
  0
CLASS
  1
SCALE
  2
AcDbScale
  3
ObjectDBX Classes
 90
     1153
 91
        4
280
     0
281
     0
  0
CLASS
  1
SUN
  2
AcDbSun
  3
SCENEOE
 90
     1153
 91
        4
280
     0
281
     0
  0
CLASS
  1
DICTIONARYVAR
  2
AcDbDictionaryVar
  3
ObjectDBX Classes
 90
        0
 91
        4
280
     0
281
     0
  0
ENDSEC
  0
SECTION
  2
TABLES
  0
TABLE
  2
VPORT
  5
8
330
0
100
AcDbSymbolTable
 70
     1
  0
VPORT
  5
29
330
8
100
AcDbSymbolTableRecord
100
AcDbViewportTableRecord
  2
*Active
 70
     0
 10
0.0
 20
0.0
 11
1.0
 21
1.0
 12
336.3360057674972
 22
268.3446144398105
 13
0.0
 23
0.0
 14
0.5
 24
0.5
 15
0.5
 25
0.5
 16
0.0
 26
0.0
 36
1.0
 17
0.0
 27
0.0
 37
0.0
 40
612.0
 41
0.5111425301558941
 42
50.0
 43
0.0
 44
0.0
 50
0.0
 51
0.0
 71
     0
 72
   100
 73
     1
 74
     3
 75
     0
 76
     0
 77
     0
 78
     0
281
     0
 65
     1
110
0.0
120
0.0
130
0.0
111
1.0
121
0.0
131
0.0
112
0.0
122
1.0
132
0.0
 79
     0
146
0.0
  0
ENDTAB
  0
TABLE
  2
LTYPE
  5
5
330
0
100
AcDbSymbolTable
 70
     1
  0
LTYPE
  5
14
330
5
100
AcDbSymbolTableRecord
100
AcDbLinetypeTableRecord
  2
ByBlock
 70
     0
  3

 72
    65
 73
     0
 40
0.0
  0
LTYPE
  5
15
330
5
100
AcDbSymbolTableRecord
100
AcDbLinetypeTableRecord
  2
ByLayer
 70
     0
  3

 72
    65
 73
     0
 40
0.0
  0
LTYPE
  5
16
330
5
100
AcDbSymbolTableRecord
100
AcDbLinetypeTableRecord
  2
Continuous
 70
     0
  3
Solid line
 72
    65
 73
     0
 40
0.0
  0
ENDTAB
  0
TABLE
  2
LAYER
  5
2
330
0
100
AcDbSymbolTable
 70
     3
  0
LAYER
  5
10
330
2
100
AcDbSymbolTableRecord
100
AcDbLayerTableRecord
  2
0
 70
     0
 62
     7
  6
Continuous
370
    -3
390
F
  0
LAYER
  5
6A
330
2
100
AcDbSymbolTableRecord
100
AcDbLayerTableRecord
  2
material
 70
     0
 62
     1
420
 16711680
  6
Continuous
370
    -3
390
F
  0
LAYER
  5
6F
330
2
100
AcDbSymbolTableRecord
100
AcDbLayerTableRecord
  2
cut_out
 70
     0
 62
     5
420
      255
  6
Continuous
370
    -3
390
F
  0
ENDTAB
  0
TABLE
  2
STYLE
  5
3
330
0
100
AcDbSymbolTable
 70
     1
  0
STYLE
  5
11
330
3
100
AcDbSymbolTableRecord
100
AcDbTextStyleTableRecord
  2
Standard
 70
     0
 40
0.0
 41
1.0
 50
0.0
 71
     0
 42
0.2
  3
txt
  4

  0
ENDTAB
  0
TABLE
  2
VIEW
  5
6
330
0
100
AcDbSymbolTable
 70
     0
  0
ENDTAB
  0
TABLE
  2
UCS
  5
7
330
0
100
AcDbSymbolTable
 70
     0
  0
ENDTAB
  0
TABLE
  2
APPID
  5
9
330
0
100
AcDbSymbolTable
 70
     1
  0
APPID
  5
12
330
9
100
AcDbSymbolTableRecord
100
AcDbRegAppTableRecord
  2
ACAD
 70
     0
  0
ENDTAB
  0
TABLE
  2
DIMSTYLE
  5
A
330
0
100
AcDbSymbolTable
 70
     1
100
AcDbDimStyleTable
  0
DIMSTYLE
105
27
330
A
100
AcDbSymbolTableRecord
100
AcDbDimStyleTableRecord
  2
Standard
 70
     0
178
     0
340
11
  0
ENDTAB
  0
TABLE
  2
BLOCK_RECORD
  5
1
330
0
100
AcDbSymbolTable
 70
     1
  0
BLOCK_RECORD
  5
1F
330
1
100
AcDbSymbolTableRecord
100
AcDbBlockTableRecord
  2
*Model_Space
340
22
  0
BLOCK_RECORD
  5
1B
330
1
100
AcDbSymbolTableRecord
100
AcDbBlockTableRecord
  2
*Paper_Space
340
1E
  0
BLOCK_RECORD
  5
23
330
1
100
AcDbSymbolTableRecord
100
AcDbBlockTableRecord
  2
*Paper_Space0
340
26
  0
ENDTAB
  0
ENDSEC
  0
SECTION
  2
BLOCKS
  0
BLOCK
  5
20
330
1F
100
AcDbEntity
  8
0
100
AcDbBlockBegin
  2
*Model_Space
 70
     0
 10
0.0
 20
0.0
 30
0.0
  3
*Model_Space
  1
*Model_Space
  0
ENDBLK
  5
21
330
1F
100
AcDbEntity
  8
0
100
AcDbBlockEnd
  0
BLOCK
  5
1C
330
1B
100
AcDbEntity
 67
     1
  8
0
100
AcDbBlockBegin
  2
*Paper_Space
 70
     0
 10
0.0
 20
0.0
 30
0.0
  3
*Paper_Space
  1
*Paper_Space
  0
ENDBLK
  5
1D
330
1B
100
AcDbEntity
 67
     1
  8
0
100
AcDbBlockEnd
  0
BLOCK
  5
24
330
23
100
AcDbEntity
  8
0
100
AcDbBlockBegin
  2
*Paper_Space0
 70
     0
 10
0.0
 20
0.0
 30
0.0
  3
*Paper_Space0
  1
*Paper_Space0
  0
ENDBLK
  5
25
330
23
100
AcDbEntity
  8
0
100
AcDbBlockEnd
  0
ENDSEC
  0
SECTION
  2
ENTITIES
  0
LINE
  5
6B
330
1F
100
AcDbEntity
  8
material
100
AcDbLine
 10
189.6787648142655
 20
-31.65538556018952
 30
0.0
 11
489.6787648142655
 21
-31.65538556018952
 31
0.0
  0
LINE
  5
6C
330
1F
100
AcDbEntity
  8
material
100
AcDbLine
 10
489.6787648142655
 20
-31.65538556018952
 30
0.0
 11
489.6787648142655
 21
568.3446144398105
 31
0.0
  0
LINE
  5
6D
330
1F
100
AcDbEntity
  8
material
100
AcDbLine
 10
489.6787648142655
 20
568.3446144398105
 30
0.0
 11
189.6787648142655
 21
568.3446144398105
 31
0.0
  0
LINE
  5
6E
330
1F
100
AcDbEntity
  8
material
100
AcDbLine
 10
189.6787648142655
 20
568.3446144398105
 30
0.0
 11
189.6787648142655
 21
-31.65538556018952
 31
0.0
  0
LINE
  5
70
330
1F
100
AcDbEntity
  8
cut_out
100
AcDbLine
 10
185.3009127018639
 20
23.07484729685127
 30
0.0
 11
185.3009127018639
 21
22.88484729685127
 31
0.0
  0
LINE
  5
71
330
1F
100
AcDbEntity
  8
cut_out
100
AcDbLine
 10
185.3009127018639
 20
25.68484729685127
 30
0.0
 11
185.3009127018639
 21
25.49484729685127
 31
0.0
  0
LINE
  5
72
330
1F
100
AcDbEntity
  8
cut_out
100
AcDbLine
 10
182.993246720729
 20
22.88484729685127
 30
0.0
 11
182.993246720729
 21
25.68484729685127
 31
0.0
  0
LINE
  5
73
330
1F
100
AcDbEntity
  8
cut_out
100
AcDbLine
 10
243.7451771326667
 20
69.60632844753246
 30
0.0
 11
278.3002170318059
 21
83.99049374645497
 31
0.0
  0
LINE
  5
74
330
1F
100
AcDbEntity
  8
cut_out
100
AcDbLine
 10
278.3002170318059
 20
83.99049374645497
 30
0.0
 11
275.1700584193635
 21
91.51006498995865
 31
0.0
  0
LINE
  5
75
330
1F
100
AcDbEntity
  8
cut_out
100
AcDbLine
 10
275.1700584193635
 20
91.51006498995865
 30
0.0
 11
273.5879720444261
 21
92.16214067746557
 31
0.0
  0
LINE
  5
76
330
1F
100
AcDbEntity
  8
cut_out
100
AcDbLine
 10
273.5879720444261
 20
92.16214067746557
 30
0.0
 11
259.3280603205314
 21
86.22619246316025
 31
0.0
  0
LINE
  5
77
330
1F
100
AcDbEntity
  8
cut_out
100
AcDbLine
 10
259.3280603205314
 20
86.22619246316025
 30
0.0
 11
258.3980496331011
 21
88.46035452560461
 31
0.0
  0
LINE
  5
78
330
1F
100
AcDbEntity
  8
cut_out
100
AcDbLine
 10
258.3980496331011
 20
88.46035452560461
 30
0.0
 11
272.6579613569958
 21
94.39630273990996
 31
0.0
  0
LINE
  5
79
330
1F
100
AcDbEntity
  8
cut_out
100
AcDbLine
 10
272.6579613569958
 20
94.39630273990996
 30
0.0
 11
273.3100370445028
 21
95.97838911484725
 31
0.0
  0
LINE
  5
7A
330
1F
100
AcDbEntity
  8
cut_out
100
AcDbLine
 10
273.3100370445028
 20
95.97838911484725
 30
0.0
 11
270.1798784320604
 21
103.4979603583511
 31
0.0
  0
LINE
  5
7B
330
1F
100
AcDbEntity
  8
cut_out
100
AcDbLine
 10
270.1798784320604
 20
103.4979603583511
 30
0.0
 11
235.6248385329212
 21
89.11379505942858
 31
0.0
  0
LINE
  5
7C
330
1F
100
AcDbEntity
  8
cut_out
100
AcDbLine
 10
235.6248385329212
 20
89.11379505942858
 30
0.0
 11
201.0697986337821
 21
74.72962976050611
 31
0.0
  0
LINE
  5
7D
330
1F
100
AcDbEntity
  8
cut_out
100
AcDbLine
 10
201.0697986337821
 20
74.72962976050611
 30
0.0
 11
204.1999572462246
 21
67.21005851700224
 31
0.0
  0
LINE
  5
7E
330
1F
100
AcDbEntity
  8
cut_out
100
AcDbLine
 10
204.1999572462246
 20
67.21005851700224
 30
0.0
 11
205.7820436211619
 21
66.55798282949533
 31
0.0
  0
LINE
  5
7F
330
1F
100
AcDbEntity
  8
cut_out
100
AcDbLine
 10
205.7820436211619
 20
66.55798282949533
 30
0.0
 11
220.0419553450566
 21
72.49393104380067
 31
0.0
  0
LINE
  5
80
330
1F
100
AcDbEntity
  8
cut_out
100
AcDbLine
 10
220.0419553450566
 20
72.49393104380067
 30
0.0
 11
220.971966032487
 21
70.25976898135627
 31
0.0
  0
LINE
  5
81
330
1F
100
AcDbEntity
  8
cut_out
100
AcDbLine
 10
220.971966032487
 20
70.25976898135627
 30
0.0
 11
206.7120543085923
 21
64.32382076705093
 31
0.0
  0
LINE
  5
82
330
1F
100
AcDbEntity
  8
cut_out
100
AcDbLine
 10
206.7120543085923
 20
64.32382076705093
 30
0.0
 11
206.0599786210852
 21
62.74173439211367
 31
0.0
  0
LINE
  5
83
330
1F
100
AcDbEntity
  8
cut_out
100
AcDbLine
 10
206.0599786210852
 20
62.74173439211367
 30
0.0
 11
209.1901372335276
 21
55.22216314860999
 31
0.0
  0
LINE
  5
84
330
1F
100
AcDbEntity
  8
cut_out
100
AcDbLine
 10
209.1901372335276
 20
55.22216314860999
 30
0.0
 11
243.7451771326667
 21
69.60632844753246
 31
0.0
  0
LINE
  5
85
330
1F
100
AcDbEntity
  8
cut_out
100
AcDbLine
 10
259.0566824792517
 20
147.6927184541508
 30
0.0
 11
268.6217471813306
 21
164.2598964958353
 31
0.0
  0
LINE
  5
86
330
1F
100
AcDbEntity
  8
cut_out
100
AcDbLine
 10
268.6217471813306
 20
164.2598964958353
 30
0.0
 11
261.5679266939011
 21
168.3324216530681
 31
0.0
  0
LINE
  5
87
330
1F
100
AcDbEntity
  8
cut_out
100
AcDbLine
 10
261.5679266939011
 20
168.3324216530681
 30
0.0
 11
259.9150359553219
 21
167.8895309144889
 31
0.0
  0
LINE
  5
88
330
1F
100
AcDbEntity
  8
cut_out
100
AcDbLine
 10
259.9150359553219
 20
167.8895309144889
 30
0.0
 11
252.1920092886551
 21
154.5128563396127
 31
0.0
  0
LINE
  5
89
330
1F
100
AcDbEntity
  8
cut_out
100
AcDbLine
 10
252.1920092886551
 20
154.5128563396127
 30
0.0
 11
250.0962278114967
 21
155.7228563396127
 31
0.0
  0
LINE
  5
8A
330
1F
100
AcDbEntity
  8
cut_out
100
AcDbLine
 10
250.0962278114967
 20
155.7228563396127
 30
0.0
 11
257.8192544781635
 21
169.0995309144889
 31
0.0
  0
LINE
  5
8B
330
1F
100
AcDbEntity
  8
cut_out
100
AcDbLine
 10
257.8192544781635
 20
169.0995309144889
 30
0.0
 11
257.3763637395843
 21
170.7524216530681
 31
0.0
  0
LINE
  5
8C
330
1F
100
AcDbEntity
  8
cut_out
100
AcDbLine
 10
257.3763637395843
 20
170.7524216530681
 30
0.0
 11
250.3225432521547
 21
174.8249468103008
 31
0.0
  0
LINE
  5
8D
330
1F
100
AcDbEntity
  8
cut_out
100
AcDbLine
 10
250.3225432521547
 20
174.8249468103008
 30
0.0
 11
240.7574785500757
 21
158.2577687686164
 31
0.0
  0
LINE
  5
8E
330
1F
100
AcDbEntity
  8
cut_out
100
AcDbLine
 10
240.7574785500757
 20
158.2577687686164
 30
0.0
 11
231.1924138479967
 21
174.8249468103008
 31
0.0
  0
LINE
  5
8F
330
1F
100
AcDbEntity
  8
cut_out
100
AcDbLine
 10
231.1924138479967
 20
174.8249468103008
 30
0.0
 11
224.1385933605671
 21
170.7524216530681
 31
0.0
  0
LINE
  5
90
330
1F
100
AcDbEntity
  8
cut_out
100
AcDbLine
 10
224.1385933605671
 20
170.7524216530681
 30
0.0
 11
223.6957026219879
 21
169.0995309144889
 31
0.0
  0
LINE
  5
91
330
1F
100
AcDbEntity
  8
cut_out
100
AcDbLine
 10
223.6957026219879
 20
169.0995309144889
 30
0.0
 11
231.4187292886547
 21
155.7228563396127
 31
0.0
  0
LINE
  5
92
330
1F
100
AcDbEntity
  8
cut_out
100
AcDbLine
 10
231.4187292886547
 20
155.7228563396127
 30
0.0
 11
229.3229478114964
 21
154.5128563396127
 31
0.0
  0
LINE
  5
93
330
1F
100
AcDbEntity
  8
cut_out
100
AcDbLine
 10
229.3229478114964
 20
154.5128563396127
 30
0.0
 11
221.5999211448296
 21
167.8895309144889
 31
0.0
  0
LINE
  5
94
330
1F
100
AcDbEntity
  8
cut_out
100
AcDbLine
 10
221.5999211448296
 20
167.8895309144889
 30
0.0
 11
219.9470304062504
 21
168.3324216530681
 31
0.0
  0
LINE
  5
95
330
1F
100
AcDbEntity
  8
cut_out
100
AcDbLine
 10
219.9470304062504
 20
168.3324216530681
 30
0.0
 11
212.8932099188208
 21
164.2598964958353
 31
0.0
  0
LINE
  5
96
330
1F
100
AcDbEntity
  8
cut_out
100
AcDbLine
 10
212.8932099188208
 20
164.2598964958353
 30
0.0
 11
222.4582746208998
 21
147.6927184541508
 31
0.0
  0
LINE
  5
97
330
1F
100
AcDbEntity
  8
cut_out
100
AcDbLine
 10
222.4582746208998
 20
147.6927184541508
 30
0.0
 11
203.3281452167418
 21
147.6927184541508
 31
0.0
  0
LINE
  5
98
330
1F
100
AcDbEntity
  8
cut_out
100
AcDbLine
 10
203.3281452167418
 20
147.6927184541508
 30
0.0
 11
203.3281452167418
 21
139.5476681396852
 31
0.0
  0
LINE
  5
99
330
1F
100
AcDbEntity
  8
cut_out
100
AcDbLine
 10
203.3281452167418
 20
139.5476681396852
 30
0.0
 11
204.5381452167418
 21
138.3376681396852
 31
0.0
  0
LINE
  5
9A
330
1F
100
AcDbEntity
  8
cut_out
100
AcDbLine
 10
204.5381452167418
 20
138.3376681396852
 30
0.0
 11
219.9841985500754
 21
138.3376681396852
 31
0.0
  0
LINE
  5
9B
330
1F
100
AcDbEntity
  8
cut_out
100
AcDbLine
 10
219.9841985500754
 20
138.3376681396852
 30
0.0
 11
219.9841985500754
 21
135.9176681396852
 31
0.0
  0
LINE
  5
9C
330
1F
100
AcDbEntity
  8
cut_out
100
AcDbLine
 10
219.9841985500754
 20
135.9176681396852
 30
0.0
 11
204.5381452167418
 21
135.9176681396852
 31
0.0
  0
LINE
  5
9D
330
1F
100
AcDbEntity
  8
cut_out
100
AcDbLine
 10
204.5381452167418
 20
135.9176681396852
 30
0.0
 11
203.3281452167418
 21
134.7076681396852
 31
0.0
  0
LINE
  5
9E
330
1F
100
AcDbEntity
  8
cut_out
100
AcDbLine
 10
203.3281452167418
 20
134.7076681396852
 30
0.0
 11
203.3281452167418
 21
126.5626178252197
 31
0.0
  0
LINE
  5
9F
330
1F
100
AcDbEntity
  8
cut_out
100
AcDbLine
 10
203.3281452167418
 20
126.5626178252197
 30
0.0
 11
222.4582746208998
 21
126.5626178252197
 31
0.0
  0
LINE
  5
A0
330
1F
100
AcDbEntity
  8
cut_out
100
AcDbLine
 10
222.4582746208998
 20
126.5626178252197
 30
0.0
 11
212.8932099188208
 21
109.9954397835351
 31
0.0
  0
LINE
  5
A1
330
1F
100
AcDbEntity
  8
cut_out
100
AcDbLine
 10
212.8932099188208
 20
109.9954397835351
 30
0.0
 11
219.9470304062503
 21
105.9229146263024
 31
0.0
  0
LINE
  5
A2
330
1F
100
AcDbEntity
  8
cut_out
100
AcDbLine
 10
219.9470304062503
 20
105.9229146263024
 30
0.0
 11
221.5999211448296
 21
106.3658053648816
 31
0.0
  0
LINE
  5
A3
330
1F
100
AcDbEntity
  8
cut_out
100
AcDbLine
 10
221.5999211448296
 20
106.3658053648816
 30
0.0
 11
229.3229478114964
 21
119.7424799397577
 31
0.0
  0
LINE
  5
A4
330
1F
100
AcDbEntity
  8
cut_out
100
AcDbLine
 10
229.3229478114964
 20
119.7424799397577
 30
0.0
 11
231.4187292886547
 21
118.5324799397577
 31
0.0
  0
LINE
  5
A5
330
1F
100
AcDbEntity
  8
cut_out
100
AcDbLine
 10
231.4187292886547
 20
118.5324799397577
 30
0.0
 11
223.6957026219879
 21
105.1558053648815
 31
0.0
  0
LINE
  5
A6
330
1F
100
AcDbEntity
  8
cut_out
100
AcDbLine
 10
223.6957026219879
 20
105.1558053648815
 30
0.0
 11
224.1385933605671
 21
103.5029146263023
 31
0.0
  0
LINE
  5
A7
330
1F
100
AcDbEntity
  8
cut_out
100
AcDbLine
 10
224.1385933605671
 20
103.5029146263023
 30
0.0
 11
231.1924138479967
 21
99.43038946906958
 31
0.0
  0
LINE
  5
A8
330
1F
100
AcDbEntity
  8
cut_out
100
AcDbLine
 10
231.1924138479967
 20
99.43038946906958
 30
0.0
 11
240.7574785500757
 21
115.997567510754
 31
0.0
  0
LINE
  5
A9
330
1F
100
AcDbEntity
  8
cut_out
100
AcDbLine
 10
240.7574785500757
 20
115.997567510754
 30
0.0
 11
250.3225432521547
 21
99.43038946906958
 31
0.0
  0
LINE
  5
AA
330
1F
100
AcDbEntity
  8
cut_out
100
AcDbLine
 10
250.3225432521547
 20
99.43038946906958
 30
0.0
 11
257.3763637395843
 21
103.5029146263023
 31
0.0
  0
LINE
  5
AB
330
1F
100
AcDbEntity
  8
cut_out
100
AcDbLine
 10
257.3763637395843
 20
103.5029146263023
 30
0.0
 11
257.8192544781635
 21
105.1558053648815
 31
0.0
  0
LINE
  5
AC
330
1F
100
AcDbEntity
  8
cut_out
100
AcDbLine
 10
257.8192544781635
 20
105.1558053648815
 30
0.0
 11
250.0962278114967
 21
118.5324799397577
 31
0.0
  0
LINE
  5
AD
330
1F
100
AcDbEntity
  8
cut_out
100
AcDbLine
 10
250.0962278114967
 20
118.5324799397577
 30
0.0
 11
252.1920092886551
 21
119.7424799397577
 31
0.0
  0
LINE
  5
AE
330
1F
100
AcDbEntity
  8
cut_out
100
AcDbLine
 10
252.1920092886551
 20
119.7424799397577
 30
0.0
 11
259.9150359553219
 21
106.3658053648816
 31
0.0
  0
LINE
  5
AF
330
1F
100
AcDbEntity
  8
cut_out
100
AcDbLine
 10
259.9150359553219
 20
106.3658053648816
 30
0.0
 11
261.5679266939011
 21
105.9229146263024
 31
0.0
  0
LINE
  5
B0
330
1F
100
AcDbEntity
  8
cut_out
100
AcDbLine
 10
261.5679266939011
 20
105.9229146263024
 30
0.0
 11
268.6217471813306
 21
109.9954397835351
 31
0.0
  0
LINE
  5
B1
330
1F
100
AcDbEntity
  8
cut_out
100
AcDbLine
 10
268.6217471813306
 20
109.9954397835351
 30
0.0
 11
259.0566824792517
 21
126.5626178252197
 31
0.0
  0
LINE
  5
B2
330
1F
100
AcDbEntity
  8
cut_out
100
AcDbLine
 10
259.0566824792517
 20
126.5626178252197
 30
0.0
 11
278.1868118834096
 21
126.5626178252197
 31
0.0
  0
LINE
  5
B3
330
1F
100
AcDbEntity
  8
cut_out
100
AcDbLine
 10
278.1868118834096
 20
126.5626178252197
 30
0.0
 11
278.1868118834096
 21
134.7076681396852
 31
0.0
  0
LINE
  5
B4
330
1F
100
AcDbEntity
  8
cut_out
100
AcDbLine
 10
278.1868118834096
 20
134.7076681396852
 30
0.0
 11
276.9768118834096
 21
135.9176681396852
 31
0.0
  0
LINE
  5
B5
330
1F
100
AcDbEntity
  8
cut_out
100
AcDbLine
 10
276.9768118834096
 20
135.9176681396852
 30
0.0
 11
261.530758550076
 21
135.9176681396852
 31
0.0
  0
LINE
  5
B6
330
1F
100
AcDbEntity
  8
cut_out
100
AcDbLine
 10
261.530758550076
 20
135.9176681396852
 30
0.0
 11
261.530758550076
 21
138.3376681396852
 31
0.0
  0
LINE
  5
B7
330
1F
100
AcDbEntity
  8
cut_out
100
AcDbLine
 10
261.530758550076
 20
138.3376681396852
 30
0.0
 11
276.9768118834096
 21
138.3376681396852
 31
0.0
  0
LINE
  5
B8
330
1F
100
AcDbEntity
  8
cut_out
100
AcDbLine
 10
276.9768118834096
 20
138.3376681396852
 30
0.0
 11
278.1868118834096
 21
139.5476681396852
 31
0.0
  0
LINE
  5
B9
330
1F
100
AcDbEntity
  8
cut_out
100
AcDbLine
 10
278.1868118834096
 20
139.5476681396852
 30
0.0
 11
278.1868118834096
 21
147.6927184541508
 31
0.0
  0
LINE
  5
BA
330
1F
100
AcDbEntity
  8
cut_out
100
AcDbLine
 10
278.1868118834096
 20
147.6927184541508
 30
0.0
 11
259.0566824792517
 21
147.6927184541508
 31
0.0
  0
LINE
  5
BB
330
1F
100
AcDbEntity
  8
cut_out
100
AcDbLine
 10
258.3828890849418
 20
227.0505182175861
 30
0.0
 11
267.9479537870208
 21
243.6176962592706
 31
0.0
  0
LINE
  5
BC
330
1F
100
AcDbEntity
  8
cut_out
100
AcDbLine
 10
267.9479537870208
 20
243.6176962592706
 30
0.0
 11
260.8941332995912
 21
247.6902214165034
 31
0.0
  0
LINE
  5
BD
330
1F
100
AcDbEntity
  8
cut_out
100
AcDbLine
 10
260.8941332995912
 20
247.6902214165034
 30
0.0
 11
259.241242561012
 21
247.2473306779242
 31
0.0
  0
LINE
  5
BE
330
1F
100
AcDbEntity
  8
cut_out
100
AcDbLine
 10
259.241242561012
 20
247.2473306779242
 30
0.0
 11
251.5182158943452
 21
233.870656103048
 31
0.0
  0
LINE
  5
BF
330
1F
100
AcDbEntity
  8
cut_out
100
AcDbLine
 10
251.5182158943452
 20
233.870656103048
 30
0.0
 11
249.4224344171868
 21
235.0806561030481
 31
0.0
  0
LINE
  5
C0
330
1F
100
AcDbEntity
  8
cut_out
100
AcDbLine
 10
249.4224344171868
 20
235.0806561030481
 30
0.0
 11
257.1454610838537
 21
248.4573306779242
 31
0.0
  0
LINE
  5
C1
330
1F
100
AcDbEntity
  8
cut_out
100
AcDbLine
 10
257.1454610838537
 20
248.4573306779242
 30
0.0
 11
256.7025703452745
 21
250.1102214165034
 31
0.0
  0
LINE
  5
C2
330
1F
100
AcDbEntity
  8
cut_out
100
AcDbLine
 10
256.7025703452745
 20
250.1102214165034
 30
0.0
 11
249.6487498578449
 21
254.1827465737362
 31
0.0
  0
LINE
  5
C3
330
1F
100
AcDbEntity
  8
cut_out
100
AcDbLine
 10
249.6487498578449
 20
254.1827465737362
 30
0.0
 11
240.0836851557659
 21
237.6155685320517
 31
0.0
  0
LINE
  5
C4
330
1F
100
AcDbEntity
  8
cut_out
100
AcDbLine
 10
240.0836851557659
 20
237.6155685320517
 30
0.0
 11
230.5186204536869
 21
254.1827465737362
 31
0.0
  0
LINE
  5
C5
330
1F
100
AcDbEntity
  8
cut_out
100
AcDbLine
 10
230.5186204536869
 20
254.1827465737362
 30
0.0
 11
223.4647999662573
 21
250.1102214165034
 31
0.0
  0
LINE
  5
C6
330
1F
100
AcDbEntity
  8
cut_out
100
AcDbLine
 10
223.4647999662573
 20
250.1102214165034
 30
0.0
 11
223.0219092276781
 21
248.4573306779242
 31
0.0
  0
LINE
  5
C7
330
1F
100
AcDbEntity
  8
cut_out
100
AcDbLine
 10
223.0219092276781
 20
248.4573306779242
 30
0.0
 11
230.7449358943449
 21
235.0806561030481
 31
0.0
  0
LINE
  5
C8
330
1F
100
AcDbEntity
  8
cut_out
100
AcDbLine
 10
230.7449358943449
 20
235.0806561030481
 30
0.0
 11
228.6491544171865
 21
233.870656103048
 31
0.0
  0
LINE
  5
C9
330
1F
100
AcDbEntity
  8
cut_out
100
AcDbLine
 10
228.6491544171865
 20
233.870656103048
 30
0.0
 11
220.9261277505197
 21
247.2473306779242
 31
0.0
  0
LINE
  5
CA
330
1F
100
AcDbEntity
  8
cut_out
100
AcDbLine
 10
220.9261277505197
 20
247.2473306779242
 30
0.0
 11
219.2732370119405
 21
247.6902214165034
 31
0.0
  0
LINE
  5
CB
330
1F
100
AcDbEntity
  8
cut_out
100
AcDbLine
 10
219.2732370119405
 20
247.6902214165034
 30
0.0
 11
212.219416524511
 21
243.6176962592706
 31
0.0
  0
LINE
  5
CC
330
1F
100
AcDbEntity
  8
cut_out
100
AcDbLine
 10
212.219416524511
 20
243.6176962592706
 30
0.0
 11
221.7844812265899
 21
227.0505182175861
 31
0.0
  0
LINE
  5
CD
330
1F
100
AcDbEntity
  8
cut_out
100
AcDbLine
 10
221.7844812265899
 20
227.0505182175861
 30
0.0
 11
202.6543518224319
 21
227.0505182175861
 31
0.0
  0
LINE
  5
CE
330
1F
100
AcDbEntity
  8
cut_out
100
AcDbLine
 10
202.6543518224319
 20
227.0505182175861
 30
0.0
 11
202.6543518224319
 21
218.9054679031206
 31
0.0
  0
LINE
  5
CF
330
1F
100
AcDbEntity
  8
cut_out
100
AcDbLine
 10
202.6543518224319
 20
218.9054679031206
 30
0.0
 11
203.864351822432
 21
217.6954679031205
 31
0.0
  0
LINE
  5
D0
330
1F
100
AcDbEntity
  8
cut_out
100
AcDbLine
 10
203.864351822432
 20
217.6954679031205
 30
0.0
 11
219.3104051557655
 21
217.6954679031205
 31
0.0
  0
LINE
  5
D1
330
1F
100
AcDbEntity
  8
cut_out
100
AcDbLine
 10
219.3104051557655
 20
217.6954679031205
 30
0.0
 11
219.3104051557655
 21
215.2754679031206
 31
0.0
  0
LINE
  5
D2
330
1F
100
AcDbEntity
  8
cut_out
100
AcDbLine
 10
219.3104051557655
 20
215.2754679031206
 30
0.0
 11
203.864351822432
 21
215.2754679031206
 31
0.0
  0
LINE
  5
D3
330
1F
100
AcDbEntity
  8
cut_out
100
AcDbLine
 10
203.864351822432
 20
215.2754679031206
 30
0.0
 11
202.6543518224319
 21
214.0654679031205
 31
0.0
  0
LINE
  5
D4
330
1F
100
AcDbEntity
  8
cut_out
100
AcDbLine
 10
202.6543518224319
 20
214.0654679031205
 30
0.0
 11
202.6543518224319
 21
205.920417588655
 31
0.0
  0
LINE
  5
D5
330
1F
100
AcDbEntity
  8
cut_out
100
AcDbLine
 10
202.6543518224319
 20
205.920417588655
 30
0.0
 11
221.7844812265899
 21
205.920417588655
 31
0.0
  0
LINE
  5
D6
330
1F
100
AcDbEntity
  8
cut_out
100
AcDbLine
 10
221.7844812265899
 20
205.920417588655
 30
0.0
 11
212.2194165245109
 21
189.3532395469705
 31
0.0
  0
LINE
  5
D7
330
1F
100
AcDbEntity
  8
cut_out
100
AcDbLine
 10
212.2194165245109
 20
189.3532395469705
 30
0.0
 11
219.2732370119405
 21
185.2807143897377
 31
0.0
  0
LINE
  5
D8
330
1F
100
AcDbEntity
  8
cut_out
100
AcDbLine
 10
219.2732370119405
 20
185.2807143897377
 30
0.0
 11
220.9261277505197
 21
185.7236051283169
 31
0.0
  0
LINE
  5
D9
330
1F
100
AcDbEntity
  8
cut_out
100
AcDbLine
 10
220.9261277505197
 20
185.7236051283169
 30
0.0
 11
228.6491544171865
 21
199.1002797031931
 31
0.0
  0
LINE
  5
DA
330
1F
100
AcDbEntity
  8
cut_out
100
AcDbLine
 10
228.6491544171865
 20
199.1002797031931
 30
0.0
 11
230.7449358943449
 21
197.890279703193
 31
0.0
  0
LINE
  5
DB
330
1F
100
AcDbEntity
  8
cut_out
100
AcDbLine
 10
230.7449358943449
 20
197.890279703193
 30
0.0
 11
223.0219092276781
 21
184.5136051283168
 31
0.0
  0
LINE
  5
DC
330
1F
100
AcDbEntity
  8
cut_out
100
AcDbLine
 10
223.0219092276781
 20
184.5136051283168
 30
0.0
 11
223.4647999662573
 21
182.8607143897377
 31
0.0
  0
LINE
  5
DD
330
1F
100
AcDbEntity
  8
cut_out
100
AcDbLine
 10
223.4647999662573
 20
182.8607143897377
 30
0.0
 11
230.5186204536868
 21
178.7881892325049
 31
0.0
  0
LINE
  5
DE
330
1F
100
AcDbEntity
  8
cut_out
100
AcDbLine
 10
230.5186204536868
 20
178.7881892325049
 30
0.0
 11
240.0836851557658
 21
195.3553672741894
 31
0.0
  0
LINE
  5
DF
330
1F
100
AcDbEntity
  8
cut_out
100
AcDbLine
 10
240.0836851557658
 20
195.3553672741894
 30
0.0
 11
249.6487498578449
 21
178.7881892325049
 31
0.0
  0
LINE
  5
E0
330
1F
100
AcDbEntity
  8
cut_out
100
AcDbLine
 10
249.6487498578449
 20
178.7881892325049
 30
0.0
 11
256.7025703452745
 21
182.8607143897377
 31
0.0
  0
LINE
  5
E1
330
1F
100
AcDbEntity
  8
cut_out
100
AcDbLine
 10
256.7025703452745
 20
182.8607143897377
 30
0.0
 11
257.1454610838537
 21
184.5136051283168
 31
0.0
  0
LINE
  5
E2
330
1F
100
AcDbEntity
  8
cut_out
100
AcDbLine
 10
257.1454610838537
 20
184.5136051283168
 30
0.0
 11
249.4224344171868
 21
197.890279703193
 31
0.0
  0
LINE
  5
E3
330
1F
100
AcDbEntity
  8
cut_out
100
AcDbLine
 10
249.4224344171868
 20
197.890279703193
 30
0.0
 11
251.5182158943452
 21
199.1002797031931
 31
0.0
  0
LINE
  5
E4
330
1F
100
AcDbEntity
  8
cut_out
100
AcDbLine
 10
251.5182158943452
 20
199.1002797031931
 30
0.0
 11
259.241242561012
 21
185.7236051283169
 31
0.0
  0
LINE
  5
E5
330
1F
100
AcDbEntity
  8
cut_out
100
AcDbLine
 10
259.241242561012
 20
185.7236051283169
 30
0.0
 11
260.8941332995912
 21
185.2807143897377
 31
0.0
  0
LINE
  5
E6
330
1F
100
AcDbEntity
  8
cut_out
100
AcDbLine
 10
260.8941332995912
 20
185.2807143897377
 30
0.0
 11
267.9479537870208
 21
189.3532395469705
 31
0.0
  0
LINE
  5
E7
330
1F
100
AcDbEntity
  8
cut_out
100
AcDbLine
 10
267.9479537870208
 20
189.3532395469705
 30
0.0
 11
258.3828890849418
 21
205.920417588655
 31
0.0
  0
LINE
  5
E8
330
1F
100
AcDbEntity
  8
cut_out
100
AcDbLine
 10
258.3828890849418
 20
205.920417588655
 30
0.0
 11
277.5130184890998
 21
205.920417588655
 31
0.0
  0
LINE
  5
E9
330
1F
100
AcDbEntity
  8
cut_out
100
AcDbLine
 10
277.5130184890998
 20
205.920417588655
 30
0.0
 11
277.5130184890998
 21
214.0654679031205
 31
0.0
  0
LINE
  5
EA
330
1F
100
AcDbEntity
  8
cut_out
100
AcDbLine
 10
277.5130184890998
 20
214.0654679031205
 30
0.0
 11
276.3030184890998
 21
215.2754679031206
 31
0.0
  0
LINE
  5
EB
330
1F
100
AcDbEntity
  8
cut_out
100
AcDbLine
 10
276.3030184890998
 20
215.2754679031206
 30
0.0
 11
260.8569651557662
 21
215.2754679031206
 31
0.0
  0
LINE
  5
EC
330
1F
100
AcDbEntity
  8
cut_out
100
AcDbLine
 10
260.8569651557662
 20
215.2754679031206
 30
0.0
 11
260.8569651557662
 21
217.6954679031205
 31
0.0
  0
LINE
  5
ED
330
1F
100
AcDbEntity
  8
cut_out
100
AcDbLine
 10
260.8569651557662
 20
217.6954679031205
 30
0.0
 11
276.3030184890998
 21
217.6954679031205
 31
0.0
  0
LINE
  5
EE
330
1F
100
AcDbEntity
  8
cut_out
100
AcDbLine
 10
276.3030184890998
 20
217.6954679031205
 30
0.0
 11
277.5130184890998
 21
218.9054679031206
 31
0.0
  0
LINE
  5
EF
330
1F
100
AcDbEntity
  8
cut_out
100
AcDbLine
 10
277.5130184890998
 20
218.9054679031206
 30
0.0
 11
277.5130184890998
 21
227.0505182175861
 31
0.0
  0
LINE
  5
F0
330
1F
100
AcDbEntity
  8
cut_out
100
AcDbLine
 10
277.5130184890998
 20
227.0505182175861
 30
0.0
 11
258.3828890849418
 21
227.0505182175861
 31
0.0
  0
LINE
  5
F1
330
1F
100
AcDbEntity
  8
cut_out
100
AcDbLine
 10
255.8229318680705
 20
304.4155289065988
 30
0.0
 11
265.3879965701495
 21
320.9827069482833
 31
0.0
  0
LINE
  5
F2
330
1F
100
AcDbEntity
  8
cut_out
100
AcDbLine
 10
265.3879965701495
 20
320.9827069482833
 30
0.0
 11
258.3341760827199
 21
325.055232105516
 31
0.0
  0
LINE
  5
F3
330
1F
100
AcDbEntity
  8
cut_out
100
AcDbLine
 10
258.3341760827199
 20
325.055232105516
 30
0.0
 11
256.6812853441407
 21
324.6123413669368
 31
0.0
  0
LINE
  5
F4
330
1F
100
AcDbEntity
  8
cut_out
100
AcDbLine
 10
256.6812853441407
 20
324.6123413669368
 30
0.0
 11
248.9582586774739
 21
311.2356667920607
 31
0.0
  0
LINE
  5
F5
330
1F
100
AcDbEntity
  8
cut_out
100
AcDbLine
 10
248.9582586774739
 20
311.2356667920607
 30
0.0
 11
246.8624772003156
 21
312.4456667920607
 31
0.0
  0
LINE
  5
F6
330
1F
100
AcDbEntity
  8
cut_out
100
AcDbLine
 10
246.8624772003156
 20
312.4456667920607
 30
0.0
 11
254.5855038669824
 21
325.8223413669369
 31
0.0
  0
LINE
  5
F7
330
1F
100
AcDbEntity
  8
cut_out
100
AcDbLine
 10
254.5855038669824
 20
325.8223413669369
 30
0.0
 11
254.1426131284032
 21
327.4752321055161
 31
0.0
  0
LINE
  5
F8
330
1F
100
AcDbEntity
  8
cut_out
100
AcDbLine
 10
254.1426131284032
 20
327.4752321055161
 30
0.0
 11
247.0887926409736
 21
331.5477572627489
 31
0.0
  0
LINE
  5
F9
330
1F
100
AcDbEntity
  8
cut_out
100
AcDbLine
 10
247.0887926409736
 20
331.5477572627489
 30
0.0
 11
237.5237279388946
 21
314.9805792210644
 31
0.0
  0
LINE
  5
FA
330
1F
100
AcDbEntity
  8
cut_out
100
AcDbLine
 10
237.5237279388946
 20
314.9805792210644
 30
0.0
 11
227.9586632368156
 21
331.5477572627489
 31
0.0
  0
LINE
  5
FB
330
1F
100
AcDbEntity
  8
cut_out
100
AcDbLine
 10
227.9586632368156
 20
331.5477572627489
 30
0.0
 11
220.904842749386
 21
327.4752321055161
 31
0.0
  0
LINE
  5
FC
330
1F
100
AcDbEntity
  8
cut_out
100
AcDbLine
 10
220.904842749386
 20
327.4752321055161
 30
0.0
 11
220.4619520108068
 21
325.8223413669369
 31
0.0
  0
LINE
  5
FD
330
1F
100
AcDbEntity
  8
cut_out
100
AcDbLine
 10
220.4619520108068
 20
325.8223413669369
 30
0.0
 11
228.1849786774736
 21
312.4456667920607
 31
0.0
  0
LINE
  5
FE
330
1F
100
AcDbEntity
  8
cut_out
100
AcDbLine
 10
228.1849786774736
 20
312.4456667920607
 30
0.0
 11
226.0891972003152
 21
311.2356667920607
 31
0.0
  0
LINE
  5
FF
330
1F
100
AcDbEntity
  8
cut_out
100
AcDbLine
 10
226.0891972003152
 20
311.2356667920607
 30
0.0
 11
218.3661705336484
 21
324.6123413669368
 31
0.0
  0
LINE
  5
100
330
1F
100
AcDbEntity
  8
cut_out
100
AcDbLine
 10
218.3661705336484
 20
324.6123413669368
 30
0.0
 11
216.7132797950693
 21
325.055232105516
 31
0.0
  0
LINE
  5
101
330
1F
100
AcDbEntity
  8
cut_out
100
AcDbLine
 10
216.7132797950693
 20
325.055232105516
 30
0.0
 11
209.6594593076397
 21
320.9827069482833
 31
0.0
  0
LINE
  5
102
330
1F
100
AcDbEntity
  8
cut_out
100
AcDbLine
 10
209.6594593076397
 20
320.9827069482833
 30
0.0
 11
219.2245240097187
 21
304.4155289065988
 31
0.0
  0
LINE
  5
103
330
1F
100
AcDbEntity
  8
cut_out
100
AcDbLine
 10
219.2245240097187
 20
304.4155289065988
 30
0.0
 11
200.0943946055607
 21
304.4155289065988
 31
0.0
  0
LINE
  5
104
330
1F
100
AcDbEntity
  8
cut_out
100
AcDbLine
 10
200.0943946055607
 20
304.4155289065988
 30
0.0
 11
200.0943946055607
 21
296.2704785921333
 31
0.0
  0
LINE
  5
105
330
1F
100
AcDbEntity
  8
cut_out
100
AcDbLine
 10
200.0943946055607
 20
296.2704785921333
 30
0.0
 11
201.3043946055607
 21
295.0604785921332
 31
0.0
  0
LINE
  5
106
330
1F
100
AcDbEntity
  8
cut_out
100
AcDbLine
 10
201.3043946055607
 20
295.0604785921332
 30
0.0
 11
216.7504479388943
 21
295.0604785921332
 31
0.0
  0
LINE
  5
107
330
1F
100
AcDbEntity
  8
cut_out
100
AcDbLine
 10
216.7504479388943
 20
295.0604785921332
 30
0.0
 11
216.7504479388943
 21
292.6404785921332
 31
0.0
  0
LINE
  5
108
330
1F
100
AcDbEntity
  8
cut_out
100
AcDbLine
 10
216.7504479388943
 20
292.6404785921332
 30
0.0
 11
201.3043946055607
 21
292.6404785921332
 31
0.0
  0
LINE
  5
109
330
1F
100
AcDbEntity
  8
cut_out
100
AcDbLine
 10
201.3043946055607
 20
292.6404785921332
 30
0.0
 11
200.0943946055607
 21
291.4304785921332
 31
0.0
  0
LINE
  5
10A
330
1F
100
AcDbEntity
  8
cut_out
100
AcDbLine
 10
200.0943946055607
 20
291.4304785921332
 30
0.0
 11
200.0943946055607
 21
283.2854282776677
 31
0.0
  0
LINE
  5
10B
330
1F
100
AcDbEntity
  8
cut_out
100
AcDbLine
 10
200.0943946055607
 20
283.2854282776677
 30
0.0
 11
219.2245240097187
 21
283.2854282776677
 31
0.0
  0
LINE
  5
10C
330
1F
100
AcDbEntity
  8
cut_out
100
AcDbLine
 10
219.2245240097187
 20
283.2854282776677
 30
0.0
 11
209.6594593076397
 21
266.7182502359831
 31
0.0
  0
LINE
  5
10D
330
1F
100
AcDbEntity
  8
cut_out
100
AcDbLine
 10
209.6594593076397
 20
266.7182502359831
 30
0.0
 11
216.7132797950692
 21
262.6457250787504
 31
0.0
  0
LINE
  5
10E
330
1F
100
AcDbEntity
  8
cut_out
100
AcDbLine
 10
216.7132797950692
 20
262.6457250787504
 30
0.0
 11
218.3661705336484
 21
263.0886158173296
 31
0.0
  0
LINE
  5
10F
330
1F
100
AcDbEntity
  8
cut_out
100
AcDbLine
 10
218.3661705336484
 20
263.0886158173296
 30
0.0
 11
226.0891972003152
 21
276.4652903922058
 31
0.0
  0
LINE
  5
110
330
1F
100
AcDbEntity
  8
cut_out
100
AcDbLine
 10
226.0891972003152
 20
276.4652903922058
 30
0.0
 11
228.1849786774736
 21
275.2552903922057
 31
0.0
  0
LINE
  5
111
330
1F
100
AcDbEntity
  8
cut_out
100
AcDbLine
 10
228.1849786774736
 20
275.2552903922057
 30
0.0
 11
220.4619520108068
 21
261.8786158173295
 31
0.0
  0
LINE
  5
112
330
1F
100
AcDbEntity
  8
cut_out
100
AcDbLine
 10
220.4619520108068
 20
261.8786158173295
 30
0.0
 11
220.904842749386
 21
260.2257250787503
 31
0.0
  0
LINE
  5
113
330
1F
100
AcDbEntity
  8
cut_out
100
AcDbLine
 10
220.904842749386
 20
260.2257250787503
 30
0.0
 11
227.9586632368156
 21
256.1531999215176
 31
0.0
  0
LINE
  5
114
330
1F
100
AcDbEntity
  8
cut_out
100
AcDbLine
 10
227.9586632368156
 20
256.1531999215176
 30
0.0
 11
237.5237279388946
 21
272.7203779632021
 31
0.0
  0
LINE
  5
115
330
1F
100
AcDbEntity
  8
cut_out
100
AcDbLine
 10
237.5237279388946
 20
272.7203779632021
 30
0.0
 11
247.0887926409736
 21
256.1531999215176
 31
0.0
  0
LINE
  5
116
330
1F
100
AcDbEntity
  8
cut_out
100
AcDbLine
 10
247.0887926409736
 20
256.1531999215176
 30
0.0
 11
254.1426131284032
 21
260.2257250787503
 31
0.0
  0
LINE
  5
117
330
1F
100
AcDbEntity
  8
cut_out
100
AcDbLine
 10
254.1426131284032
 20
260.2257250787503
 30
0.0
 11
254.5855038669824
 21
261.8786158173295
 31
0.0
  0
LINE
  5
118
330
1F
100
AcDbEntity
  8
cut_out
100
AcDbLine
 10
254.5855038669824
 20
261.8786158173295
 30
0.0
 11
246.8624772003156
 21
275.2552903922057
 31
0.0
  0
LINE
  5
119
330
1F
100
AcDbEntity
  8
cut_out
100
AcDbLine
 10
246.8624772003156
 20
275.2552903922057
 30
0.0
 11
248.9582586774739
 21
276.4652903922058
 31
0.0
  0
LINE
  5
11A
330
1F
100
AcDbEntity
  8
cut_out
100
AcDbLine
 10
248.9582586774739
 20
276.4652903922058
 30
0.0
 11
256.6812853441407
 21
263.0886158173296
 31
0.0
  0
LINE
  5
11B
330
1F
100
AcDbEntity
  8
cut_out
100
AcDbLine
 10
256.6812853441407
 20
263.0886158173296
 30
0.0
 11
258.3341760827199
 21
262.6457250787504
 31
0.0
  0
LINE
  5
11C
330
1F
100
AcDbEntity
  8
cut_out
100
AcDbLine
 10
258.3341760827199
 20
262.6457250787504
 30
0.0
 11
265.3879965701495
 21
266.7182502359831
 31
0.0
  0
LINE
  5
11D
330
1F
100
AcDbEntity
  8
cut_out
100
AcDbLine
 10
265.3879965701495
 20
266.7182502359831
 30
0.0
 11
255.8229318680705
 21
283.2854282776677
 31
0.0
  0
LINE
  5
11E
330
1F
100
AcDbEntity
  8
cut_out
100
AcDbLine
 10
255.8229318680705
 20
283.2854282776677
 30
0.0
 11
274.9530612722285
 21
283.2854282776677
 31
0.0
  0
LINE
  5
11F
330
1F
100
AcDbEntity
  8
cut_out
100
AcDbLine
 10
274.9530612722285
 20
283.2854282776677
 30
0.0
 11
274.9530612722285
 21
291.4304785921332
 31
0.0
  0
LINE
  5
120
330
1F
100
AcDbEntity
  8
cut_out
100
AcDbLine
 10
274.9530612722285
 20
291.4304785921332
 30
0.0
 11
273.7430612722285
 21
292.6404785921332
 31
0.0
  0
LINE
  5
121
330
1F
100
AcDbEntity
  8
cut_out
100
AcDbLine
 10
273.7430612722285
 20
292.6404785921332
 30
0.0
 11
258.2970079388949
 21
292.6404785921332
 31
0.0
  0
LINE
  5
122
330
1F
100
AcDbEntity
  8
cut_out
100
AcDbLine
 10
258.2970079388949
 20
292.6404785921332
 30
0.0
 11
258.2970079388949
 21
295.0604785921332
 31
0.0
  0
LINE
  5
123
330
1F
100
AcDbEntity
  8
cut_out
100
AcDbLine
 10
258.2970079388949
 20
295.0604785921332
 30
0.0
 11
273.7430612722285
 21
295.0604785921332
 31
0.0
  0
LINE
  5
124
330
1F
100
AcDbEntity
  8
cut_out
100
AcDbLine
 10
273.7430612722285
 20
295.0604785921332
 30
0.0
 11
274.9530612722285
 21
296.2704785921333
 31
0.0
  0
LINE
  5
125
330
1F
100
AcDbEntity
  8
cut_out
100
AcDbLine
 10
274.9530612722285
 20
296.2704785921333
 30
0.0
 11
274.9530612722285
 21
304.4155289065988
 31
0.0
  0
LINE
  5
126
330
1F
100
AcDbEntity
  8
cut_out
100
AcDbLine
 10
274.9530612722285
 20
304.4155289065988
 30
0.0
 11
255.8229318680705
 21
304.4155289065988
 31
0.0
  0
LINE
  5
127
330
1F
100
AcDbEntity
  8
cut_out
100
AcDbLine
 10
274.3108226208014
 20
361.7754097054795
 30
0.0
 11
275.1439223245539
 21
364.0474891238995
 31
0.0
  0
LINE
  5
128
330
1F
100
AcDbEntity
  8
cut_out
100
AcDbLine
 10
275.1439223245539
 20
364.0474891238995
 30
0.0
 11
289.6458478925225
 21
358.7300914147488
 31
0.0
  0
LINE
  5
129
330
1F
100
AcDbEntity
  8
cut_out
100
AcDbLine
 10
289.6458478925225
 20
358.7300914147488
 30
0.0
 11
291.1984374536088
 21
359.4495812720826
 31
0.0
  0
LINE
  5
12A
330
1F
100
AcDbEntity
  8
cut_out
100
AcDbLine
 10
291.1984374536088
 20
359.4495812720826
 30
0.0
 11
294.0024205131253
 21
367.0967718429471
 31
0.0
  0
LINE
  5
12B
330
1F
100
AcDbEntity
  8
cut_out
100
AcDbLine
 10
294.0024205131253
 20
367.0967718429471
 30
0.0
 11
272.5136293857529
 21
374.9760323023644
 31
0.0
  0
LINE
  5
12C
330
1F
100
AcDbEntity
  8
cut_out
100
AcDbLine
 10
272.5136293857529
 20
374.9760323023644
 30
0.0
 11
286.6476530362
 21
392.9782617462909
 31
0.0
  0
LINE
  5
12D
330
1F
100
AcDbEntity
  8
cut_out
100
AcDbLine
 10
286.6476530362
 20
392.9782617462909
 30
0.0
 11
280.2412210297585
 21
398.0081199522463
 31
0.0
  0
LINE
  5
12E
330
1F
100
AcDbEntity
  8
cut_out
100
AcDbLine
 10
280.2412210297585
 20
398.0081199522463
 30
0.0
 11
278.5422860173592
 21
397.8036209946857
 31
0.0
  0
LINE
  5
12F
330
1F
100
AcDbEntity
  8
cut_out
100
AcDbLine
 10
278.5422860173592
 20
397.8036209946857
 30
0.0
 11
269.0037988246756
 21
385.6546364424196
 31
0.0
  0
LINE
  5
130
330
1F
100
AcDbEntity
  8
cut_out
100
AcDbLine
 10
269.0037988246756
 20
385.6546364424196
 30
0.0
 11
267.1003648547154
 21
387.1490724972583
 31
0.0
  0
LINE
  5
131
330
1F
100
AcDbEntity
  8
cut_out
100
AcDbLine
 10
267.1003648547154
 20
387.1490724972583
 30
0.0
 11
276.638852047399
 21
399.2980570495243
 31
0.0
  0
LINE
  5
132
330
1F
100
AcDbEntity
  8
cut_out
100
AcDbLine
 10
276.638852047399
 20
399.2980570495243
 30
0.0
 11
276.4343530898382
 21
400.9969920619237
 31
0.0
  0
LINE
  5
133
330
1F
100
AcDbEntity
  8
cut_out
100
AcDbLine
 10
276.4343530898382
 20
400.9969920619237
 30
0.0
 11
270.0279210833967
 21
406.026850267879
 31
0.0
  0
LINE
  5
134
330
1F
100
AcDbEntity
  8
cut_out
100
AcDbLine
 10
270.0279210833967
 20
406.026850267879
 30
0.0
 11
255.8938974329495
 21
388.0246208239525
 31
0.0
  0
LINE
  5
135
330
1F
100
AcDbEntity
  8
cut_out
100
AcDbLine
 10
255.8938974329495
 20
388.0246208239525
 30
0.0
 11
243.1404133193484
 21
407.0298709529906
 31
0.0
  0
LINE
  5
136
330
1F
100
AcDbEntity
  8
cut_out
100
AcDbLine
 10
243.1404133193484
 20
407.0298709529906
 30
0.0
 11
236.3770375332358
 21
402.491303711999
 31
0.0
  0
LINE
  5
137
330
1F
100
AcDbEntity
  8
cut_out
100
AcDbLine
 10
236.3770375332358
 20
402.491303711999
 30
0.0
 11
236.0465278082295
 21
400.8123268444763
 31
0.0
  0
LINE
  5
138
330
1F
100
AcDbEntity
  8
cut_out
100
AcDbLine
 10
236.0465278082295
 20
400.8123268444763
 30
0.0
 11
244.6533440898641
 21
387.9864437532278
 31
0.0
  0
LINE
  5
139
330
1F
100
AcDbEntity
  8
cut_out
100
AcDbLine
 10
244.6533440898641
 20
387.9864437532278
 30
0.0
 11
242.6438574973351
 21
386.6379766107115
 31
0.0
  0
LINE
  5
13A
330
1F
100
AcDbEntity
  8
cut_out
100
AcDbLine
 10
242.6438574973351
 20
386.6379766107115
 30
0.0
 11
234.0370412157005
 21
399.46385970196
 31
0.0
  0
LINE
  5
13B
330
1F
100
AcDbEntity
  8
cut_out
100
AcDbLine
 10
234.0370412157005
 20
399.46385970196
 30
0.0
 11
232.3580643481777
 21
399.7943694269663
 31
0.0
  0
LINE
  5
13C
330
1F
100
AcDbEntity
  8
cut_out
100
AcDbLine
 10
232.3580643481777
 20
399.7943694269663
 30
0.0
 11
225.5946885620652
 21
395.2558021859747
 31
0.0
  0
LINE
  5
13D
330
1F
100
AcDbEntity
  8
cut_out
100
AcDbLine
 10
225.5946885620652
 20
395.2558021859747
 30
0.0
 11
238.3481726756663
 21
376.2505520569367
 31
0.0
  0
LINE
  5
13E
330
1F
100
AcDbEntity
  8
cut_out
100
AcDbLine
 10
238.3481726756663
 20
376.2505520569367
 30
0.0
 11
216.3320623680317
 21
369.9942131574491
 31
0.0
  0
LINE
  5
13F
330
1F
100
AcDbEntity
  8
cut_out
100
AcDbLine
 10
216.3320623680317
 20
369.9942131574491
 30
0.0
 11
218.5584982599677
 21
362.159366136334
 31
0.0
  0
LINE
  5
140
330
1F
100
AcDbEntity
  8
cut_out
100
AcDbLine
 10
218.5584982599677
 20
362.159366136334
 30
0.0
 11
220.0531670287008
 21
361.326200323441
 31
0.0
  0
LINE
  5
141
330
1F
100
AcDbEntity
  8
cut_out
100
AcDbLine
 10
220.0531670287008
 20
361.326200323441
 30
0.0
 11
234.9109592183606
 21
365.5483531895827
 31
0.0
  0
LINE
  5
142
330
1F
100
AcDbEntity
  8
cut_out
100
AcDbLine
 10
234.9109592183606
 20
365.5483531895827
 30
0.0
 11
235.5724621742007
 21
363.2205186079565
 31
0.0
  0
LINE
  5
143
330
1F
100
AcDbEntity
  8
cut_out
100
AcDbLine
 10
235.5724621742007
 20
363.2205186079565
 30
0.0
 11
220.7146699845409
 21
358.9983657418147
 31
0.0
  0
LINE
  5
144
330
1F
100
AcDbEntity
  8
cut_out
100
AcDbLine
 10
220.7146699845409
 20
358.9983657418147
 30
0.0
 11
219.8815041716478
 21
357.5036969730816
 31
0.0
  0
LINE
  5
145
330
1F
100
AcDbEntity
  8
cut_out
100
AcDbLine
 10
219.8815041716478
 20
357.5036969730816
 30
0.0
 11
222.1079400635837
 21
349.6688499519666
 31
0.0
  0
LINE
  5
146
330
1F
100
AcDbEntity
  8
cut_out
100
AcDbLine
 10
222.1079400635837
 20
349.6688499519666
 30
0.0
 11
244.1240503712182
 21
355.9251888514542
 31
0.0
  0
LINE
  5
147
330
1F
100
AcDbEntity
  8
cut_out
100
AcDbLine
 10
244.1240503712182
 20
355.9251888514542
 30
0.0
 11
243.2708300146343
 21
333.0533086373947
 31
0.0
  0
LINE
  5
148
330
1F
100
AcDbEntity
  8
cut_out
100
AcDbLine
 10
243.2708300146343
 20
333.0533086373947
 30
0.0
 11
251.4102188557359
 21
332.7496741226813
 31
0.0
  0
LINE
  5
149
330
1F
100
AcDbEntity
  8
cut_out
100
AcDbLine
 10
251.4102188557359
 20
332.7496741226813
 30
0.0
 11
252.6644846817423
 21
333.9137261995716
 31
0.0
  0
LINE
  5
14A
330
1F
100
AcDbEntity
  8
cut_out
100
AcDbLine
 10
252.6644846817423
 20
333.9137261995716
 30
0.0
 11
253.2402889711002
 21
349.3490432677935
 31
0.0
  0
LINE
  5
14B
330
1F
100
AcDbEntity
  8
cut_out
100
AcDbLine
 10
253.2402889711002
 20
349.3490432677935
 30
0.0
 11
255.6586068739968
 21
349.2588295186775
 31
0.0
  0
LINE
  5
14C
330
1F
100
AcDbEntity
  8
cut_out
100
AcDbLine
 10
255.6586068739968
 20
349.2588295186775
 30
0.0
 11
255.0828025846389
 21
333.8235124504556
 31
0.0
  0
LINE
  5
14D
330
1F
100
AcDbEntity
  8
cut_out
100
AcDbLine
 10
255.0828025846389
 20
333.8235124504556
 30
0.0
 11
256.2468546615294
 21
332.5692466244492
 31
0.0
  0
LINE
  5
14E
330
1F
100
AcDbEntity
  8
cut_out
100
AcDbLine
 10
256.2468546615294
 20
332.5692466244492
 30
0.0
 11
264.3862435026309
 21
332.2656121097358
 31
0.0
  0
LINE
  5
14F
330
1F
100
AcDbEntity
  8
cut_out
100
AcDbLine
 10
264.3862435026309
 20
332.2656121097358
 30
0.0
 11
265.2394638592148
 21
355.1374923237954
 31
0.0
  0
LINE
  5
150
330
1F
100
AcDbEntity
  8
cut_out
100
AcDbLine
 10
265.2394638592148
 20
355.1374923237954
 30
0.0
 11
286.7282549865873
 21
347.2582318643781
 31
0.0
  0
LINE
  5
151
330
1F
100
AcDbEntity
  8
cut_out
100
AcDbLine
 10
286.7282549865873
 20
347.2582318643781
 30
0.0
 11
289.5322380461038
 21
354.9054224352426
 31
0.0
  0
LINE
  5
152
330
1F
100
AcDbEntity
  8
cut_out
100
AcDbLine
 10
289.5322380461038
 20
354.9054224352426
 30
0.0
 11
288.81274818877
 21
356.4580119963288
 31
0.0
  0
LINE
  5
153
330
1F
100
AcDbEntity
  8
cut_out
100
AcDbLine
 10
288.81274818877
 20
356.4580119963288
 30
0.0
 11
274.3108226208014
 21
361.7754097054795
 31
0.0
  0
LINE
  5
154
330
1F
100
AcDbEntity
  8
cut_out
100
AcDbLine
 10
343.1447458587845
 20
105.1227968713163
 30
0.0
 11
337.869568130801
 21
111.3287895045186
 31
0.0
  0
LINE
  5
155
330
1F
100
AcDbEntity
  8
cut_out
100
AcDbLine
 10
337.869568130801
 20
111.3287895045186
 30
0.0
 11
336.1639658814984
 21
111.4670680898963
 31
0.0
  0
LINE
  5
156
330
1F
100
AcDbEntity
  8
cut_out
100
AcDbLine
 10
336.1639658814984
 20
111.4670680898963
 30
0.0
 11
324.3950891406787
 21
101.4633635842854
 31
0.0
  0
LINE
  5
157
330
1F
100
AcDbEntity
  8
cut_out
100
AcDbLine
 10
324.3950891406787
 20
101.4633635842854
 30
0.0
 11
322.827765476754
 21
103.3072444189657
 31
0.0
  0
LINE
  5
158
330
1F
100
AcDbEntity
  8
cut_out
100
AcDbLine
 10
322.827765476754
 20
103.3072444189657
 30
0.0
 11
334.5966422175735
 21
113.3109489245766
 31
0.0
  0
LINE
  5
159
330
1F
100
AcDbEntity
  8
cut_out
100
AcDbLine
 10
334.5966422175735
 20
113.3109489245766
 30
0.0
 11
334.7349208029513
 21
115.0165511738792
 31
0.0
  0
LINE
  5
15A
330
1F
100
AcDbEntity
  8
cut_out
100
AcDbLine
 10
334.7349208029513
 20
115.0165511738792
 30
0.0
 11
329.4597430749678
 21
121.2225438070816
 31
0.0
  0
LINE
  5
15B
330
1F
100
AcDbEntity
  8
cut_out
100
AcDbLine
 10
329.4597430749678
 20
121.2225438070816
 30
0.0
 11
308.9909262997948
 21
103.8237725302857
 31
0.0
  0
LINE
  5
15C
330
1F
100
AcDbEntity
  8
cut_out
100
AcDbLine
 10
308.9909262997948
 20
103.8237725302857
 30
0.0
 11
291.5921550229989
 21
124.2925893054586
 31
0.0
  0
LINE
  5
15D
330
1F
100
AcDbEntity
  8
cut_out
100
AcDbLine
 10
291.5921550229989
 20
124.2925893054586
 30
0.0
 11
285.3861623897966
 21
119.0174115774751
 31
0.0
  0
LINE
  5
15E
330
1F
100
AcDbEntity
  8
cut_out
100
AcDbLine
 10
285.3861623897966
 20
119.0174115774751
 30
0.0
 11
285.2478838044188
 21
117.3118093281725
 31
0.0
  0
LINE
  5
15F
330
1F
100
AcDbEntity
  8
cut_out
100
AcDbLine
 10
285.2478838044188
 20
117.3118093281725
 30
0.0
 11
295.2515883100298
 21
105.5429325873529
 31
0.0
  0
LINE
  5
160
330
1F
100
AcDbEntity
  8
cut_out
100
AcDbLine
 10
295.2515883100298
 20
105.5429325873529
 30
0.0
 11
293.4077074753495
 21
103.9756089234281
 31
0.0
  0
LINE
  5
161
330
1F
100
AcDbEntity
  8
cut_out
100
AcDbLine
 10
293.4077074753495
 20
103.9756089234281
 30
0.0
 11
283.4040029697385
 21
115.7444856642476
 31
0.0
  0
LINE
  5
162
330
1F
100
AcDbEntity
  8
cut_out
100
AcDbLine
 10
283.4040029697385
 20
115.7444856642476
 30
0.0
 11
281.6984007204359
 21
115.8827642496254
 31
0.0
  0
LINE
  5
163
330
1F
100
AcDbEntity
  8
cut_out
100
AcDbLine
 10
281.6984007204359
 20
115.8827642496254
 30
0.0
 11
275.4924080872336
 21
110.6075865216419
 31
0.0
  0
LINE
  5
164
330
1F
100
AcDbEntity
  8
cut_out
100
AcDbLine
 10
275.4924080872336
 20
110.6075865216419
 30
0.0
 11
292.8911793640294
 21
90.13876974646895
 31
0.0
  0
LINE
  5
165
330
1F
100
AcDbEntity
  8
cut_out
100
AcDbLine
 10
292.8911793640294
 20
90.13876974646895
 30
0.0
 11
272.4223625888566
 21
72.73999846967304
 31
0.0
  0
LINE
  5
166
330
1F
100
AcDbEntity
  8
cut_out
100
AcDbLine
 10
272.4223625888566
 20
72.73999846967304
 30
0.0
 11
277.69754031684
 21
66.5340058364707
 31
0.0
  0
LINE
  5
167
330
1F
100
AcDbEntity
  8
cut_out
100
AcDbLine
 10
277.69754031684
 20
66.5340058364707
 30
0.0
 11
279.4031425661426
 21
66.395727251093
 31
0.0
  0
LINE
  5
168
330
1F
100
AcDbEntity
  8
cut_out
100
AcDbLine
 10
279.4031425661426
 20
66.395727251093
 30
0.0
 11
291.1720193069622
 21
76.39943175670395
 31
0.0
  0
LINE
  5
169
330
1F
100
AcDbEntity
  8
cut_out
100
AcDbLine
 10
291.1720193069622
 20
76.39943175670395
 30
0.0
 11
292.739342970887
 21
74.55555092202363
 31
0.0
  0
LINE
  5
16A
330
1F
100
AcDbEntity
  8
cut_out
100
AcDbLine
 10
292.739342970887
 20
74.55555092202363
 30
0.0
 11
280.9704662300675
 21
64.55184641641269
 31
0.0
  0
LINE
  5
16B
330
1F
100
AcDbEntity
  8
cut_out
100
AcDbLine
 10
280.9704662300675
 20
64.55184641641269
 30
0.0
 11
280.8321876446897
 21
62.84624416711006
 31
0.0
  0
LINE
  5
16C
330
1F
100
AcDbEntity
  8
cut_out
100
AcDbLine
 10
280.8321876446897
 20
62.84624416711006
 30
0.0
 11
286.1073653726733
 21
56.64025153390773
 31
0.0
  0
LINE
  5
16D
330
1F
100
AcDbEntity
  8
cut_out
100
AcDbLine
 10
286.1073653726733
 20
56.64025153390773
 30
0.0
 11
306.5761821478462
 21
74.03902281070364
 31
0.0
  0
LINE
  5
16E
330
1F
100
AcDbEntity
  8
cut_out
100
AcDbLine
 10
306.5761821478462
 20
74.03902281070364
 30
0.0
 11
323.9749534246421
 21
53.5702060355307
 31
0.0
  0
LINE
  5
16F
330
1F
100
AcDbEntity
  8
cut_out
100
AcDbLine
 10
323.9749534246421
 20
53.5702060355307
 30
0.0
 11
330.1809460578444
 21
58.84538376351419
 31
0.0
  0
LINE
  5
170
330
1F
100
AcDbEntity
  8
cut_out
100
AcDbLine
 10
330.1809460578444
 20
58.84538376351419
 30
0.0
 11
330.3192246432221
 21
60.55098601281676
 31
0.0
  0
LINE
  5
171
330
1F
100
AcDbEntity
  8
cut_out
100
AcDbLine
 10
330.3192246432221
 20
60.55098601281676
 30
0.0
 11
320.3155201376111
 21
72.31986275363634
 31
0.0
  0
LINE
  5
172
330
1F
100
AcDbEntity
  8
cut_out
100
AcDbLine
 10
320.3155201376111
 20
72.31986275363634
 30
0.0
 11
322.1594009722915
 21
73.88718641756121
 31
0.0
  0
LINE
  5
173
330
1F
100
AcDbEntity
  8
cut_out
100
AcDbLine
 10
322.1594009722915
 20
73.88718641756121
 30
0.0
 11
332.1631054779024
 21
62.1183096767416
 31
0.0
  0
LINE
  5
174
330
1F
100
AcDbEntity
  8
cut_out
100
AcDbLine
 10
332.1631054779024
 20
62.1183096767416
 30
0.0
 11
333.868707727205
 21
61.98003109136386
 31
0.0
  0
LINE
  5
175
330
1F
100
AcDbEntity
  8
cut_out
100
AcDbLine
 10
333.868707727205
 20
61.98003109136386
 30
0.0
 11
340.0747003604073
 21
67.25520881934735
 31
0.0
  0
LINE
  5
176
330
1F
100
AcDbEntity
  8
cut_out
100
AcDbLine
 10
340.0747003604073
 20
67.25520881934735
 30
0.0
 11
322.6759290836115
 21
87.72402559452033
 31
0.0
  0
LINE
  5
177
330
1F
100
AcDbEntity
  8
cut_out
100
AcDbLine
 10
322.6759290836115
 20
87.72402559452033
 30
0.0
 11
343.1447458587845
 21
105.1227968713163
 31
0.0
  0
LINE
  5
178
330
1F
100
AcDbEntity
  8
cut_out
100
AcDbLine
 10
258.7467184944252
 20
34.60930474768289
 30
0.0
 11
268.3117831965042
 21
51.1764827893674
 31
0.0
  0
LINE
  5
179
330
1F
100
AcDbEntity
  8
cut_out
100
AcDbLine
 10
268.3117831965042
 20
51.1764827893674
 30
0.0
 11
261.2579627090746
 21
55.24900794660016
 31
0.0
  0
LINE
  5
17A
330
1F
100
AcDbEntity
  8
cut_out
100
AcDbLine
 10
261.2579627090746
 20
55.24900794660016
 30
0.0
 11
259.6050719704954
 21
54.80611720802096
 31
0.0
  0
LINE
  5
17B
330
1F
100
AcDbEntity
  8
cut_out
100
AcDbLine
 10
259.6050719704954
 20
54.80611720802096
 30
0.0
 11
251.8820453038286
 21
41.42944263314479
 31
0.0
  0
LINE
  5
17C
330
1F
100
AcDbEntity
  8
cut_out
100
AcDbLine
 10
251.8820453038286
 20
41.42944263314479
 30
0.0
 11
249.7862638266703
 21
42.63944263314484
 31
0.0
  0
LINE
  5
17D
330
1F
100
AcDbEntity
  8
cut_out
100
AcDbLine
 10
249.7862638266703
 20
42.63944263314484
 30
0.0
 11
257.5092904933371
 21
56.01611720802102
 31
0.0
  0
LINE
  5
17E
330
1F
100
AcDbEntity
  8
cut_out
100
AcDbLine
 10
257.5092904933371
 20
56.01611720802102
 30
0.0
 11
257.0663997547579
 21
57.6690079466002
 31
0.0
  0
LINE
  5
17F
330
1F
100
AcDbEntity
  8
cut_out
100
AcDbLine
 10
257.0663997547579
 20
57.6690079466002
 30
0.0
 11
250.0125792673283
 21
61.74153310383296
 31
0.0
  0
LINE
  5
180
330
1F
100
AcDbEntity
  8
cut_out
100
AcDbLine
 10
250.0125792673283
 20
61.74153310383296
 30
0.0
 11
240.4475145652493
 21
45.17435506214849
 31
0.0
  0
LINE
  5
181
330
1F
100
AcDbEntity
  8
cut_out
100
AcDbLine
 10
240.4475145652493
 20
45.17435506214849
 30
0.0
 11
230.8824498631703
 21
61.74153310383296
 31
0.0
  0
LINE
  5
182
330
1F
100
AcDbEntity
  8
cut_out
100
AcDbLine
 10
230.8824498631703
 20
61.74153310383296
 30
0.0
 11
223.8286293757407
 21
57.6690079466002
 31
0.0
  0
LINE
  5
183
330
1F
100
AcDbEntity
  8
cut_out
100
AcDbLine
 10
223.8286293757407
 20
57.6690079466002
 30
0.0
 11
223.3857386371615
 21
56.01611720802102
 31
0.0
  0
LINE
  5
184
330
1F
100
AcDbEntity
  8
cut_out
100
AcDbLine
 10
223.3857386371615
 20
56.01611720802102
 30
0.0
 11
231.1087653038283
 21
42.63944263314484
 31
0.0
  0
LINE
  5
185
330
1F
100
AcDbEntity
  8
cut_out
100
AcDbLine
 10
231.1087653038283
 20
42.63944263314484
 30
0.0
 11
229.0129838266699
 21
41.42944263314479
 31
0.0
  0
LINE
  5
186
330
1F
100
AcDbEntity
  8
cut_out
100
AcDbLine
 10
229.0129838266699
 20
41.42944263314479
 30
0.0
 11
221.2899571600031
 21
54.80611720802096
 31
0.0
  0
LINE
  5
187
330
1F
100
AcDbEntity
  8
cut_out
100
AcDbLine
 10
221.2899571600031
 20
54.80611720802096
 30
0.0
 11
219.6370664214239
 21
55.24900794660016
 31
0.0
  0
LINE
  5
188
330
1F
100
AcDbEntity
  8
cut_out
100
AcDbLine
 10
219.6370664214239
 20
55.24900794660016
 30
0.0
 11
212.5832459339944
 21
51.1764827893674
 31
0.0
  0
LINE
  5
189
330
1F
100
AcDbEntity
  8
cut_out
100
AcDbLine
 10
212.5832459339944
 20
51.1764827893674
 30
0.0
 11
222.1483106360733
 21
34.60930474768289
 31
0.0
  0
LINE
  5
18A
330
1F
100
AcDbEntity
  8
cut_out
100
AcDbLine
 10
222.1483106360733
 20
34.60930474768289
 30
0.0
 11
203.0181812319153
 21
34.60930474768289
 31
0.0
  0
LINE
  5
18B
330
1F
100
AcDbEntity
  8
cut_out
100
AcDbLine
 10
203.0181812319153
 20
34.60930474768289
 30
0.0
 11
203.0181812319153
 21
26.46425443321737
 31
0.0
  0
LINE
  5
18C
330
1F
100
AcDbEntity
  8
cut_out
100
AcDbLine
 10
203.0181812319153
 20
26.46425443321737
 30
0.0
 11
204.2281812319154
 21
25.25425443321733
 31
0.0
  0
LINE
  5
18D
330
1F
100
AcDbEntity
  8
cut_out
100
AcDbLine
 10
204.2281812319154
 20
25.25425443321733
 30
0.0
 11
219.6742345652489
 21
25.25425443321733
 31
0.0
  0
LINE
  5
18E
330
1F
100
AcDbEntity
  8
cut_out
100
AcDbLine
 10
219.6742345652489
 20
25.25425443321733
 30
0.0
 11
219.6742345652489
 21
22.83425443321733
 31
0.0
  0
LINE
  5
18F
330
1F
100
AcDbEntity
  8
cut_out
100
AcDbLine
 10
219.6742345652489
 20
22.83425443321733
 30
0.0
 11
204.2281812319154
 21
22.83425443321733
 31
0.0
  0
LINE
  5
190
330
1F
100
AcDbEntity
  8
cut_out
100
AcDbLine
 10
204.2281812319154
 20
22.83425443321733
 30
0.0
 11
203.0181812319153
 21
21.62425443321729
 31
0.0
  0
LINE
  5
191
330
1F
100
AcDbEntity
  8
cut_out
100
AcDbLine
 10
203.0181812319153
 20
21.62425443321729
 30
0.0
 11
203.0181812319153
 21
13.47920411875177
 31
0.0
  0
LINE
  5
192
330
1F
100
AcDbEntity
  8
cut_out
100
AcDbLine
 10
203.0181812319153
 20
13.47920411875177
 30
0.0
 11
222.1483106360733
 21
13.47920411875177
 31
0.0
  0
LINE
  5
193
330
1F
100
AcDbEntity
  8
cut_out
100
AcDbLine
 10
222.1483106360733
 20
13.47920411875177
 30
0.0
 11
212.5832459339943
 21
-3.087973922932745
 31
0.0
  0
LINE
  5
194
330
1F
100
AcDbEntity
  8
cut_out
100
AcDbLine
 10
212.5832459339943
 20
-3.087973922932745
 30
0.0
 11
219.6370664214239
 21
-7.160499080165504
 31
0.0
  0
LINE
  5
195
330
1F
100
AcDbEntity
  8
cut_out
100
AcDbLine
 10
219.6370664214239
 20
-7.160499080165504
 30
0.0
 11
221.2899571600031
 21
-6.717608341586315
 31
0.0
  0
LINE
  5
196
330
1F
100
AcDbEntity
  8
cut_out
100
AcDbLine
 10
221.2899571600031
 20
-6.717608341586315
 30
0.0
 11
229.0129838266699
 21
6.659066233289862
 31
0.0
  0
LINE
  5
197
330
1F
100
AcDbEntity
  8
cut_out
100
AcDbLine
 10
229.0129838266699
 20
6.659066233289862
 30
0.0
 11
231.1087653038283
 21
5.449066233289819
 31
0.0
  0
LINE
  5
198
330
1F
100
AcDbEntity
  8
cut_out
100
AcDbLine
 10
231.1087653038283
 20
5.449066233289819
 30
0.0
 11
223.3857386371615
 21
-7.927608341586359
 31
0.0
  0
LINE
  5
199
330
1F
100
AcDbEntity
  8
cut_out
100
AcDbLine
 10
223.3857386371615
 20
-7.927608341586359
 30
0.0
 11
223.8286293757407
 21
-9.580499080165547
 31
0.0
  0
LINE
  5
19A
330
1F
100
AcDbEntity
  8
cut_out
100
AcDbLine
 10
223.8286293757407
 20
-9.580499080165547
 30
0.0
 11
230.8824498631702
 21
-13.65302423739831
 31
0.0
  0
LINE
  5
19B
330
1F
100
AcDbEntity
  8
cut_out
100
AcDbLine
 10
230.8824498631702
 20
-13.65302423739831
 30
0.0
 11
240.4475145652492
 21
2.914153804286167
 31
0.0
  0
LINE
  5
19C
330
1F
100
AcDbEntity
  8
cut_out
100
AcDbLine
 10
240.4475145652492
 20
2.914153804286167
 30
0.0
 11
250.0125792673283
 21
-13.65302423739831
 31
0.0
  0
LINE
  5
19D
330
1F
100
AcDbEntity
  8
cut_out
100
AcDbLine
 10
250.0125792673283
 20
-13.65302423739831
 30
0.0
 11
257.0663997547579
 21
-9.580499080165547
 31
0.0
  0
LINE
  5
19E
330
1F
100
AcDbEntity
  8
cut_out
100
AcDbLine
 10
257.0663997547579
 20
-9.580499080165547
 30
0.0
 11
257.5092904933371
 21
-7.927608341586359
 31
0.0
  0
LINE
  5
19F
330
1F
100
AcDbEntity
  8
cut_out
100
AcDbLine
 10
257.5092904933371
 20
-7.927608341586359
 30
0.0
 11
249.7862638266703
 21
5.449066233289819
 31
0.0
  0
LINE
  5
1A0
330
1F
100
AcDbEntity
  8
cut_out
100
AcDbLine
 10
249.7862638266703
 20
5.449066233289819
 30
0.0
 11
251.8820453038286
 21
6.659066233289862
 31
0.0
  0
LINE
  5
1A1
330
1F
100
AcDbEntity
  8
cut_out
100
AcDbLine
 10
251.8820453038286
 20
6.659066233289862
 30
0.0
 11
259.6050719704954
 21
-6.717608341586315
 31
0.0
  0
LINE
  5
1A2
330
1F
100
AcDbEntity
  8
cut_out
100
AcDbLine
 10
259.6050719704954
 20
-6.717608341586315
 30
0.0
 11
261.2579627090746
 21
-7.160499080165504
 31
0.0
  0
LINE
  5
1A3
330
1F
100
AcDbEntity
  8
cut_out
100
AcDbLine
 10
261.2579627090746
 20
-7.160499080165504
 30
0.0
 11
268.3117831965042
 21
-3.087973922932745
 31
0.0
  0
LINE
  5
1A4
330
1F
100
AcDbEntity
  8
cut_out
100
AcDbLine
 10
268.3117831965042
 20
-3.087973922932745
 30
0.0
 11
258.7467184944252
 21
13.47920411875177
 31
0.0
  0
LINE
  5
1A5
330
1F
100
AcDbEntity
  8
cut_out
100
AcDbLine
 10
258.7467184944252
 20
13.47920411875177
 30
0.0
 11
277.8768478985832
 21
13.47920411875177
 31
0.0
  0
LINE
  5
1A6
330
1F
100
AcDbEntity
  8
cut_out
100
AcDbLine
 10
277.8768478985832
 20
13.47920411875177
 30
0.0
 11
277.8768478985832
 21
21.62425443321729
 31
0.0
  0
LINE
  5
1A7
330
1F
100
AcDbEntity
  8
cut_out
100
AcDbLine
 10
277.8768478985832
 20
21.62425443321729
 30
0.0
 11
276.6668478985832
 21
22.83425443321733
 31
0.0
  0
LINE
  5
1A8
330
1F
100
AcDbEntity
  8
cut_out
100
AcDbLine
 10
276.6668478985832
 20
22.83425443321733
 30
0.0
 11
261.2207945652496
 21
22.83425443321733
 31
0.0
  0
LINE
  5
1A9
330
1F
100
AcDbEntity
  8
cut_out
100
AcDbLine
 10
261.2207945652496
 20
22.83425443321733
 30
0.0
 11
261.2207945652496
 21
25.25425443321733
 31
0.0
  0
LINE
  5
1AA
330
1F
100
AcDbEntity
  8
cut_out
100
AcDbLine
 10
261.2207945652496
 20
25.25425443321733
 30
0.0
 11
276.6668478985832
 21
25.25425443321733
 31
0.0
  0
LINE
  5
1AB
330
1F
100
AcDbEntity
  8
cut_out
100
AcDbLine
 10
276.6668478985832
 20
25.25425443321733
 30
0.0
 11
277.8768478985832
 21
26.46425443321737
 31
0.0
  0
LINE
  5
1AC
330
1F
100
AcDbEntity
  8
cut_out
100
AcDbLine
 10
277.8768478985832
 20
26.46425443321737
 30
0.0
 11
277.8768478985832
 21
34.60930474768289
 31
0.0
  0
LINE
  5
1AD
330
1F
100
AcDbEntity
  8
cut_out
100
AcDbLine
 10
277.8768478985832
 20
34.60930474768289
 30
0.0
 11
258.7467184944252
 21
34.60930474768289
 31
0.0
  0
LINE
  5
1AE
330
1F
100
AcDbEntity
  8
cut_out
100
AcDbLine
 10
353.2045149914738
 20
35.93060134405118
 30
0.0
 11
347.9293372634903
 21
42.13659397725351
 31
0.0
  0
LINE
  5
1AF
330
1F
100
AcDbEntity
  8
cut_out
100
AcDbLine
 10
347.9293372634903
 20
42.13659397725351
 30
0.0
 11
346.2237350141877
 21
42.27487256263122
 31
0.0
  0
LINE
  5
1B0
330
1F
100
AcDbEntity
  8
cut_out
100
AcDbLine
 10
346.2237350141877
 20
42.27487256263122
 30
0.0
 11
334.4548582733681
 21
32.27116805702031
 31
0.0
  0
LINE
  5
1B1
330
1F
100
AcDbEntity
  8
cut_out
100
AcDbLine
 10
334.4548582733681
 20
32.27116805702031
 30
0.0
 11
332.8875346094433
 21
34.11504889170059
 31
0.0
  0
LINE
  5
1B2
330
1F
100
AcDbEntity
  8
cut_out
100
AcDbLine
 10
332.8875346094433
 20
34.11504889170059
 30
0.0
 11
344.6564113502629
 21
44.11875339731158
 31
0.0
  0
LINE
  5
1B3
330
1F
100
AcDbEntity
  8
cut_out
100
AcDbLine
 10
344.6564113502629
 20
44.11875339731158
 30
0.0
 11
344.7946899356406
 21
45.82435564661415
 31
0.0
  0
LINE
  5
1B4
330
1F
100
AcDbEntity
  8
cut_out
100
AcDbLine
 10
344.7946899356406
 20
45.82435564661415
 30
0.0
 11
339.5195122076572
 21
52.03034827981649
 31
0.0
  0
LINE
  5
1B5
330
1F
100
AcDbEntity
  8
cut_out
100
AcDbLine
 10
339.5195122076572
 20
52.03034827981649
 30
0.0
 11
319.0506954324841
 21
34.63157700302058
 31
0.0
  0
LINE
  5
1B6
330
1F
100
AcDbEntity
  8
cut_out
100
AcDbLine
 10
319.0506954324841
 20
34.63157700302058
 30
0.0
 11
301.6519241556883
 21
55.10039377819355
 31
0.0
  0
LINE
  5
1B7
330
1F
100
AcDbEntity
  8
cut_out
100
AcDbLine
 10
301.6519241556883
 20
55.10039377819355
 30
0.0
 11
295.4459315224859
 21
49.82521605021006
 31
0.0
  0
LINE
  5
1B8
330
1F
100
AcDbEntity
  8
cut_out
100
AcDbLine
 10
295.4459315224859
 20
49.82521605021006
 30
0.0
 11
295.3076529371082
 21
48.11961380090744
 31
0.0
  0
LINE
  5
1B9
330
1F
100
AcDbEntity
  8
cut_out
100
AcDbLine
 10
295.3076529371082
 20
48.11961380090744
 30
0.0
 11
305.3113574427192
 21
36.35073706008784
 31
0.0
  0
LINE
  5
1BA
330
1F
100
AcDbEntity
  8
cut_out
100
AcDbLine
 10
305.3113574427192
 20
36.35073706008784
 30
0.0
 11
303.4674766080389
 21
34.783413396163
 31
0.0
  0
LINE
  5
1BB
330
1F
100
AcDbEntity
  8
cut_out
100
AcDbLine
 10
303.4674766080389
 20
34.783413396163
 30
0.0
 11
293.4637721024279
 21
46.55229013698256
 31
0.0
  0
LINE
  5
1BC
330
1F
100
AcDbEntity
  8
cut_out
100
AcDbLine
 10
293.4637721024279
 20
46.55229013698256
 30
0.0
 11
291.7581698531253
 21
46.69056872236031
 31
0.0
  0
LINE
  5
1BD
330
1F
100
AcDbEntity
  8
cut_out
100
AcDbLine
 10
291.7581698531253
 20
46.69056872236031
 30
0.0
 11
285.552177219923
 21
41.41539099437682
 31
0.0
  0
LINE
  5
1BE
330
1F
100
AcDbEntity
  8
cut_out
100
AcDbLine
 10
285.552177219923
 20
41.41539099437682
 30
0.0
 11
302.9509484967189
 21
20.94657421920389
 31
0.0
  0
LINE
  5
1BF
330
1F
100
AcDbEntity
  8
cut_out
100
AcDbLine
 10
302.9509484967189
 20
20.94657421920389
 30
0.0
 11
282.4821317215459
 21
3.54780294240798
 31
0.0
  0
LINE
  5
1C0
330
1F
100
AcDbEntity
  8
cut_out
100
AcDbLine
 10
282.4821317215459
 20
3.54780294240798
 30
0.0
 11
287.7573094495294
 21
-2.658189690794359
 31
0.0
  0
LINE
  5
1C1
330
1F
100
AcDbEntity
  8
cut_out
100
AcDbLine
 10
287.7573094495294
 20
-2.658189690794359
 30
0.0
 11
289.462911698832
 21
-2.796468276172057
 31
0.0
  0
LINE
  5
1C2
330
1F
100
AcDbEntity
  8
cut_out
100
AcDbLine
 10
289.462911698832
 20
-2.796468276172057
 30
0.0
 11
301.2317884396516
 21
7.207236229438887
 31
0.0
  0
LINE
  5
1C3
330
1F
100
AcDbEntity
  8
cut_out
100
AcDbLine
 10
301.2317884396516
 20
7.207236229438887
 30
0.0
 11
302.7991121035764
 21
5.363355394758567
 31
0.0
  0
LINE
  5
1C4
330
1F
100
AcDbEntity
  8
cut_out
100
AcDbLine
 10
302.7991121035764
 20
5.363355394758567
 30
0.0
 11
291.0302353627568
 21
-4.640349110852377
 31
0.0
  0
LINE
  5
1C5
330
1F
100
AcDbEntity
  8
cut_out
100
AcDbLine
 10
291.0302353627568
 20
-4.640349110852377
 30
0.0
 11
290.8919567773791
 21
-6.345951360154997
 31
0.0
  0
LINE
  5
1C6
330
1F
100
AcDbEntity
  8
cut_out
100
AcDbLine
 10
290.8919567773791
 20
-6.345951360154997
 30
0.0
 11
296.1671345053626
 21
-12.55194399335733
 31
0.0
  0
LINE
  5
1C7
330
1F
100
AcDbEntity
  8
cut_out
100
AcDbLine
 10
296.1671345053626
 20
-12.55194399335733
 30
0.0
 11
316.6359512805356
 21
4.846827283438578
 31
0.0
  0
LINE
  5
1C8
330
1F
100
AcDbEntity
  8
cut_out
100
AcDbLine
 10
316.6359512805356
 20
4.846827283438578
 30
0.0
 11
334.0347225573315
 21
-15.62198949173435
 31
0.0
  0
LINE
  5
1C9
330
1F
100
AcDbEntity
  8
cut_out
100
AcDbLine
 10
334.0347225573315
 20
-15.62198949173435
 30
0.0
 11
340.2407151905338
 21
-10.34681176375087
 31
0.0
  0
LINE
  5
1CA
330
1F
100
AcDbEntity
  8
cut_out
100
AcDbLine
 10
340.2407151905338
 20
-10.34681176375087
 30
0.0
 11
340.3789937759115
 21
-8.64120951444829
 31
0.0
  0
LINE
  5
1CB
330
1F
100
AcDbEntity
  8
cut_out
100
AcDbLine
 10
340.3789937759115
 20
-8.64120951444829
 30
0.0
 11
330.3752892703005
 21
3.127667226371275
 31
0.0
  0
LINE
  5
1CC
330
1F
100
AcDbEntity
  8
cut_out
100
AcDbLine
 10
330.3752892703005
 20
3.127667226371275
 30
0.0
 11
332.2191701049808
 21
4.694990890296154
 31
0.0
  0
LINE
  5
1CD
330
1F
100
AcDbEntity
  8
cut_out
100
AcDbLine
 10
332.2191701049808
 20
4.694990890296154
 30
0.0
 11
342.2228746105918
 21
-7.073885850523455
 31
0.0
  0
LINE
  5
1CE
330
1F
100
AcDbEntity
  8
cut_out
100
AcDbLine
 10
342.2228746105918
 20
-7.073885850523455
 30
0.0
 11
343.9284768598944
 21
-7.212164435901197
 31
0.0
  0
LINE
  5
1CF
330
1F
100
AcDbEntity
  8
cut_out
100
AcDbLine
 10
343.9284768598944
 20
-7.212164435901197
 30
0.0
 11
350.1344694930967
 21
-1.93698670791771
 31
0.0
  0
LINE
  5
1D0
330
1F
100
AcDbEntity
  8
cut_out
100
AcDbLine
 10
350.1344694930967
 20
-1.93698670791771
 30
0.0
 11
332.7356982163009
 21
18.53183006725526
 31
0.0
  0
LINE
  5
1D1
330
1F
100
AcDbEntity
  8
cut_out
100
AcDbLine
 10
332.7356982163009
 20
18.53183006725526
 30
0.0
 11
353.2045149914738
 21
35.93060134405118
 31
0.0
  0
LINE
  5
1D2
330
1F
100
AcDbEntity
  8
cut_out
100
AcDbLine
 10
241.6267546880838
 20
410.5387810495807
 30
0.0
 11
279.0560880214177
 21
410.5387810495807
 31
0.0
  0
LINE
  5
1D3
330
1F
100
AcDbEntity
  8
cut_out
100
AcDbLine
 10
279.0560880214177
 20
410.5387810495807
 30
0.0
 11
279.0560880214177
 21
418.6838313640463
 31
0.0
  0
LINE
  5
1D4
330
1F
100
AcDbEntity
  8
cut_out
100
AcDbLine
 10
279.0560880214177
 20
418.6838313640463
 30
0.0
 11
277.8460880214176
 21
419.8938313640462
 31
0.0
  0
LINE
  5
1D5
330
1F
100
AcDbEntity
  8
cut_out
100
AcDbLine
 10
277.8460880214176
 20
419.8938313640462
 30
0.0
 11
262.4000346880841
 21
419.8938313640462
 31
0.0
  0
LINE
  5
1D6
330
1F
100
AcDbEntity
  8
cut_out
100
AcDbLine
 10
262.4000346880841
 20
419.8938313640462
 30
0.0
 11
262.4000346880841
 21
422.3138313640463
 31
0.0
  0
LINE
  5
1D7
330
1F
100
AcDbEntity
  8
cut_out
100
AcDbLine
 10
262.4000346880841
 20
422.3138313640463
 30
0.0
 11
277.8460880214176
 21
422.3138313640463
 31
0.0
  0
LINE
  5
1D8
330
1F
100
AcDbEntity
  8
cut_out
100
AcDbLine
 10
277.8460880214176
 20
422.3138313640463
 30
0.0
 11
279.0560880214177
 21
423.5238313640463
 31
0.0
  0
LINE
  5
1D9
330
1F
100
AcDbEntity
  8
cut_out
100
AcDbLine
 10
279.0560880214177
 20
423.5238313640463
 30
0.0
 11
279.0560880214177
 21
431.668881678512
 31
0.0
  0
LINE
  5
1DA
330
1F
100
AcDbEntity
  8
cut_out
100
AcDbLine
 10
279.0560880214177
 20
431.668881678512
 30
0.0
 11
241.6267546880838
 21
431.668881678512
 31
0.0
  0
LINE
  5
1DB
330
1F
100
AcDbEntity
  8
cut_out
100
AcDbLine
 10
241.6267546880838
 20
431.668881678512
 30
0.0
 11
204.1974213547498
 21
431.668881678512
 31
0.0
  0
LINE
  5
1DC
330
1F
100
AcDbEntity
  8
cut_out
100
AcDbLine
 10
204.1974213547498
 20
431.668881678512
 30
0.0
 11
204.1974213547498
 21
423.5238313640463
 31
0.0
  0
LINE
  5
1DD
330
1F
100
AcDbEntity
  8
cut_out
100
AcDbLine
 10
204.1974213547498
 20
423.5238313640463
 30
0.0
 11
205.4074213547499
 21
422.3138313640463
 31
0.0
  0
LINE
  5
1DE
330
1F
100
AcDbEntity
  8
cut_out
100
AcDbLine
 10
205.4074213547499
 20
422.3138313640463
 30
0.0
 11
220.8534746880834
 21
422.3138313640463
 31
0.0
  0
LINE
  5
1DF
330
1F
100
AcDbEntity
  8
cut_out
100
AcDbLine
 10
220.8534746880834
 20
422.3138313640463
 30
0.0
 11
220.8534746880834
 21
419.8938313640462
 31
0.0
  0
LINE
  5
1E0
330
1F
100
AcDbEntity
  8
cut_out
100
AcDbLine
 10
220.8534746880834
 20
419.8938313640462
 30
0.0
 11
205.4074213547499
 21
419.8938313640462
 31
0.0
  0
LINE
  5
1E1
330
1F
100
AcDbEntity
  8
cut_out
100
AcDbLine
 10
205.4074213547499
 20
419.8938313640462
 30
0.0
 11
204.1974213547498
 21
418.6838313640463
 31
0.0
  0
LINE
  5
1E2
330
1F
100
AcDbEntity
  8
cut_out
100
AcDbLine
 10
204.1974213547498
 20
418.6838313640463
 30
0.0
 11
204.1974213547498
 21
410.5387810495807
 31
0.0
  0
LINE
  5
1E3
330
1F
100
AcDbEntity
  8
cut_out
100
AcDbLine
 10
204.1974213547498
 20
410.5387810495807
 30
0.0
 11
241.6267546880838
 21
410.5387810495807
 31
0.0
  0
LINE
  5
1E4
330
1F
100
AcDbEntity
  8
cut_out
100
AcDbLine
 10
399.9035570458684
 20
118.5590857247189
 30
0.0
 11
394.6283793178849
 21
124.7650783579212
 31
0.0
  0
LINE
  5
1E5
330
1F
100
AcDbEntity
  8
cut_out
100
AcDbLine
 10
394.6283793178849
 20
124.7650783579212
 30
0.0
 11
392.9227770685823
 21
124.9033569432989
 31
0.0
  0
LINE
  5
1E6
330
1F
100
AcDbEntity
  8
cut_out
100
AcDbLine
 10
392.9227770685823
 20
124.9033569432989
 30
0.0
 11
381.1539003277627
 21
114.899652437688
 31
0.0
  0
LINE
  5
1E7
330
1F
100
AcDbEntity
  8
cut_out
100
AcDbLine
 10
381.1539003277627
 20
114.899652437688
 30
0.0
 11
379.5865766638378
 21
116.7435332723683
 31
0.0
  0
LINE
  5
1E8
330
1F
100
AcDbEntity
  8
cut_out
100
AcDbLine
 10
379.5865766638378
 20
116.7435332723683
 30
0.0
 11
391.3554534046574
 21
126.7472377779793
 31
0.0
  0
LINE
  5
1E9
330
1F
100
AcDbEntity
  8
cut_out
100
AcDbLine
 10
391.3554534046574
 20
126.7472377779793
 30
0.0
 11
391.4937319900351
 21
128.4528400272818
 31
0.0
  0
LINE
  5
1EA
330
1F
100
AcDbEntity
  8
cut_out
100
AcDbLine
 10
391.4937319900351
 20
128.4528400272818
 30
0.0
 11
386.2185542620517
 21
134.6588326604841
 31
0.0
  0
LINE
  5
1EB
330
1F
100
AcDbEntity
  8
cut_out
100
AcDbLine
 10
386.2185542620517
 20
134.6588326604841
 30
0.0
 11
365.7497374868787
 21
117.2600613836883
 31
0.0
  0
LINE
  5
1EC
330
1F
100
AcDbEntity
  8
cut_out
100
AcDbLine
 10
365.7497374868787
 20
117.2600613836883
 30
0.0
 11
348.3509662100828
 21
137.7288781588612
 31
0.0
  0
LINE
  5
1ED
330
1F
100
AcDbEntity
  8
cut_out
100
AcDbLine
 10
348.3509662100828
 20
137.7288781588612
 30
0.0
 11
342.1449735768805
 21
132.4537004308777
 31
0.0
  0
LINE
  5
1EE
330
1F
100
AcDbEntity
  8
cut_out
100
AcDbLine
 10
342.1449735768805
 20
132.4537004308777
 30
0.0
 11
342.0066949915027
 21
130.7480981815751
 31
0.0
  0
LINE
  5
1EF
330
1F
100
AcDbEntity
  8
cut_out
100
AcDbLine
 10
342.0066949915027
 20
130.7480981815751
 30
0.0
 11
352.0103994971137
 21
118.9792214407555
 31
0.0
  0
LINE
  5
1F0
330
1F
100
AcDbEntity
  8
cut_out
100
AcDbLine
 10
352.0103994971137
 20
118.9792214407555
 30
0.0
 11
350.1665186624334
 21
117.4118977768307
 31
0.0
  0
LINE
  5
1F1
330
1F
100
AcDbEntity
  8
cut_out
100
AcDbLine
 10
350.1665186624334
 20
117.4118977768307
 30
0.0
 11
340.1628141568225
 21
129.1807745176502
 31
0.0
  0
LINE
  5
1F2
330
1F
100
AcDbEntity
  8
cut_out
100
AcDbLine
 10
340.1628141568225
 20
129.1807745176502
 30
0.0
 11
338.4572119075199
 21
129.319053103028
 31
0.0
  0
LINE
  5
1F3
330
1F
100
AcDbEntity
  8
cut_out
100
AcDbLine
 10
338.4572119075199
 20
129.319053103028
 30
0.0
 11
332.2512192743175
 21
124.0438753750445
 31
0.0
  0
LINE
  5
1F4
330
1F
100
AcDbEntity
  8
cut_out
100
AcDbLine
 10
332.2512192743175
 20
124.0438753750445
 30
0.0
 11
349.6499905511134
 21
103.5750585998716
 31
0.0
  0
LINE
  5
1F5
330
1F
100
AcDbEntity
  8
cut_out
100
AcDbLine
 10
349.6499905511134
 20
103.5750585998716
 30
0.0
 11
329.1811737759405
 21
86.17628732307567
 31
0.0
  0
LINE
  5
1F6
330
1F
100
AcDbEntity
  8
cut_out
100
AcDbLine
 10
329.1811737759405
 20
86.17628732307567
 30
0.0
 11
334.456351503924
 21
79.97029468987333
 31
0.0
  0
LINE
  5
1F7
330
1F
100
AcDbEntity
  8
cut_out
100
AcDbLine
 10
334.456351503924
 20
79.97029468987333
 30
0.0
 11
336.1619537532265
 21
79.83201610449562
 31
0.0
  0
LINE
  5
1F8
330
1F
100
AcDbEntity
  8
cut_out
100
AcDbLine
 10
336.1619537532265
 20
79.83201610449562
 30
0.0
 11
347.9308304940461
 21
89.83572061010658
 31
0.0
  0
LINE
  5
1F9
330
1F
100
AcDbEntity
  8
cut_out
100
AcDbLine
 10
347.9308304940461
 20
89.83572061010658
 30
0.0
 11
349.498154157971
 21
87.99183977542626
 31
0.0
  0
LINE
  5
1FA
330
1F
100
AcDbEntity
  8
cut_out
100
AcDbLine
 10
349.498154157971
 20
87.99183977542626
 30
0.0
 11
337.7292774171514
 21
77.9881352698153
 31
0.0
  0
LINE
  5
1FB
330
1F
100
AcDbEntity
  8
cut_out
100
AcDbLine
 10
337.7292774171514
 20
77.9881352698153
 30
0.0
 11
337.5909988317737
 21
76.28253302051269
 31
0.0
  0
LINE
  5
1FC
330
1F
100
AcDbEntity
  8
cut_out
100
AcDbLine
 10
337.5909988317737
 20
76.28253302051269
 30
0.0
 11
342.8661765597572
 21
70.07654038731035
 31
0.0
  0
LINE
  5
1FD
330
1F
100
AcDbEntity
  8
cut_out
100
AcDbLine
 10
342.8661765597572
 20
70.07654038731035
 30
0.0
 11
363.3349933349301
 21
87.47531166410626
 31
0.0
  0
LINE
  5
1FE
330
1F
100
AcDbEntity
  8
cut_out
100
AcDbLine
 10
363.3349933349301
 20
87.47531166410626
 30
0.0
 11
380.733764611726
 21
67.00649488893333
 31
0.0
  0
LINE
  5
1FF
330
1F
100
AcDbEntity
  8
cut_out
100
AcDbLine
 10
380.733764611726
 20
67.00649488893333
 30
0.0
 11
386.9397572449283
 21
72.28167261691682
 31
0.0
  0
LINE
  5
200
330
1F
100
AcDbEntity
  8
cut_out
100
AcDbLine
 10
386.9397572449283
 20
72.28167261691682
 30
0.0
 11
387.0780358303061
 21
73.9872748662194
 31
0.0
  0
LINE
  5
201
330
1F
100
AcDbEntity
  8
cut_out
100
AcDbLine
 10
387.0780358303061
 20
73.9872748662194
 30
0.0
 11
377.0743313246951
 21
85.75615160703896
 31
0.0
  0
LINE
  5
202
330
1F
100
AcDbEntity
  8
cut_out
100
AcDbLine
 10
377.0743313246951
 20
85.75615160703896
 30
0.0
 11
378.9182121593753
 21
87.32347527096384
 31
0.0
  0
LINE
  5
203
330
1F
100
AcDbEntity
  8
cut_out
100
AcDbLine
 10
378.9182121593753
 20
87.32347527096384
 30
0.0
 11
388.9219166649863
 21
75.55459853014423
 31
0.0
  0
LINE
  5
204
330
1F
100
AcDbEntity
  8
cut_out
100
AcDbLine
 10
388.9219166649863
 20
75.55459853014423
 30
0.0
 11
390.6275189142889
 21
75.41631994476649
 31
0.0
  0
LINE
  5
205
330
1F
100
AcDbEntity
  8
cut_out
100
AcDbLine
 10
390.6275189142889
 20
75.41631994476649
 30
0.0
 11
396.8335115474913
 21
80.69149767274997
 31
0.0
  0
LINE
  5
206
330
1F
100
AcDbEntity
  8
cut_out
100
AcDbLine
 10
396.8335115474913
 20
80.69149767274997
 30
0.0
 11
379.4347402706954
 21
101.1603144479229
 31
0.0
  0
LINE
  5
207
330
1F
100
AcDbEntity
  8
cut_out
100
AcDbLine
 10
379.4347402706954
 20
101.1603144479229
 30
0.0
 11
399.9035570458684
 21
118.5590857247189
 31
0.0
  0
LINE
  5
208
330
1F
100
AcDbEntity
  8
cut_out
100
AcDbLine
 10
424.3049771279554
 20
174.6164021295137
 30
0.0
 11
419.0297993999719
 21
180.822394762716
 31
0.0
  0
LINE
  5
209
330
1F
100
AcDbEntity
  8
cut_out
100
AcDbLine
 10
419.0297993999719
 20
180.822394762716
 30
0.0
 11
417.3241971506692
 21
180.9606733480937
 31
0.0
  0
LINE
  5
20A
330
1F
100
AcDbEntity
  8
cut_out
100
AcDbLine
 10
417.3241971506692
 20
180.9606733480937
 30
0.0
 11
405.5553204098497
 21
170.9569688424828
 31
0.0
  0
LINE
  5
20B
330
1F
100
AcDbEntity
  8
cut_out
100
AcDbLine
 10
405.5553204098497
 20
170.9569688424828
 30
0.0
 11
403.9879967459249
 21
172.8008496771631
 31
0.0
  0
LINE
  5
20C
330
1F
100
AcDbEntity
  8
cut_out
100
AcDbLine
 10
403.9879967459249
 20
172.8008496771631
 30
0.0
 11
415.7568734867444
 21
182.8045541827741
 31
0.0
  0
LINE
  5
20D
330
1F
100
AcDbEntity
  8
cut_out
100
AcDbLine
 10
415.7568734867444
 20
182.8045541827741
 30
0.0
 11
415.8951520721222
 21
184.5101564320767
 31
0.0
  0
LINE
  5
20E
330
1F
100
AcDbEntity
  8
cut_out
100
AcDbLine
 10
415.8951520721222
 20
184.5101564320767
 30
0.0
 11
410.6199743441387
 21
190.716149065279
 31
0.0
  0
LINE
  5
20F
330
1F
100
AcDbEntity
  8
cut_out
100
AcDbLine
 10
410.6199743441387
 20
190.716149065279
 30
0.0
 11
390.1511575689657
 21
173.3173777884831
 31
0.0
  0
LINE
  5
210
330
1F
100
AcDbEntity
  8
cut_out
100
AcDbLine
 10
390.1511575689657
 20
173.3173777884831
 30
0.0
 11
372.7523862921698
 21
193.7861945636561
 31
0.0
  0
LINE
  5
211
330
1F
100
AcDbEntity
  8
cut_out
100
AcDbLine
 10
372.7523862921698
 20
193.7861945636561
 30
0.0
 11
366.5463936589675
 21
188.5110168356726
 31
0.0
  0
LINE
  5
212
330
1F
100
AcDbEntity
  8
cut_out
100
AcDbLine
 10
366.5463936589675
 20
188.5110168356726
 30
0.0
 11
366.4081150735897
 21
186.80541458637
 31
0.0
  0
LINE
  5
213
330
1F
100
AcDbEntity
  8
cut_out
100
AcDbLine
 10
366.4081150735897
 20
186.80541458637
 30
0.0
 11
376.4118195792007
 21
175.0365378455504
 31
0.0
  0
LINE
  5
214
330
1F
100
AcDbEntity
  8
cut_out
100
AcDbLine
 10
376.4118195792007
 20
175.0365378455504
 30
0.0
 11
374.5679387445204
 21
173.4692141816255
 31
0.0
  0
LINE
  5
215
330
1F
100
AcDbEntity
  8
cut_out
100
AcDbLine
 10
374.5679387445204
 20
173.4692141816255
 30
0.0
 11
364.5642342389095
 21
185.2380909224451
 31
0.0
  0
LINE
  5
216
330
1F
100
AcDbEntity
  8
cut_out
100
AcDbLine
 10
364.5642342389095
 20
185.2380909224451
 30
0.0
 11
362.8586319896069
 21
185.3763695078228
 31
0.0
  0
LINE
  5
217
330
1F
100
AcDbEntity
  8
cut_out
100
AcDbLine
 10
362.8586319896069
 20
185.3763695078228
 30
0.0
 11
356.6526393564045
 21
180.1011917798394
 31
0.0
  0
LINE
  5
218
330
1F
100
AcDbEntity
  8
cut_out
100
AcDbLine
 10
356.6526393564045
 20
180.1011917798394
 30
0.0
 11
374.0514106332004
 21
159.6323750046664
 31
0.0
  0
LINE
  5
219
330
1F
100
AcDbEntity
  8
cut_out
100
AcDbLine
 10
374.0514106332004
 20
159.6323750046664
 30
0.0
 11
353.5825938580275
 21
142.2336037278705
 31
0.0
  0
LINE
  5
21A
330
1F
100
AcDbEntity
  8
cut_out
100
AcDbLine
 10
353.5825938580275
 20
142.2336037278705
 30
0.0
 11
358.857771586011
 21
136.0276110946682
 31
0.0
  0
LINE
  5
21B
330
1F
100
AcDbEntity
  8
cut_out
100
AcDbLine
 10
358.857771586011
 20
136.0276110946682
 30
0.0
 11
360.5633738353135
 21
135.8893325092905
 31
0.0
  0
LINE
  5
21C
330
1F
100
AcDbEntity
  8
cut_out
100
AcDbLine
 10
360.5633738353135
 20
135.8893325092905
 30
0.0
 11
372.3322505761331
 21
145.8930370149014
 31
0.0
  0
LINE
  5
21D
330
1F
100
AcDbEntity
  8
cut_out
100
AcDbLine
 10
372.3322505761331
 20
145.8930370149014
 30
0.0
 11
373.899574240058
 21
144.0491561802211
 31
0.0
  0
LINE
  5
21E
330
1F
100
AcDbEntity
  8
cut_out
100
AcDbLine
 10
373.899574240058
 20
144.0491561802211
 30
0.0
 11
362.1306974992384
 21
134.0454516746101
 31
0.0
  0
LINE
  5
21F
330
1F
100
AcDbEntity
  8
cut_out
100
AcDbLine
 10
362.1306974992384
 20
134.0454516746101
 30
0.0
 11
361.9924189138607
 21
132.3398494253075
 31
0.0
  0
LINE
  5
220
330
1F
100
AcDbEntity
  8
cut_out
100
AcDbLine
 10
361.9924189138607
 20
132.3398494253075
 30
0.0
 11
367.2675966418441
 21
126.1338567921052
 31
0.0
  0
LINE
  5
221
330
1F
100
AcDbEntity
  8
cut_out
100
AcDbLine
 10
367.2675966418441
 20
126.1338567921052
 30
0.0
 11
387.7364134170171
 21
143.5326280689011
 31
0.0
  0
LINE
  5
222
330
1F
100
AcDbEntity
  8
cut_out
100
AcDbLine
 10
387.7364134170171
 20
143.5326280689011
 30
0.0
 11
405.135184693813
 21
123.0638112937282
 31
0.0
  0
LINE
  5
223
330
1F
100
AcDbEntity
  8
cut_out
100
AcDbLine
 10
405.135184693813
 20
123.0638112937282
 30
0.0
 11
411.3411773270153
 21
128.3389890217117
 31
0.0
  0
LINE
  5
224
330
1F
100
AcDbEntity
  8
cut_out
100
AcDbLine
 10
411.3411773270153
 20
128.3389890217117
 30
0.0
 11
411.4794559123931
 21
130.0445912710142
 31
0.0
  0
LINE
  5
225
330
1F
100
AcDbEntity
  8
cut_out
100
AcDbLine
 10
411.4794559123931
 20
130.0445912710142
 30
0.0
 11
401.4757514067821
 21
141.8134680118338
 31
0.0
  0
LINE
  5
226
330
1F
100
AcDbEntity
  8
cut_out
100
AcDbLine
 10
401.4757514067821
 20
141.8134680118338
 30
0.0
 11
403.3196322414623
 21
143.3807916757587
 31
0.0
  0
LINE
  5
227
330
1F
100
AcDbEntity
  8
cut_out
100
AcDbLine
 10
403.3196322414623
 20
143.3807916757587
 30
0.0
 11
413.3233367470734
 21
131.6119149349391
 31
0.0
  0
LINE
  5
228
330
1F
100
AcDbEntity
  8
cut_out
100
AcDbLine
 10
413.3233367470734
 20
131.6119149349391
 30
0.0
 11
415.028938996376
 21
131.4736363495613
 31
0.0
  0
LINE
  5
229
330
1F
100
AcDbEntity
  8
cut_out
100
AcDbLine
 10
415.028938996376
 20
131.4736363495613
 30
0.0
 11
421.2349316295783
 21
136.7488140775448
 31
0.0
  0
LINE
  5
22A
330
1F
100
AcDbEntity
  8
cut_out
100
AcDbLine
 10
421.2349316295783
 20
136.7488140775448
 30
0.0
 11
403.8361603527824
 21
157.2176308527178
 31
0.0
  0
LINE
  5
22B
330
1F
100
AcDbEntity
  8
cut_out
100
AcDbLine
 10
403.8361603527824
 20
157.2176308527178
 30
0.0
 11
424.3049771279554
 21
174.6164021295137
 31
0.0
  0
LINE
  5
22C
330
1F
100
AcDbEntity
  8
cut_out
100
AcDbLine
 10
375.4283658560445
 20
23.24742637190408
 30
0.0
 11
377.3431308648221
 21
-14.13289824866315
 31
0.0
  0
LINE
  5
22D
330
1F
100
AcDbEntity
  8
cut_out
100
AcDbLine
 10
377.3431308648221
 20
-14.13289824866315
 30
0.0
 11
385.4775163237911
 21
-13.71622351930105
 31
0.0
  0
LINE
  5
22E
330
1F
100
AcDbEntity
  8
cut_out
100
AcDbLine
 10
385.4775163237911
 20
-13.71622351930105
 30
0.0
 11
386.624032259517
 21
-12.44590812180062
 31
0.0
  0
LINE
  5
22F
330
1F
100
AcDbEntity
  8
cut_out
100
AcDbLine
 10
386.624032259517
 20
-12.44590812180062
 30
0.0
 11
385.8338615614982
 21
2.979920667738625
 31
0.0
  0
LINE
  5
230
330
1F
100
AcDbEntity
  8
cut_out
100
AcDbLine
 10
385.8338615614982
 20
2.979920667738625
 30
0.0
 11
388.2506928947246
 21
3.103720129513008
 31
0.0
  0
LINE
  5
231
330
1F
100
AcDbEntity
  8
cut_out
100
AcDbLine
 10
388.2506928947246
 20
3.103720129513008
 30
0.0
 11
389.0408635927433
 21
-12.32210866002623
 31
0.0
  0
LINE
  5
232
330
1F
100
AcDbEntity
  8
cut_out
100
AcDbLine
 10
389.0408635927433
 20
-12.32210866002623
 30
0.0
 11
390.3111789902437
 21
-13.46862459575224
 31
0.0
  0
LINE
  5
233
330
1F
100
AcDbEntity
  8
cut_out
100
AcDbLine
 10
390.3111789902437
 20
-13.46862459575224
 30
0.0
 11
398.4455644492127
 21
-13.05194986639014
 31
0.0
  0
LINE
  5
234
330
1F
100
AcDbEntity
  8
cut_out
100
AcDbLine
 10
398.4455644492127
 20
-13.05194986639014
 30
0.0
 11
396.5307994404352
 21
24.32837475417709
 31
0.0
  0
LINE
  5
235
330
1F
100
AcDbEntity
  8
cut_out
100
AcDbLine
 10
396.5307994404352
 20
24.32837475417709
 30
0.0
 11
394.6160344316577
 21
61.70869937474433
 31
0.0
  0
LINE
  5
236
330
1F
100
AcDbEntity
  8
cut_out
100
AcDbLine
 10
394.6160344316577
 20
61.70869937474433
 30
0.0
 11
386.4816489726887
 21
61.29202464538223
 31
0.0
  0
LINE
  5
237
330
1F
100
AcDbEntity
  8
cut_out
100
AcDbLine
 10
386.4816489726887
 20
61.29202464538223
 30
0.0
 11
385.3351330369628
 21
60.02170924788183
 31
0.0
  0
LINE
  5
238
330
1F
100
AcDbEntity
  8
cut_out
100
AcDbLine
 10
385.3351330369628
 20
60.02170924788183
 30
0.0
 11
386.1253037349816
 21
44.59588045834259
 31
0.0
  0
LINE
  5
239
330
1F
100
AcDbEntity
  8
cut_out
100
AcDbLine
 10
386.1253037349816
 20
44.59588045834259
 30
0.0
 11
383.7084724017552
 21
44.47208099656821
 31
0.0
  0
LINE
  5
23A
330
1F
100
AcDbEntity
  8
cut_out
100
AcDbLine
 10
383.7084724017552
 20
44.47208099656821
 30
0.0
 11
382.9183017037364
 21
59.89790978610745
 31
0.0
  0
LINE
  5
23B
330
1F
100
AcDbEntity
  8
cut_out
100
AcDbLine
 10
382.9183017037364
 20
59.89790978610745
 30
0.0
 11
381.6479863062361
 21
61.04442572183342
 31
0.0
  0
LINE
  5
23C
330
1F
100
AcDbEntity
  8
cut_out
100
AcDbLine
 10
381.6479863062361
 20
61.04442572183342
 30
0.0
 11
373.5136008472671
 21
60.62775099247131
 31
0.0
  0
LINE
  5
23D
330
1F
100
AcDbEntity
  8
cut_out
100
AcDbLine
 10
373.5136008472671
 20
60.62775099247131
 30
0.0
 11
375.4283658560445
 21
23.24742637190408
 31
0.0
  0
LINE
  5
23E
330
1F
100
AcDbEntity
  8
cut_out
100
AcDbLine
 10
332.9907238882932
 20
163.9262734246039
 30
0.0
 11
334.6706354468694
 21
165.6681968314626
 31
0.0
  0
LINE
  5
23F
330
1F
100
AcDbEntity
  8
cut_out
100
AcDbLine
 10
334.6706354468694
 20
165.6681968314626
 30
0.0
 11
345.7887519117133
 21
154.9458813235908
 31
0.0
  0
LINE
  5
240
330
1F
100
AcDbEntity
  8
cut_out
100
AcDbLine
 10
345.7887519117133
 20
154.9458813235908
 30
0.0
 11
347.4996693944308
 21
154.9768872477322
 31
0.0
  0
LINE
  5
241
330
1F
100
AcDbEntity
  8
cut_out
100
AcDbLine
 10
347.4996693944308
 20
154.9768872477322
 30
0.0
 11
353.153786819412
 21
160.8397193935213
 31
0.0
  0
LINE
  5
242
330
1F
100
AcDbEntity
  8
cut_out
100
AcDbLine
 10
353.153786819412
 20
160.8397193935213
 30
0.0
 11
336.6790861789302
 21
176.7279266023188
 31
0.0
  0
LINE
  5
243
330
1F
100
AcDbEntity
  8
cut_out
100
AcDbLine
 10
336.6790861789302
 20
176.7279266023188
 30
0.0
 11
356.8806316522532
 21
187.4865719627921
 31
0.0
  0
LINE
  5
244
330
1F
100
AcDbEntity
  8
cut_out
100
AcDbLine
 10
356.8806316522532
 20
187.4865719627921
 30
0.0
 11
353.0519653085664
 21
194.675671951935
 31
0.0
  0
LINE
  5
245
330
1F
100
AcDbEntity
  8
cut_out
100
AcDbLine
 10
353.0519653085664
 20
194.675671951935
 30
0.0
 11
351.4152047302987
 21
195.1748861438695
 31
0.0
  0
LINE
  5
246
330
1F
100
AcDbEntity
  8
cut_out
100
AcDbLine
 10
351.4152047302987
 20
195.1748861438695
 30
0.0
 11
337.7819897636879
 21
187.9143067420336
 31
0.0
  0
LINE
  5
247
330
1F
100
AcDbEntity
  8
cut_out
100
AcDbLine
 10
337.7819897636879
 20
187.9143067420336
 30
0.0
 11
336.6444433773548
 21
190.0502815122359
 31
0.0
  0
LINE
  5
248
330
1F
100
AcDbEntity
  8
cut_out
100
AcDbLine
 10
336.6444433773548
 20
190.0502815122359
 30
0.0
 11
350.2776583439656
 21
197.3108609140717
 31
0.0
  0
LINE
  5
249
330
1F
100
AcDbEntity
  8
cut_out
100
AcDbLine
 10
350.2776583439656
 20
197.3108609140717
 30
0.0
 11
350.7768725359
 21
198.9476214923394
 31
0.0
  0
LINE
  5
24A
330
1F
100
AcDbEntity
  8
cut_out
100
AcDbLine
 10
350.7768725359
 20
198.9476214923394
 30
0.0
 11
346.9482061922133
 21
206.1367214814823
 31
0.0
  0
LINE
  5
24B
330
1F
100
AcDbEntity
  8
cut_out
100
AcDbLine
 10
346.9482061922133
 20
206.1367214814823
 30
0.0
 11
326.7466607188901
 21
195.378076121009
 31
0.0
  0
LINE
  5
24C
330
1F
100
AcDbEntity
  8
cut_out
100
AcDbLine
 10
326.7466607188901
 20
195.378076121009
 30
0.0
 11
322.7572018061986
 21
217.9154918354854
 31
0.0
  0
LINE
  5
24D
330
1F
100
AcDbEntity
  8
cut_out
100
AcDbLine
 10
322.7572018061986
 20
217.9154918354854
 30
0.0
 11
314.7368384492361
 21
216.495767831508
 31
0.0
  0
LINE
  5
24E
330
1F
100
AcDbEntity
  8
cut_out
100
AcDbLine
 10
314.7368384492361
 20
216.495767831508
 30
0.0
 11
313.756270704562
 21
215.0933816870723
 31
0.0
  0
LINE
  5
24F
330
1F
100
AcDbEntity
  8
cut_out
100
AcDbLine
 10
313.756270704562
 20
215.0933816870723
 30
0.0
 11
316.4485969441069
 21
199.8837813308485
 31
0.0
  0
LINE
  5
250
330
1F
100
AcDbEntity
  8
cut_out
100
AcDbLine
 10
316.4485969441069
 20
199.8837813308485
 30
0.0
 11
314.0656430549972
 21
199.461962931087
 31
0.0
  0
LINE
  5
251
330
1F
100
AcDbEntity
  8
cut_out
100
AcDbLine
 10
314.0656430549972
 20
199.461962931087
 30
0.0
 11
311.3733168154525
 21
214.6715632873108
 31
0.0
  0
LINE
  5
252
330
1F
100
AcDbEntity
  8
cut_out
100
AcDbLine
 10
311.3733168154525
 20
214.6715632873108
 30
0.0
 11
309.9709306710168
 21
215.6521310319849
 31
0.0
  0
LINE
  5
253
330
1F
100
AcDbEntity
  8
cut_out
100
AcDbLine
 10
309.9709306710168
 20
215.6521310319849
 30
0.0
 11
301.9505673140544
 21
214.2324070280075
 31
0.0
  0
LINE
  5
254
330
1F
100
AcDbEntity
  8
cut_out
100
AcDbLine
 10
301.9505673140544
 20
214.2324070280075
 30
0.0
 11
305.940026226746
 21
191.6949913135312
 31
0.0
  0
LINE
  5
255
330
1F
100
AcDbEntity
  8
cut_out
100
AcDbLine
 10
305.940026226746
 20
191.6949913135312
 30
0.0
 11
283.2728595486582
 21
194.8652348831902
 31
0.0
  0
LINE
  5
256
330
1F
100
AcDbEntity
  8
cut_out
100
AcDbLine
 10
283.2728595486582
 20
194.8652348831902
 30
0.0
 11
282.144668735618
 21
186.7986972049452
 31
0.0
  0
LINE
  5
257
330
1F
100
AcDbEntity
  8
cut_out
100
AcDbLine
 10
282.144668735618
 20
186.7986972049452
 30
0.0
 11
283.1754051194054
 21
185.4327607103976
 31
0.0
  0
LINE
  5
258
330
1F
100
AcDbEntity
  8
cut_out
100
AcDbLine
 10
283.1754051194054
 20
185.4327607103976
 30
0.0
 11
298.4725692108581
 21
183.2932901367847
 31
0.0
  0
LINE
  5
259
330
1F
100
AcDbEntity
  8
cut_out
100
AcDbLine
 10
298.4725692108581
 20
183.2932901367847
 30
0.0
 11
298.1373691000978
 21
180.8966172584497
 31
0.0
  0
LINE
  5
25A
330
1F
100
AcDbEntity
  8
cut_out
100
AcDbLine
 10
298.1373691000978
 20
180.8966172584497
 30
0.0
 11
282.8402050086451
 21
183.0360878320626
 31
0.0
  0
LINE
  5
25B
330
1F
100
AcDbEntity
  8
cut_out
100
AcDbLine
 10
282.8402050086451
 20
183.0360878320626
 30
0.0
 11
281.4742685140974
 21
182.0053514482753
 31
0.0
  0
LINE
  5
25C
330
1F
100
AcDbEntity
  8
cut_out
100
AcDbLine
 10
281.4742685140974
 20
182.0053514482753
 30
0.0
 11
280.3460777010573
 21
173.9388137700303
 31
0.0
  0
LINE
  5
25D
330
1F
100
AcDbEntity
  8
cut_out
100
AcDbLine
 10
280.3460777010573
 20
173.9388137700303
 30
0.0
 11
303.0132443791449
 21
170.7685702003712
 31
0.0
  0
LINE
  5
25E
330
1F
100
AcDbEntity
  8
cut_out
100
AcDbLine
 10
303.0132443791449
 20
170.7685702003712
 30
0.0
 11
292.9936238561193
 21
150.19047276456
 31
0.0
  0
LINE
  5
25F
330
1F
100
AcDbEntity
  8
cut_out
100
AcDbLine
 10
292.9936238561193
 20
150.19047276456
 30
0.0
 11
300.3167269448275
 21
146.6248023118503
 31
0.0
  0
LINE
  5
260
330
1F
100
AcDbEntity
  8
cut_out
100
AcDbLine
 10
300.3167269448275
 20
146.6248023118503
 30
0.0
 11
301.9343248081233
 21
147.1829932761816
 31
0.0
  0
LINE
  5
261
330
1F
100
AcDbEntity
  8
cut_out
100
AcDbLine
 10
301.9343248081233
 20
147.1829932761816
 30
0.0
 11
308.6961659085807
 21
161.0703280999824
 31
0.0
  0
LINE
  5
262
330
1F
100
AcDbEntity
  8
cut_out
100
AcDbLine
 10
308.6961659085807
 20
161.0703280999824
 30
0.0
 11
310.8719547362077
 21
160.0109212010179
 31
0.0
  0
LINE
  5
263
330
1F
100
AcDbEntity
  8
cut_out
100
AcDbLine
 10
310.8719547362077
 20
160.0109212010179
 30
0.0
 11
304.1101136357503
 21
146.1235863772171
 31
0.0
  0
LINE
  5
264
330
1F
100
AcDbEntity
  8
cut_out
100
AcDbLine
 10
304.1101136357503
 20
146.1235863772171
 30
0.0
 11
304.6683046000816
 21
144.5059885139213
 31
0.0
  0
LINE
  5
265
330
1F
100
AcDbEntity
  8
cut_out
100
AcDbLine
 10
304.6683046000816
 20
144.5059885139213
 30
0.0
 11
311.9914076887898
 21
140.9403180612115
 31
0.0
  0
LINE
  5
266
330
1F
100
AcDbEntity
  8
cut_out
100
AcDbLine
 10
311.9914076887898
 20
140.9403180612115
 30
0.0
 11
322.0110282118155
 21
161.5184154970227
 31
0.0
  0
LINE
  5
267
330
1F
100
AcDbEntity
  8
cut_out
100
AcDbLine
 10
322.0110282118155
 20
161.5184154970227
 30
0.0
 11
338.4857288522975
 21
145.6302082882254
 31
0.0
  0
LINE
  5
268
330
1F
100
AcDbEntity
  8
cut_out
100
AcDbLine
 10
338.4857288522975
 20
145.6302082882254
 30
0.0
 11
344.1398462772786
 21
151.4930404340146
 31
0.0
  0
LINE
  5
269
330
1F
100
AcDbEntity
  8
cut_out
100
AcDbLine
 10
344.1398462772786
 20
151.4930404340146
 30
0.0
 11
344.1088403531372
 21
153.203957916732
 31
0.0
  0
LINE
  5
26A
330
1F
100
AcDbEntity
  8
cut_out
100
AcDbLine
 10
344.1088403531372
 20
153.203957916732
 30
0.0
 11
332.9907238882932
 21
163.9262734246039
 31
0.0
  0
LINE
  5
26B
330
1F
100
AcDbEntity
  8
cut_out
100
AcDbLine
 10
401.2872391755251
 20
245.4357163840467
 30
0.0
 11
402.1203388792776
 21
247.7077958024666
 31
0.0
  0
LINE
  5
26C
330
1F
100
AcDbEntity
  8
cut_out
100
AcDbLine
 10
402.1203388792776
 20
247.7077958024666
 30
0.0
 11
416.6222644472462
 21
242.3903980933159
 31
0.0
  0
LINE
  5
26D
330
1F
100
AcDbEntity
  8
cut_out
100
AcDbLine
 10
416.6222644472462
 20
242.3903980933159
 30
0.0
 11
418.1748540083325
 21
243.1098879506497
 31
0.0
  0
LINE
  5
26E
330
1F
100
AcDbEntity
  8
cut_out
100
AcDbLine
 10
418.1748540083325
 20
243.1098879506497
 30
0.0
 11
420.978837067849
 21
250.7570785215142
 31
0.0
  0
LINE
  5
26F
330
1F
100
AcDbEntity
  8
cut_out
100
AcDbLine
 10
420.978837067849
 20
250.7570785215142
 30
0.0
 11
399.4900459404766
 21
258.6363389809316
 31
0.0
  0
LINE
  5
270
330
1F
100
AcDbEntity
  8
cut_out
100
AcDbLine
 10
399.4900459404766
 20
258.6363389809316
 30
0.0
 11
413.6240695909237
 21
276.638568424858
 31
0.0
  0
LINE
  5
271
330
1F
100
AcDbEntity
  8
cut_out
100
AcDbLine
 10
413.6240695909237
 20
276.638568424858
 30
0.0
 11
407.2176375844823
 21
281.6684266308135
 31
0.0
  0
LINE
  5
272
330
1F
100
AcDbEntity
  8
cut_out
100
AcDbLine
 10
407.2176375844823
 20
281.6684266308135
 30
0.0
 11
405.5187025720829
 21
281.4639276732527
 31
0.0
  0
LINE
  5
273
330
1F
100
AcDbEntity
  8
cut_out
100
AcDbLine
 10
405.5187025720829
 20
281.4639276732527
 30
0.0
 11
395.9802153793993
 21
269.3149431209868
 31
0.0
  0
LINE
  5
274
330
1F
100
AcDbEntity
  8
cut_out
100
AcDbLine
 10
395.9802153793993
 20
269.3149431209868
 30
0.0
 11
394.0767814094391
 21
270.8093791758255
 31
0.0
  0
LINE
  5
275
330
1F
100
AcDbEntity
  8
cut_out
100
AcDbLine
 10
394.0767814094391
 20
270.8093791758255
 30
0.0
 11
403.6152686021227
 21
282.9583637280914
 31
0.0
  0
LINE
  5
276
330
1F
100
AcDbEntity
  8
cut_out
100
AcDbLine
 10
403.6152686021227
 20
282.9583637280914
 30
0.0
 11
403.4107696445619
 21
284.6572987404908
 31
0.0
  0
LINE
  5
277
330
1F
100
AcDbEntity
  8
cut_out
100
AcDbLine
 10
403.4107696445619
 20
284.6572987404908
 30
0.0
 11
397.0043376381204
 21
289.6871569464462
 31
0.0
  0
LINE
  5
278
330
1F
100
AcDbEntity
  8
cut_out
100
AcDbLine
 10
397.0043376381204
 20
289.6871569464462
 30
0.0
 11
382.8703139876732
 21
271.6849275025197
 31
0.0
  0
LINE
  5
279
330
1F
100
AcDbEntity
  8
cut_out
100
AcDbLine
 10
382.8703139876732
 20
271.6849275025197
 30
0.0
 11
370.116829874072
 21
290.6901776315578
 31
0.0
  0
LINE
  5
27A
330
1F
100
AcDbEntity
  8
cut_out
100
AcDbLine
 10
370.116829874072
 20
290.6901776315578
 30
0.0
 11
363.3534540879594
 21
286.1516103905662
 31
0.0
  0
LINE
  5
27B
330
1F
100
AcDbEntity
  8
cut_out
100
AcDbLine
 10
363.3534540879594
 20
286.1516103905662
 30
0.0
 11
363.0229443629532
 21
284.4726335230435
 31
0.0
  0
LINE
  5
27C
330
1F
100
AcDbEntity
  8
cut_out
100
AcDbLine
 10
363.0229443629532
 20
284.4726335230435
 30
0.0
 11
371.6297606445878
 21
271.6467504317949
 31
0.0
  0
LINE
  5
27D
330
1F
100
AcDbEntity
  8
cut_out
100
AcDbLine
 10
371.6297606445878
 20
271.6467504317949
 30
0.0
 11
369.6202740520588
 21
270.2982832892786
 31
0.0
  0
LINE
  5
27E
330
1F
100
AcDbEntity
  8
cut_out
100
AcDbLine
 10
369.6202740520588
 20
270.2982832892786
 30
0.0
 11
361.0134577704242
 21
283.1241663805271
 31
0.0
  0
LINE
  5
27F
330
1F
100
AcDbEntity
  8
cut_out
100
AcDbLine
 10
361.0134577704242
 20
283.1241663805271
 30
0.0
 11
359.3344809029014
 21
283.4546761055335
 31
0.0
  0
LINE
  5
280
330
1F
100
AcDbEntity
  8
cut_out
100
AcDbLine
 10
359.3344809029014
 20
283.4546761055335
 30
0.0
 11
352.5711051167889
 21
278.9161088645419
 31
0.0
  0
LINE
  5
281
330
1F
100
AcDbEntity
  8
cut_out
100
AcDbLine
 10
352.5711051167889
 20
278.9161088645419
 30
0.0
 11
365.32458923039
 21
259.9108587355038
 31
0.0
  0
LINE
  5
282
330
1F
100
AcDbEntity
  8
cut_out
100
AcDbLine
 10
365.32458923039
 20
259.9108587355038
 30
0.0
 11
343.3084789227555
 21
253.6545198360161
 31
0.0
  0
LINE
  5
283
330
1F
100
AcDbEntity
  8
cut_out
100
AcDbLine
 10
343.3084789227555
 20
253.6545198360161
 30
0.0
 11
345.5349148146914
 21
245.8196728149011
 31
0.0
  0
LINE
  5
284
330
1F
100
AcDbEntity
  8
cut_out
100
AcDbLine
 10
345.5349148146914
 20
245.8196728149011
 30
0.0
 11
347.0295835834245
 21
244.9865070020081
 31
0.0
  0
LINE
  5
285
330
1F
100
AcDbEntity
  8
cut_out
100
AcDbLine
 10
347.0295835834245
 20
244.9865070020081
 30
0.0
 11
361.8873757730843
 21
249.2086598681498
 31
0.0
  0
LINE
  5
286
330
1F
100
AcDbEntity
  8
cut_out
100
AcDbLine
 10
361.8873757730843
 20
249.2086598681498
 30
0.0
 11
362.5488787289244
 21
246.8808252865236
 31
0.0
  0
LINE
  5
287
330
1F
100
AcDbEntity
  8
cut_out
100
AcDbLine
 10
362.5488787289244
 20
246.8808252865236
 30
0.0
 11
347.6910865392646
 21
242.6586724203818
 31
0.0
  0
LINE
  5
288
330
1F
100
AcDbEntity
  8
cut_out
100
AcDbLine
 10
347.6910865392646
 20
242.6586724203818
 30
0.0
 11
346.8579207263714
 21
241.1640036516487
 31
0.0
  0
LINE
  5
289
330
1F
100
AcDbEntity
  8
cut_out
100
AcDbLine
 10
346.8579207263714
 20
241.1640036516487
 30
0.0
 11
349.0843566183074
 21
233.3291566305337
 31
0.0
  0
LINE
  5
28A
330
1F
100
AcDbEntity
  8
cut_out
100
AcDbLine
 10
349.0843566183074
 20
233.3291566305337
 30
0.0
 11
371.1004669259419
 21
239.5854955300213
 31
0.0
  0
LINE
  5
28B
330
1F
100
AcDbEntity
  8
cut_out
100
AcDbLine
 10
371.1004669259419
 20
239.5854955300213
 30
0.0
 11
370.247246569358
 21
216.7136153159618
 31
0.0
  0
LINE
  5
28C
330
1F
100
AcDbEntity
  8
cut_out
100
AcDbLine
 10
370.247246569358
 20
216.7136153159618
 30
0.0
 11
378.3866354104596
 21
216.4099808012484
 31
0.0
  0
LINE
  5
28D
330
1F
100
AcDbEntity
  8
cut_out
100
AcDbLine
 10
378.3866354104596
 20
216.4099808012484
 30
0.0
 11
379.640901236466
 21
217.5740328781387
 31
0.0
  0
LINE
  5
28E
330
1F
100
AcDbEntity
  8
cut_out
100
AcDbLine
 10
379.640901236466
 20
217.5740328781387
 30
0.0
 11
380.2167055258238
 21
233.0093499463606
 31
0.0
  0
LINE
  5
28F
330
1F
100
AcDbEntity
  8
cut_out
100
AcDbLine
 10
380.2167055258238
 20
233.0093499463606
 30
0.0
 11
382.6350234287205
 21
232.9191361972446
 31
0.0
  0
LINE
  5
290
330
1F
100
AcDbEntity
  8
cut_out
100
AcDbLine
 10
382.6350234287205
 20
232.9191361972446
 30
0.0
 11
382.0592191393626
 21
217.4838191290227
 31
0.0
  0
LINE
  5
291
330
1F
100
AcDbEntity
  8
cut_out
100
AcDbLine
 10
382.0592191393626
 20
217.4838191290227
 30
0.0
 11
383.2232712162531
 21
216.2295533030164
 31
0.0
  0
LINE
  5
292
330
1F
100
AcDbEntity
  8
cut_out
100
AcDbLine
 10
383.2232712162531
 20
216.2295533030164
 30
0.0
 11
391.3626600573546
 21
215.9259187883029
 31
0.0
  0
LINE
  5
293
330
1F
100
AcDbEntity
  8
cut_out
100
AcDbLine
 10
391.3626600573546
 20
215.9259187883029
 30
0.0
 11
392.2158804139385
 21
238.7977990023624
 31
0.0
  0
LINE
  5
294
330
1F
100
AcDbEntity
  8
cut_out
100
AcDbLine
 10
392.2158804139385
 20
238.7977990023624
 30
0.0
 11
413.704671541311
 21
230.9185385429452
 31
0.0
  0
LINE
  5
295
330
1F
100
AcDbEntity
  8
cut_out
100
AcDbLine
 10
413.704671541311
 20
230.9185385429452
 30
0.0
 11
416.5086546008275
 21
238.5657291138097
 31
0.0
  0
LINE
  5
296
330
1F
100
AcDbEntity
  8
cut_out
100
AcDbLine
 10
416.5086546008275
 20
238.5657291138097
 30
0.0
 11
415.7891647434937
 21
240.1183186748959
 31
0.0
  0
LINE
  5
297
330
1F
100
AcDbEntity
  8
cut_out
100
AcDbLine
 10
415.7891647434937
 20
240.1183186748959
 30
0.0
 11
401.2872391755251
 21
245.4357163840467
 31
0.0
  0
LINE
  5
298
330
1F
100
AcDbEntity
  8
cut_out
100
AcDbLine
 10
324.4300348269288
 20
241.5813298963819
 30
0.0
 11
326.109946385505
 21
243.3232533032407
 31
0.0
  0
LINE
  5
299
330
1F
100
AcDbEntity
  8
cut_out
100
AcDbLine
 10
326.109946385505
 20
243.3232533032407
 30
0.0
 11
337.228062850349
 21
232.6009377953688
 31
0.0
  0
LINE
  5
29A
330
1F
100
AcDbEntity
  8
cut_out
100
AcDbLine
 10
337.228062850349
 20
232.6009377953688
 30
0.0
 11
338.9389803330665
 21
232.6319437195102
 31
0.0
  0
LINE
  5
29B
330
1F
100
AcDbEntity
  8
cut_out
100
AcDbLine
 10
338.9389803330665
 20
232.6319437195102
 30
0.0
 11
344.5930977580477
 21
238.4947758652994
 31
0.0
  0
LINE
  5
29C
330
1F
100
AcDbEntity
  8
cut_out
100
AcDbLine
 10
344.5930977580477
 20
238.4947758652994
 30
0.0
 11
328.1183971175658
 21
254.3829830740969
 31
0.0
  0
LINE
  5
29D
330
1F
100
AcDbEntity
  8
cut_out
100
AcDbLine
 10
328.1183971175658
 20
254.3829830740969
 30
0.0
 11
348.3199425908889
 21
265.1416284345701
 31
0.0
  0
LINE
  5
29E
330
1F
100
AcDbEntity
  8
cut_out
100
AcDbLine
 10
348.3199425908889
 20
265.1416284345701
 30
0.0
 11
344.4912762472021
 21
272.3307284237131
 31
0.0
  0
LINE
  5
29F
330
1F
100
AcDbEntity
  8
cut_out
100
AcDbLine
 10
344.4912762472021
 20
272.3307284237131
 30
0.0
 11
342.8545156689344
 21
272.8299426156476
 31
0.0
  0
LINE
  5
2A0
330
1F
100
AcDbEntity
  8
cut_out
100
AcDbLine
 10
342.8545156689344
 20
272.8299426156476
 30
0.0
 11
329.2213007023236
 21
265.5693632138117
 31
0.0
  0
LINE
  5
2A1
330
1F
100
AcDbEntity
  8
cut_out
100
AcDbLine
 10
329.2213007023236
 20
265.5693632138117
 30
0.0
 11
328.0837543159905
 21
267.705337984014
 31
0.0
  0
LINE
  5
2A2
330
1F
100
AcDbEntity
  8
cut_out
100
AcDbLine
 10
328.0837543159905
 20
267.705337984014
 30
0.0
 11
341.7169692826013
 21
274.9659173858498
 31
0.0
  0
LINE
  5
2A3
330
1F
100
AcDbEntity
  8
cut_out
100
AcDbLine
 10
341.7169692826013
 20
274.9659173858498
 30
0.0
 11
342.2161834745357
 21
276.6026779641175
 31
0.0
  0
LINE
  5
2A4
330
1F
100
AcDbEntity
  8
cut_out
100
AcDbLine
 10
342.2161834745357
 20
276.6026779641175
 30
0.0
 11
338.3875171308489
 21
283.7917779532605
 31
0.0
  0
LINE
  5
2A5
330
1F
100
AcDbEntity
  8
cut_out
100
AcDbLine
 10
338.3875171308489
 20
283.7917779532605
 30
0.0
 11
318.1859716575258
 21
273.0331325927871
 31
0.0
  0
LINE
  5
2A6
330
1F
100
AcDbEntity
  8
cut_out
100
AcDbLine
 10
318.1859716575258
 20
273.0331325927871
 30
0.0
 11
314.1965127448343
 21
295.5705483072635
 31
0.0
  0
LINE
  5
2A7
330
1F
100
AcDbEntity
  8
cut_out
100
AcDbLine
 10
314.1965127448343
 20
295.5705483072635
 30
0.0
 11
306.1761493878718
 21
294.1508243032861
 31
0.0
  0
LINE
  5
2A8
330
1F
100
AcDbEntity
  8
cut_out
100
AcDbLine
 10
306.1761493878718
 20
294.1508243032861
 30
0.0
 11
305.1955816431977
 21
292.7484381588504
 31
0.0
  0
LINE
  5
2A9
330
1F
100
AcDbEntity
  8
cut_out
100
AcDbLine
 10
305.1955816431977
 20
292.7484381588504
 30
0.0
 11
307.8879078827425
 21
277.5388378026266
 31
0.0
  0
LINE
  5
2AA
330
1F
100
AcDbEntity
  8
cut_out
100
AcDbLine
 10
307.8879078827425
 20
277.5388378026266
 30
0.0
 11
305.5049539936329
 21
277.1170194028651
 31
0.0
  0
LINE
  5
2AB
330
1F
100
AcDbEntity
  8
cut_out
100
AcDbLine
 10
305.5049539936329
 20
277.1170194028651
 30
0.0
 11
302.8126277540881
 21
292.326619759089
 31
0.0
  0
LINE
  5
2AC
330
1F
100
AcDbEntity
  8
cut_out
100
AcDbLine
 10
302.8126277540881
 20
292.326619759089
 30
0.0
 11
301.4102416096525
 21
293.307187503763
 31
0.0
  0
LINE
  5
2AD
330
1F
100
AcDbEntity
  8
cut_out
100
AcDbLine
 10
301.4102416096525
 20
293.307187503763
 30
0.0
 11
293.3898782526901
 21
291.8874634997856
 31
0.0
  0
LINE
  5
2AE
330
1F
100
AcDbEntity
  8
cut_out
100
AcDbLine
 10
293.3898782526901
 20
291.8874634997856
 30
0.0
 11
297.3793371653817
 21
269.3500477853093
 31
0.0
  0
LINE
  5
2AF
330
1F
100
AcDbEntity
  8
cut_out
100
AcDbLine
 10
297.3793371653817
 20
269.3500477853093
 30
0.0
 11
274.7121704872939
 21
272.5202913549683
 31
0.0
  0
LINE
  5
2B0
330
1F
100
AcDbEntity
  8
cut_out
100
AcDbLine
 10
274.7121704872939
 20
272.5202913549683
 30
0.0
 11
273.5839796742537
 21
264.4537536767233
 31
0.0
  0
LINE
  5
2B1
330
1F
100
AcDbEntity
  8
cut_out
100
AcDbLine
 10
273.5839796742537
 20
264.4537536767233
 30
0.0
 11
274.6147160580411
 21
263.0878171821757
 31
0.0
  0
LINE
  5
2B2
330
1F
100
AcDbEntity
  8
cut_out
100
AcDbLine
 10
274.6147160580411
 20
263.0878171821757
 30
0.0
 11
289.9118801494938
 21
260.9483466085628
 31
0.0
  0
LINE
  5
2B3
330
1F
100
AcDbEntity
  8
cut_out
100
AcDbLine
 10
289.9118801494938
 20
260.9483466085628
 30
0.0
 11
289.5766800387335
 21
258.5516737302278
 31
0.0
  0
LINE
  5
2B4
330
1F
100
AcDbEntity
  8
cut_out
100
AcDbLine
 10
289.5766800387335
 20
258.5516737302278
 30
0.0
 11
274.2795159472807
 21
260.6911443038407
 31
0.0
  0
LINE
  5
2B5
330
1F
100
AcDbEntity
  8
cut_out
100
AcDbLine
 10
274.2795159472807
 20
260.6911443038407
 30
0.0
 11
272.9135794527331
 21
259.6604079200534
 31
0.0
  0
LINE
  5
2B6
330
1F
100
AcDbEntity
  8
cut_out
100
AcDbLine
 10
272.9135794527331
 20
259.6604079200534
 30
0.0
 11
271.785388639693
 21
251.5938702418084
 31
0.0
  0
LINE
  5
2B7
330
1F
100
AcDbEntity
  8
cut_out
100
AcDbLine
 10
271.785388639693
 20
251.5938702418084
 30
0.0
 11
294.4525553177806
 21
248.4236266721493
 31
0.0
  0
LINE
  5
2B8
330
1F
100
AcDbEntity
  8
cut_out
100
AcDbLine
 10
294.4525553177806
 20
248.4236266721493
 30
0.0
 11
284.4329347947549
 21
227.8455292363381
 31
0.0
  0
LINE
  5
2B9
330
1F
100
AcDbEntity
  8
cut_out
100
AcDbLine
 10
284.4329347947549
 20
227.8455292363381
 30
0.0
 11
291.7560378834631
 21
224.2798587836284
 31
0.0
  0
LINE
  5
2BA
330
1F
100
AcDbEntity
  8
cut_out
100
AcDbLine
 10
291.7560378834631
 20
224.2798587836284
 30
0.0
 11
293.373635746759
 21
224.8380497479596
 31
0.0
  0
LINE
  5
2BB
330
1F
100
AcDbEntity
  8
cut_out
100
AcDbLine
 10
293.373635746759
 20
224.8380497479596
 30
0.0
 11
300.1354768472164
 21
238.7253845717605
 31
0.0
  0
LINE
  5
2BC
330
1F
100
AcDbEntity
  8
cut_out
100
AcDbLine
 10
300.1354768472164
 20
238.7253845717605
 30
0.0
 11
302.3112656748434
 21
237.665977672796
 31
0.0
  0
LINE
  5
2BD
330
1F
100
AcDbEntity
  8
cut_out
100
AcDbLine
 10
302.3112656748434
 20
237.665977672796
 30
0.0
 11
295.549424574386
 21
223.7786428489952
 31
0.0
  0
LINE
  5
2BE
330
1F
100
AcDbEntity
  8
cut_out
100
AcDbLine
 10
295.549424574386
 20
223.7786428489952
 30
0.0
 11
296.1076155387173
 21
222.1610449856994
 31
0.0
  0
LINE
  5
2BF
330
1F
100
AcDbEntity
  8
cut_out
100
AcDbLine
 10
296.1076155387173
 20
222.1610449856994
 30
0.0
 11
303.4307186274254
 21
218.5953745329896
 31
0.0
  0
LINE
  5
2C0
330
1F
100
AcDbEntity
  8
cut_out
100
AcDbLine
 10
303.4307186274254
 20
218.5953745329896
 30
0.0
 11
313.4503391504512
 21
239.1734719688008
 31
0.0
  0
LINE
  5
2C1
330
1F
100
AcDbEntity
  8
cut_out
100
AcDbLine
 10
313.4503391504512
 20
239.1734719688008
 30
0.0
 11
329.9250397909331
 21
223.2852647600035
 31
0.0
  0
LINE
  5
2C2
330
1F
100
AcDbEntity
  8
cut_out
100
AcDbLine
 10
329.9250397909331
 20
223.2852647600035
 30
0.0
 11
335.5791572159143
 21
229.1480969057927
 31
0.0
  0
LINE
  5
2C3
330
1F
100
AcDbEntity
  8
cut_out
100
AcDbLine
 10
335.5791572159143
 20
229.1480969057927
 30
0.0
 11
335.5481512917729
 21
230.85901438851
 31
0.0
  0
LINE
  5
2C4
330
1F
100
AcDbEntity
  8
cut_out
100
AcDbLine
 10
335.5481512917729
 20
230.85901438851
 30
0.0
 11
324.4300348269288
 21
241.5813298963819
 31
0.0
  0
LINE
  5
2C5
330
1F
100
AcDbEntity
  8
cut_out
100
AcDbLine
 10
415.6837044373258
 20
352.7702069718114
 30
0.0
 11
414.0372109911229
 21
353.236317829452
 31
0.0
  0
LINE
  5
2C6
330
1F
100
AcDbEntity
  8
cut_out
100
AcDbLine
 10
414.0372109911229
 20
353.236317829452
 30
0.0
 11
400.5531619211229
 21
345.7023292275216
 31
0.0
  0
LINE
  5
2C7
330
1F
100
AcDbEntity
  8
cut_out
100
AcDbLine
 10
400.5531619211229
 20
345.7023292275216
 30
0.0
 11
399.3727793325606
 21
347.8149335313653
 31
0.0
  0
LINE
  5
2C8
330
1F
100
AcDbEntity
  8
cut_out
100
AcDbLine
 10
399.3727793325606
 20
347.8149335313653
 30
0.0
 11
412.8568284025605
 21
355.3489221332958
 31
0.0
  0
LINE
  5
2C9
330
1F
100
AcDbEntity
  8
cut_out
100
AcDbLine
 10
412.8568284025605
 20
355.3489221332958
 30
0.0
 11
413.3229392602012
 21
356.9954155794989
 31
0.0
  0
LINE
  5
2CA
330
1F
100
AcDbEntity
  8
cut_out
100
AcDbLine
 10
413.3229392602012
 20
356.9954155794989
 30
0.0
 11
409.3500981138544
 21
364.1058570461779
 31
0.0
  0
LINE
  5
2CB
330
1F
100
AcDbEntity
  8
cut_out
100
AcDbLine
 10
409.3500981138544
 20
364.1058570461779
 30
0.0
 11
382.0000795060976
 21
348.8244881202913
 31
0.0
  0
LINE
  5
2CC
330
1F
100
AcDbEntity
  8
cut_out
100
AcDbLine
 10
382.0000795060976
 20
348.8244881202913
 30
0.0
 11
355.0910165077993
 21
364.8696145656425
 31
0.0
  0
LINE
  5
2CD
330
1F
100
AcDbEntity
  8
cut_out
100
AcDbLine
 10
355.0910165077993
 20
364.8696145656425
 30
0.0
 11
350.9196141387063
 21
357.8738124743667
 31
0.0
  0
LINE
  5
2CE
330
1F
100
AcDbEntity
  8
cut_out
100
AcDbLine
 10
350.9196141387063
 20
357.8738124743667
 30
0.0
 11
351.3391970181112
 21
356.2148518939699
 31
0.0
  0
LINE
  5
2CF
330
1F
100
AcDbEntity
  8
cut_out
100
AcDbLine
 10
351.3391970181112
 20
356.2148518939699
 30
0.0
 11
364.6058470742054
 21
348.3043171544393
 31
0.0
  0
LINE
  5
2D0
330
1F
100
AcDbEntity
  8
cut_out
100
AcDbLine
 10
364.6058470742054
 20
348.3043171544393
 30
0.0
 11
363.3664693732135
 21
346.2257736946376
 31
0.0
  0
LINE
  5
2D1
330
1F
100
AcDbEntity
  8
cut_out
100
AcDbLine
 10
363.3664693732135
 20
346.2257736946376
 30
0.0
 11
350.0998193171193
 21
354.1363084341683
 31
0.0
  0
LINE
  5
2D2
330
1F
100
AcDbEntity
  8
cut_out
100
AcDbLine
 10
350.0998193171193
 20
354.1363084341683
 30
0.0
 11
348.4408587367226
 21
353.7167255547633
 31
0.0
  0
LINE
  5
2D3
330
1F
100
AcDbEntity
  8
cut_out
100
AcDbLine
 10
348.4408587367226
 20
353.7167255547633
 30
0.0
 11
344.2694563676296
 21
346.7209234634875
 31
0.0
  0
LINE
  5
2D4
330
1F
100
AcDbEntity
  8
cut_out
100
AcDbLine
 10
344.2694563676296
 20
346.7209234634875
 30
0.0
 11
371.1785193659279
 21
330.6757970181362
 31
0.0
  0
LINE
  5
2D5
330
1F
100
AcDbEntity
  8
cut_out
100
AcDbLine
 10
371.1785193659279
 20
330.6757970181362
 30
0.0
 11
370.7375637564694
 21
299.3493016468983
 31
0.0
  0
LINE
  5
2D6
330
1F
100
AcDbEntity
  8
cut_out
100
AcDbLine
 10
370.7375637564694
 20
299.3493016468983
 30
0.0
 11
378.8818072719091
 21
299.2346622714951
 31
0.0
  0
LINE
  5
2D7
330
1F
100
AcDbEntity
  8
cut_out
100
AcDbLine
 10
378.8818072719091
 20
299.2346622714951
 30
0.0
 11
380.1087178387073
 21
300.4275119942512
 31
0.0
  0
LINE
  5
2D8
330
1F
100
AcDbEntity
  8
cut_out
100
AcDbLine
 10
380.1087178387073
 20
300.4275119942512
 30
0.0
 11
380.326116852613
 21
315.8720353357124
 31
0.0
  0
LINE
  5
2D9
330
1F
100
AcDbEntity
  8
cut_out
100
AcDbLine
 10
380.326116852613
 20
315.8720353357124
 30
0.0
 11
382.7458771421672
 21
315.8379744916703
 31
0.0
  0
LINE
  5
2DA
330
1F
100
AcDbEntity
  8
cut_out
100
AcDbLine
 10
382.7458771421672
 20
315.8379744916703
 30
0.0
 11
382.5284781282614
 21
300.3934511502092
 31
0.0
  0
LINE
  5
2DB
330
1F
100
AcDbEntity
  8
cut_out
100
AcDbLine
 10
382.5284781282614
 20
300.3934511502092
 30
0.0
 11
383.7213278510175
 21
299.1665405834111
 31
0.0
  0
LINE
  5
2DC
330
1F
100
AcDbEntity
  8
cut_out
100
AcDbLine
 10
383.7213278510175
 20
299.1665405834111
 30
0.0
 11
391.8655713664572
 21
299.0519012080078
 31
0.0
  0
LINE
  5
2DD
330
1F
100
AcDbEntity
  8
cut_out
100
AcDbLine
 10
391.8655713664572
 20
299.0519012080078
 30
0.0
 11
392.3065269759157
 21
330.3783965792457
 31
0.0
  0
LINE
  5
2DE
330
1F
100
AcDbEntity
  8
cut_out
100
AcDbLine
 10
392.3065269759158
 20
330.3783965792458
 30
0.0
 11
419.6565455836725
 21
345.6597655051323
 31
0.0
  0
LINE
  5
2DF
330
1F
100
AcDbEntity
  8
cut_out
100
AcDbLine
 10
419.6565455836725
 20
345.6597655051323
 30
0.0
 11
415.6837044373258
 21
352.7702069718114
 31
0.0
  0
LINE
  5
2E0
330
1F
100
AcDbEntity
  8
cut_out
100
AcDbLine
 10
357.1461701207389
 20
308.0933608560751
 30
0.0
 11
356.6483999612672
 21
309.7305611701293
 31
0.0
  0
LINE
  5
2E1
330
1F
100
AcDbEntity
  8
cut_out
100
AcDbLine
 10
356.6483999612672
 20
309.7305611701293
 30
0.0
 11
343.0215950855746
 21
317.0031640367781
 31
0.0
  0
LINE
  5
2E2
330
1F
100
AcDbEntity
  8
cut_out
100
AcDbLine
 10
343.0215950855746
 20
317.0031640367781
 30
0.0
 11
344.1610252401572
 21
319.1381345103042
 31
0.0
  0
LINE
  5
2E3
330
1F
100
AcDbEntity
  8
cut_out
100
AcDbLine
 10
344.1610252401572
 20
319.1381345103042
 30
0.0
 11
357.7878301158497
 21
311.8655316436554
 31
0.0
  0
LINE
  5
2E4
330
1F
100
AcDbEntity
  8
cut_out
100
AcDbLine
 10
357.7878301158497
 20
311.8655316436554
 30
0.0
 11
359.425030429904
 21
312.3633018031273
 31
0.0
  0
LINE
  5
2E5
330
1F
100
AcDbEntity
  8
cut_out
100
AcDbLine
 10
359.425030429904
 20
312.3633018031273
 30
0.0
 11
363.2600370162237
 21
319.5490216075769
 31
0.0
  0
LINE
  5
2E6
330
1F
100
AcDbEntity
  8
cut_out
100
AcDbLine
 10
363.2600370162237
 20
319.5490216075769
 30
0.0
 11
335.6204634000426
 21
334.3002156070265
 31
0.0
  0
LINE
  5
2E7
330
1F
100
AcDbEntity
  8
cut_out
100
AcDbLine
 10
335.6204634000426
 20
334.3002156070265
 30
0.0
 11
334.575585331628
 21
365.6123855081344
 31
0.0
  0
LINE
  5
2E8
330
1F
100
AcDbEntity
  8
cut_out
100
AcDbLine
 10
334.575585331628
 20
365.6123855081344
 30
0.0
 11
326.4350661433378
 21
365.3407387333431
 31
0.0
  0
LINE
  5
2E9
330
1F
100
AcDbEntity
  8
cut_out
100
AcDbLine
 10
326.4350661433378
 20
365.3407387333431
 30
0.0
 11
325.2660941600188
 21
364.0910569729676
 31
0.0
  0
LINE
  5
2EA
330
1F
100
AcDbEntity
  8
cut_out
100
AcDbLine
 10
325.2660941600188
 20
364.0910569729676
 30
0.0
 11
325.7812377637117
 21
348.6535963448798
 31
0.0
  0
LINE
  5
2EB
330
1F
100
AcDbEntity
  8
cut_out
100
AcDbLine
 10
325.7812377637117
 20
348.6535963448798
 30
0.0
 11
323.3625840200173
 21
348.5728865678233
 31
0.0
  0
LINE
  5
2EC
330
1F
100
AcDbEntity
  8
cut_out
100
AcDbLine
 10
323.3625840200173
 20
348.5728865678233
 30
0.0
 11
322.8474404163243
 21
364.0103471959111
 31
0.0
  0
LINE
  5
2ED
330
1F
100
AcDbEntity
  8
cut_out
100
AcDbLine
 10
322.8474404163243
 20
364.0103471959111
 30
0.0
 11
321.5977586559488
 21
365.17931917923
 31
0.0
  0
LINE
  5
2EE
330
1F
100
AcDbEntity
  8
cut_out
100
AcDbLine
 10
321.5977586559488
 20
365.17931917923
 30
0.0
 11
313.4572394676586
 21
364.9076724044388
 31
0.0
  0
LINE
  5
2EF
330
1F
100
AcDbEntity
  8
cut_out
100
AcDbLine
 10
313.4572394676586
 20
364.9076724044388
 30
0.0
 11
314.5021175360732
 21
333.5955025033309
 31
0.0
  0
LINE
  5
2F0
330
1F
100
AcDbEntity
  8
cut_out
100
AcDbLine
 10
314.5021175360732
 20
333.5955025033309
 30
0.0
 11
287.9074219883066
 21
317.0345266016728
 31
0.0
  0
LINE
  5
2F1
330
1F
100
AcDbEntity
  8
cut_out
100
AcDbLine
 10
287.9074219883066
 20
317.0345266016728
 30
0.0
 11
292.2129345902769
 21
310.1204535720144
 31
0.0
  0
LINE
  5
2F2
330
1F
100
AcDbEntity
  8
cut_out
100
AcDbLine
 10
292.2129345902769
 20
310.1204535720144
 30
0.0
 11
293.8796767330678
 21
309.7329350183356
 31
0.0
  0
LINE
  5
2F3
330
1F
100
AcDbEntity
  8
cut_out
100
AcDbLine
 10
293.8796767330678
 20
309.7329350183356
 30
0.0
 11
306.9913380050673
 21
317.8977927797746
 31
0.0
  0
LINE
  5
2F4
330
1F
100
AcDbEntity
  8
cut_out
100
AcDbLine
 10
306.9913380050673
 20
317.8977927797746
 30
0.0
 11
308.2705615941794
 21
315.8435320833051
 31
0.0
  0
LINE
  5
2F5
330
1F
100
AcDbEntity
  8
cut_out
100
AcDbLine
 10
308.2705615941794
 20
315.8435320833051
 30
0.0
 11
295.1589003221799
 21
307.6786743218661
 31
0.0
  0
LINE
  5
2F6
330
1F
100
AcDbEntity
  8
cut_out
100
AcDbLine
 10
295.1589003221799
 20
307.6786743218661
 30
0.0
 11
294.7713817685011
 21
306.0119321790754
 31
0.0
  0
LINE
  5
2F7
330
1F
100
AcDbEntity
  8
cut_out
100
AcDbLine
 10
294.7713817685011
 20
306.0119321790754
 30
0.0
 11
299.0768943704715
 21
299.0978591494169
 31
0.0
  0
LINE
  5
2F8
330
1F
100
AcDbEntity
  8
cut_out
100
AcDbLine
 10
299.0768943704715
 20
299.0978591494169
 30
0.0
 11
325.6715899182381
 21
315.6588350510751
 31
0.0
  0
LINE
  5
2F9
330
1F
100
AcDbEntity
  8
cut_out
100
AcDbLine
 10
325.6715899182382
 20
315.6588350510752
 30
0.0
 11
353.3111635344192
 21
300.9076410516255
 31
0.0
  0
LINE
  5
2FA
330
1F
100
AcDbEntity
  8
cut_out
100
AcDbLine
 10
353.3111635344192
 20
300.9076410516255
 30
0.0
 11
357.1461701207389
 21
308.0933608560751
 31
0.0
  0
LINE
  5
2FB
330
1F
100
AcDbEntity
  8
cut_out
100
AcDbLine
 10
359.2829431225217
 20
375.4017104122323
 30
0.0
 11
358.7851729630499
 21
377.0389107262865
 31
0.0
  0
LINE
  5
2FC
330
1F
100
AcDbEntity
  8
cut_out
100
AcDbLine
 10
358.7851729630499
 20
377.0389107262865
 30
0.0
 11
345.1583680873574
 21
384.3115135929353
 31
0.0
  0
LINE
  5
2FD
330
1F
100
AcDbEntity
  8
cut_out
100
AcDbLine
 10
345.1583680873574
 20
384.3115135929353
 30
0.0
 11
346.2977982419399
 21
386.4464840664614
 31
0.0
  0
LINE
  5
2FE
330
1F
100
AcDbEntity
  8
cut_out
100
AcDbLine
 10
346.2977982419399
 20
386.4464840664614
 30
0.0
 11
359.9246031176324
 21
379.1738811998126
 31
0.0
  0
LINE
  5
2FF
330
1F
100
AcDbEntity
  8
cut_out
100
AcDbLine
 10
359.9246031176324
 20
379.1738811998126
 30
0.0
 11
361.5618034316868
 21
379.6716513592845
 31
0.0
  0
LINE
  5
300
330
1F
100
AcDbEntity
  8
cut_out
100
AcDbLine
 10
361.5618034316868
 20
379.6716513592845
 30
0.0
 11
365.3968100180065
 21
386.8573711637341
 31
0.0
  0
LINE
  5
301
330
1F
100
AcDbEntity
  8
cut_out
100
AcDbLine
 10
365.3968100180065
 20
386.8573711637341
 30
0.0
 11
337.7572364018253
 21
401.6085651631838
 31
0.0
  0
LINE
  5
302
330
1F
100
AcDbEntity
  8
cut_out
100
AcDbLine
 10
337.7572364018253
 20
401.6085651631838
 30
0.0
 11
336.7123583334107
 21
432.9207350642916
 31
0.0
  0
LINE
  5
303
330
1F
100
AcDbEntity
  8
cut_out
100
AcDbLine
 10
336.7123583334107
 20
432.9207350642916
 30
0.0
 11
328.5718391451206
 21
432.6490882895003
 31
0.0
  0
LINE
  5
304
330
1F
100
AcDbEntity
  8
cut_out
100
AcDbLine
 10
328.5718391451206
 20
432.6490882895003
 30
0.0
 11
327.4028671618016
 21
431.3994065291247
 31
0.0
  0
LINE
  5
305
330
1F
100
AcDbEntity
  8
cut_out
100
AcDbLine
 10
327.4028671618016
 20
431.3994065291247
 30
0.0
 11
327.9180107654945
 21
415.961945901037
 31
0.0
  0
LINE
  5
306
330
1F
100
AcDbEntity
  8
cut_out
100
AcDbLine
 10
327.9180107654945
 20
415.961945901037
 30
0.0
 11
325.4993570218001
 21
415.8812361239805
 31
0.0
  0
LINE
  5
307
330
1F
100
AcDbEntity
  8
cut_out
100
AcDbLine
 10
325.4993570218001
 20
415.8812361239805
 30
0.0
 11
324.9842134181071
 21
431.3186967520683
 31
0.0
  0
LINE
  5
308
330
1F
100
AcDbEntity
  8
cut_out
100
AcDbLine
 10
324.9842134181071
 20
431.3186967520683
 30
0.0
 11
323.7345316577315
 21
432.4876687353872
 31
0.0
  0
LINE
  5
309
330
1F
100
AcDbEntity
  8
cut_out
100
AcDbLine
 10
323.7345316577315
 20
432.4876687353872
 30
0.0
 11
315.5940124694413
 21
432.216021960596
 31
0.0
  0
LINE
  5
30A
330
1F
100
AcDbEntity
  8
cut_out
100
AcDbLine
 10
315.5940124694413
 20
432.216021960596
 30
0.0
 11
316.6388905378559
 21
400.9038520594881
 31
0.0
  0
LINE
  5
30B
330
1F
100
AcDbEntity
  8
cut_out
100
AcDbLine
 10
316.6388905378559
 20
400.9038520594881
 30
0.0
 11
290.0441949900893
 21
384.34287615783
 31
0.0
  0
LINE
  5
30C
330
1F
100
AcDbEntity
  8
cut_out
100
AcDbLine
 10
290.0441949900893
 20
384.34287615783
 30
0.0
 11
294.3497075920596
 21
377.4288031281716
 31
0.0
  0
LINE
  5
30D
330
1F
100
AcDbEntity
  8
cut_out
100
AcDbLine
 10
294.3497075920596
 20
377.4288031281716
 30
0.0
 11
296.0164497348505
 21
377.0412845744929
 31
0.0
  0
LINE
  5
30E
330
1F
100
AcDbEntity
  8
cut_out
100
AcDbLine
 10
296.0164497348505
 20
377.0412845744929
 30
0.0
 11
309.1281110068501
 21
385.2061423359319
 31
0.0
  0
LINE
  5
30F
330
1F
100
AcDbEntity
  8
cut_out
100
AcDbLine
 10
309.1281110068501
 20
385.2061423359319
 30
0.0
 11
310.4073345959622
 21
383.1518816394624
 31
0.0
  0
LINE
  5
310
330
1F
100
AcDbEntity
  8
cut_out
100
AcDbLine
 10
310.4073345959622
 20
383.1518816394624
 30
0.0
 11
297.2956733239626
 21
374.9870238780233
 31
0.0
  0
LINE
  5
311
330
1F
100
AcDbEntity
  8
cut_out
100
AcDbLine
 10
297.2956733239626
 20
374.9870238780233
 30
0.0
 11
296.9081547702839
 21
373.3202817352326
 31
0.0
  0
LINE
  5
312
330
1F
100
AcDbEntity
  8
cut_out
100
AcDbLine
 10
296.9081547702839
 20
373.3202817352326
 30
0.0
 11
301.2136673722542
 21
366.4062087055742
 31
0.0
  0
LINE
  5
313
330
1F
100
AcDbEntity
  8
cut_out
100
AcDbLine
 10
301.2136673722542
 20
366.4062087055742
 30
0.0
 11
327.8083629200208
 21
382.9671846072324
 31
0.0
  0
LINE
  5
314
330
1F
100
AcDbEntity
  8
cut_out
100
AcDbLine
 10
327.8083629200209
 20
382.9671846072324
 30
0.0
 11
355.447936536202
 21
368.2159906077827
 31
0.0
  0
LINE
  5
315
330
1F
100
AcDbEntity
  8
cut_out
100
AcDbLine
 10
355.447936536202
 20
368.2159906077827
 30
0.0
 11
359.2829431225217
 21
375.4017104122323
 31
0.0
  0
LINE
  5
316
330
1F
100
AcDbEntity
  8
cut_out
100
AcDbLine
 10
417.8204774391086
 20
420.0785565279686
 30
0.0
 11
416.1739839929056
 21
420.5446673856093
 31
0.0
  0
LINE
  5
317
330
1F
100
AcDbEntity
  8
cut_out
100
AcDbLine
 10
416.1739839929056
 20
420.5446673856093
 30
0.0
 11
402.6899349229056
 21
413.0106787836788
 31
0.0
  0
LINE
  5
318
330
1F
100
AcDbEntity
  8
cut_out
100
AcDbLine
 10
402.6899349229056
 20
413.0106787836788
 30
0.0
 11
401.5095523343433
 21
415.1232830875225
 31
0.0
  0
LINE
  5
319
330
1F
100
AcDbEntity
  8
cut_out
100
AcDbLine
 10
401.5095523343433
 20
415.1232830875225
 30
0.0
 11
414.9936014043433
 21
422.657271689453
 31
0.0
  0
LINE
  5
31A
330
1F
100
AcDbEntity
  8
cut_out
100
AcDbLine
 10
414.9936014043433
 20
422.657271689453
 30
0.0
 11
415.4597122619839
 21
424.3037651356561
 31
0.0
  0
LINE
  5
31B
330
1F
100
AcDbEntity
  8
cut_out
100
AcDbLine
 10
415.4597122619839
 20
424.3037651356561
 30
0.0
 11
411.4868711156371
 21
431.4142066023351
 31
0.0
  0
LINE
  5
31C
330
1F
100
AcDbEntity
  8
cut_out
100
AcDbLine
 10
411.4868711156371
 20
431.4142066023351
 30
0.0
 11
384.1368525078804
 21
416.1328376764486
 31
0.0
  0
LINE
  5
31D
330
1F
100
AcDbEntity
  8
cut_out
100
AcDbLine
 10
384.1368525078804
 20
416.1328376764486
 30
0.0
 11
357.2277895095821
 21
432.1779641217997
 31
0.0
  0
LINE
  5
31E
330
1F
100
AcDbEntity
  8
cut_out
100
AcDbLine
 10
357.2277895095821
 20
432.1779641217997
 30
0.0
 11
353.0563871404891
 21
425.1821620305238
 31
0.0
  0
LINE
  5
31F
330
1F
100
AcDbEntity
  8
cut_out
100
AcDbLine
 10
353.0563871404891
 20
425.1821620305238
 30
0.0
 11
353.475970019894
 21
423.5232014501271
 31
0.0
  0
LINE
  5
320
330
1F
100
AcDbEntity
  8
cut_out
100
AcDbLine
 10
353.475970019894
 20
423.5232014501271
 30
0.0
 11
366.7426200759882
 21
415.6126667105964
 31
0.0
  0
LINE
  5
321
330
1F
100
AcDbEntity
  8
cut_out
100
AcDbLine
 10
366.7426200759882
 20
415.6126667105964
 30
0.0
 11
365.5032423749963
 21
413.5341232507948
 31
0.0
  0
LINE
  5
322
330
1F
100
AcDbEntity
  8
cut_out
100
AcDbLine
 10
365.5032423749963
 20
413.5341232507948
 30
0.0
 11
352.2365923189021
 21
421.4446579903255
 31
0.0
  0
LINE
  5
323
330
1F
100
AcDbEntity
  8
cut_out
100
AcDbLine
 10
352.2365923189021
 20
421.4446579903255
 30
0.0
 11
350.5776317385053
 21
421.0250751109206
 31
0.0
  0
LINE
  5
324
330
1F
100
AcDbEntity
  8
cut_out
100
AcDbLine
 10
350.5776317385053
 20
421.0250751109206
 30
0.0
 11
346.4062293694124
 21
414.0292730196447
 31
0.0
  0
LINE
  5
325
330
1F
100
AcDbEntity
  8
cut_out
100
AcDbLine
 10
346.4062293694124
 20
414.0292730196447
 30
0.0
 11
373.3152923677107
 21
397.9841465742934
 31
0.0
  0
LINE
  5
326
330
1F
100
AcDbEntity
  8
cut_out
100
AcDbLine
 10
373.3152923677107
 20
397.9841465742934
 30
0.0
 11
372.8743367582521
 21
366.6576512030555
 31
0.0
  0
LINE
  5
327
330
1F
100
AcDbEntity
  8
cut_out
100
AcDbLine
 10
372.8743367582521
 20
366.6576512030555
 30
0.0
 11
381.0185802736918
 21
366.5430118276523
 31
0.0
  0
LINE
  5
328
330
1F
100
AcDbEntity
  8
cut_out
100
AcDbLine
 10
381.0185802736918
 20
366.5430118276523
 30
0.0
 11
382.24549084049
 21
367.7358615504085
 31
0.0
  0
LINE
  5
329
330
1F
100
AcDbEntity
  8
cut_out
100
AcDbLine
 10
382.24549084049
 20
367.7358615504085
 30
0.0
 11
382.4628898543958
 21
383.1803848918696
 31
0.0
  0
LINE
  5
32A
330
1F
100
AcDbEntity
  8
cut_out
100
AcDbLine
 10
382.4628898543958
 20
383.1803848918696
 30
0.0
 11
384.8826501439499
 21
383.1463240478275
 31
0.0
  0
LINE
  5
32B
330
1F
100
AcDbEntity
  8
cut_out
100
AcDbLine
 10
384.8826501439499
 20
383.1463240478275
 30
0.0
 11
384.6652511300442
 21
367.7018007063664
 31
0.0
  0
LINE
  5
32C
330
1F
100
AcDbEntity
  8
cut_out
100
AcDbLine
 10
384.6652511300442
 20
367.7018007063664
 30
0.0
 11
385.8581008528002
 21
366.4748901395683
 31
0.0
  0
LINE
  5
32D
330
1F
100
AcDbEntity
  8
cut_out
100
AcDbLine
 10
385.8581008528002
 20
366.4748901395683
 30
0.0
 11
394.00234436824
 21
366.3602507641651
 31
0.0
  0
LINE
  5
32E
330
1F
100
AcDbEntity
  8
cut_out
100
AcDbLine
 10
394.00234436824
 20
366.3602507641651
 30
0.0
 11
394.4432999776985
 21
397.6867461354029
 31
0.0
  0
LINE
  5
32F
330
1F
100
AcDbEntity
  8
cut_out
100
AcDbLine
 10
394.4432999776985
 20
397.686746135403
 30
0.0
 11
421.7933185854553
 21
412.9681150612896
 31
0.0
  0
LINE
  5
330
330
1F
100
AcDbEntity
  8
cut_out
100
AcDbLine
 10
421.7933185854553
 20
412.9681150612896
 30
0.0
 11
417.8204774391086
 21
420.0785565279686
 31
0.0
  0
LINE
  5
331
330
1F
100
AcDbEntity
  8
cut_out
100
AcDbLine
 10
417.8204774391086
 20
534.9929280962543
 30
0.0
 11
416.1739839929056
 21
535.4590389538951
 31
0.0
  0
LINE
  5
332
330
1F
100
AcDbEntity
  8
cut_out
100
AcDbLine
 10
416.1739839929056
 20
535.4590389538951
 30
0.0
 11
402.6899349229056
 21
527.9250503519645
 31
0.0
  0
LINE
  5
333
330
1F
100
AcDbEntity
  8
cut_out
100
AcDbLine
 10
402.6899349229056
 20
527.9250503519645
 30
0.0
 11
401.5095523343433
 21
530.0376546558083
 31
0.0
  0
LINE
  5
334
330
1F
100
AcDbEntity
  8
cut_out
100
AcDbLine
 10
401.5095523343433
 20
530.0376546558083
 30
0.0
 11
414.9936014043433
 21
537.5716432577387
 31
0.0
  0
LINE
  5
335
330
1F
100
AcDbEntity
  8
cut_out
100
AcDbLine
 10
414.9936014043433
 20
537.5716432577387
 30
0.0
 11
415.4597122619839
 21
539.2181367039418
 31
0.0
  0
LINE
  5
336
330
1F
100
AcDbEntity
  8
cut_out
100
AcDbLine
 10
415.4597122619839
 20
539.2181367039418
 30
0.0
 11
411.4868711156371
 21
546.3285781706209
 31
0.0
  0
LINE
  5
337
330
1F
100
AcDbEntity
  8
cut_out
100
AcDbLine
 10
411.4868711156371
 20
546.3285781706209
 30
0.0
 11
384.1368525078804
 21
531.0472092447343
 31
0.0
  0
LINE
  5
338
330
1F
100
AcDbEntity
  8
cut_out
100
AcDbLine
 10
384.1368525078804
 20
531.0472092447343
 30
0.0
 11
357.2277895095821
 21
547.0923356900855
 31
0.0
  0
LINE
  5
339
330
1F
100
AcDbEntity
  8
cut_out
100
AcDbLine
 10
357.2277895095821
 20
547.0923356900855
 30
0.0
 11
353.0563871404891
 21
540.0965335988096
 31
0.0
  0
LINE
  5
33A
330
1F
100
AcDbEntity
  8
cut_out
100
AcDbLine
 10
353.0563871404891
 20
540.0965335988096
 30
0.0
 11
353.475970019894
 21
538.4375730184129
 31
0.0
  0
LINE
  5
33B
330
1F
100
AcDbEntity
  8
cut_out
100
AcDbLine
 10
353.475970019894
 20
538.4375730184129
 30
0.0
 11
366.7426200759882
 21
530.5270382788822
 31
0.0
  0
LINE
  5
33C
330
1F
100
AcDbEntity
  8
cut_out
100
AcDbLine
 10
366.7426200759882
 20
530.5270382788822
 30
0.0
 11
365.5032423749963
 21
528.4484948190806
 31
0.0
  0
LINE
  5
33D
330
1F
100
AcDbEntity
  8
cut_out
100
AcDbLine
 10
365.5032423749963
 20
528.4484948190806
 30
0.0
 11
352.2365923189021
 21
536.3590295586113
 31
0.0
  0
LINE
  5
33E
330
1F
100
AcDbEntity
  8
cut_out
100
AcDbLine
 10
352.2365923189021
 20
536.3590295586113
 30
0.0
 11
350.5776317385053
 21
535.9394466792063
 31
0.0
  0
LINE
  5
33F
330
1F
100
AcDbEntity
  8
cut_out
100
AcDbLine
 10
350.5776317385053
 20
535.9394466792063
 30
0.0
 11
346.4062293694124
 21
528.9436445879304
 31
0.0
  0
LINE
  5
340
330
1F
100
AcDbEntity
  8
cut_out
100
AcDbLine
 10
346.4062293694124
 20
528.9436445879304
 30
0.0
 11
373.3152923677107
 21
512.8985181425792
 31
0.0
  0
LINE
  5
341
330
1F
100
AcDbEntity
  8
cut_out
100
AcDbLine
 10
373.3152923677107
 20
512.8985181425792
 30
0.0
 11
372.8743367582521
 21
481.5720227713413
 31
0.0
  0
LINE
  5
342
330
1F
100
AcDbEntity
  8
cut_out
100
AcDbLine
 10
372.8743367582521
 20
481.5720227713413
 30
0.0
 11
381.0185802736918
 21
481.4573833959381
 31
0.0
  0
LINE
  5
343
330
1F
100
AcDbEntity
  8
cut_out
100
AcDbLine
 10
381.0185802736918
 20
481.4573833959381
 30
0.0
 11
382.24549084049
 21
482.6502331186942
 31
0.0
  0
LINE
  5
344
330
1F
100
AcDbEntity
  8
cut_out
100
AcDbLine
 10
382.24549084049
 20
482.6502331186942
 30
0.0
 11
382.4628898543958
 21
498.0947564601554
 31
0.0
  0
LINE
  5
345
330
1F
100
AcDbEntity
  8
cut_out
100
AcDbLine
 10
382.4628898543958
 20
498.0947564601554
 30
0.0
 11
384.8826501439499
 21
498.0606956161133
 31
0.0
  0
LINE
  5
346
330
1F
100
AcDbEntity
  8
cut_out
100
AcDbLine
 10
384.8826501439499
 20
498.0606956161133
 30
0.0
 11
384.6652511300442
 21
482.6161722746522
 31
0.0
  0
LINE
  5
347
330
1F
100
AcDbEntity
  8
cut_out
100
AcDbLine
 10
384.6652511300442
 20
482.6161722746522
 30
0.0
 11
385.8581008528002
 21
481.3892617078541
 31
0.0
  0
LINE
  5
348
330
1F
100
AcDbEntity
  8
cut_out
100
AcDbLine
 10
385.8581008528002
 20
481.3892617078541
 30
0.0
 11
394.00234436824
 21
481.2746223324508
 31
0.0
  0
LINE
  5
349
330
1F
100
AcDbEntity
  8
cut_out
100
AcDbLine
 10
394.00234436824
 20
481.2746223324508
 30
0.0
 11
394.4432999776985
 21
512.6011177036887
 31
0.0
  0
LINE
  5
34A
330
1F
100
AcDbEntity
  8
cut_out
100
AcDbLine
 10
394.4432999776985
 20
512.6011177036887
 30
0.0
 11
421.7933185854553
 21
527.8824866295753
 31
0.0
  0
LINE
  5
34B
330
1F
100
AcDbEntity
  8
cut_out
100
AcDbLine
 10
421.7933185854553
 20
527.8824866295753
 30
0.0
 11
417.8204774391086
 21
534.9929280962543
 31
0.0
  0
LINE
  5
34C
330
1F
100
AcDbEntity
  8
cut_out
100
AcDbLine
 10
359.2829431225217
 20
490.3160819805181
 30
0.0
 11
358.7851729630499
 21
491.9532822945723
 31
0.0
  0
LINE
  5
34D
330
1F
100
AcDbEntity
  8
cut_out
100
AcDbLine
 10
358.7851729630499
 20
491.9532822945723
 30
0.0
 11
345.1583680873574
 21
499.2258851612211
 31
0.0
  0
LINE
  5
34E
330
1F
100
AcDbEntity
  8
cut_out
100
AcDbLine
 10
345.1583680873574
 20
499.2258851612211
 30
0.0
 11
346.2977982419399
 21
501.3608556347472
 31
0.0
  0
LINE
  5
34F
330
1F
100
AcDbEntity
  8
cut_out
100
AcDbLine
 10
346.2977982419399
 20
501.3608556347472
 30
0.0
 11
359.9246031176324
 21
494.0882527680984
 31
0.0
  0
LINE
  5
350
330
1F
100
AcDbEntity
  8
cut_out
100
AcDbLine
 10
359.9246031176324
 20
494.0882527680984
 30
0.0
 11
361.5618034316868
 21
494.5860229275703
 31
0.0
  0
LINE
  5
351
330
1F
100
AcDbEntity
  8
cut_out
100
AcDbLine
 10
361.5618034316868
 20
494.5860229275703
 30
0.0
 11
365.3968100180065
 21
501.7717427320199
 31
0.0
  0
LINE
  5
352
330
1F
100
AcDbEntity
  8
cut_out
100
AcDbLine
 10
365.3968100180065
 20
501.7717427320199
 30
0.0
 11
337.7572364018253
 21
516.5229367314695
 31
0.0
  0
LINE
  5
353
330
1F
100
AcDbEntity
  8
cut_out
100
AcDbLine
 10
337.7572364018253
 20
516.5229367314695
 30
0.0
 11
336.7123583334107
 21
547.8351066325773
 31
0.0
  0
LINE
  5
354
330
1F
100
AcDbEntity
  8
cut_out
100
AcDbLine
 10
336.7123583334107
 20
547.8351066325773
 30
0.0
 11
328.5718391451206
 21
547.563459857786
 31
0.0
  0
LINE
  5
355
330
1F
100
AcDbEntity
  8
cut_out
100
AcDbLine
 10
328.5718391451206
 20
547.563459857786
 30
0.0
 11
327.4028671618016
 21
546.3137780974105
 31
0.0
  0
LINE
  5
356
330
1F
100
AcDbEntity
  8
cut_out
100
AcDbLine
 10
327.4028671618016
 20
546.3137780974105
 30
0.0
 11
327.9180107654945
 21
530.8763174693228
 31
0.0
  0
LINE
  5
357
330
1F
100
AcDbEntity
  8
cut_out
100
AcDbLine
 10
327.9180107654945
 20
530.8763174693228
 30
0.0
 11
325.4993570218001
 21
530.7956076922662
 31
0.0
  0
LINE
  5
358
330
1F
100
AcDbEntity
  8
cut_out
100
AcDbLine
 10
325.4993570218001
 20
530.7956076922662
 30
0.0
 11
324.9842134181071
 21
546.233068320354
 31
0.0
  0
LINE
  5
359
330
1F
100
AcDbEntity
  8
cut_out
100
AcDbLine
 10
324.9842134181071
 20
546.233068320354
 30
0.0
 11
323.7345316577315
 21
547.402040303673
 31
0.0
  0
LINE
  5
35A
330
1F
100
AcDbEntity
  8
cut_out
100
AcDbLine
 10
323.7345316577315
 20
547.402040303673
 30
0.0
 11
315.5940124694413
 21
547.1303935288818
 31
0.0
  0
LINE
  5
35B
330
1F
100
AcDbEntity
  8
cut_out
100
AcDbLine
 10
315.5940124694413
 20
547.1303935288818
 30
0.0
 11
316.6388905378559
 21
515.8182236277739
 31
0.0
  0
LINE
  5
35C
330
1F
100
AcDbEntity
  8
cut_out
100
AcDbLine
 10
316.6388905378559
 20
515.8182236277739
 30
0.0
 11
290.0441949900893
 21
499.2572477261158
 31
0.0
  0
LINE
  5
35D
330
1F
100
AcDbEntity
  8
cut_out
100
AcDbLine
 10
290.0441949900893
 20
499.2572477261158
 30
0.0
 11
294.3497075920596
 21
492.3431746964574
 31
0.0
  0
LINE
  5
35E
330
1F
100
AcDbEntity
  8
cut_out
100
AcDbLine
 10
294.3497075920596
 20
492.3431746964574
 30
0.0
 11
296.0164497348505
 21
491.9556561427786
 31
0.0
  0
LINE
  5
35F
330
1F
100
AcDbEntity
  8
cut_out
100
AcDbLine
 10
296.0164497348505
 20
491.9556561427786
 30
0.0
 11
309.1281110068501
 21
500.1205139042177
 31
0.0
  0
LINE
  5
360
330
1F
100
AcDbEntity
  8
cut_out
100
AcDbLine
 10
309.1281110068501
 20
500.1205139042177
 30
0.0
 11
310.4073345959622
 21
498.0662532077481
 31
0.0
  0
LINE
  5
361
330
1F
100
AcDbEntity
  8
cut_out
100
AcDbLine
 10
310.4073345959622
 20
498.0662532077481
 30
0.0
 11
297.2956733239626
 21
489.901395446309
 31
0.0
  0
LINE
  5
362
330
1F
100
AcDbEntity
  8
cut_out
100
AcDbLine
 10
297.2956733239626
 20
489.901395446309
 30
0.0
 11
296.9081547702839
 21
488.2346533035184
 31
0.0
  0
LINE
  5
363
330
1F
100
AcDbEntity
  8
cut_out
100
AcDbLine
 10
296.9081547702839
 20
488.2346533035184
 30
0.0
 11
301.2136673722542
 21
481.3205802738599
 31
0.0
  0
LINE
  5
364
330
1F
100
AcDbEntity
  8
cut_out
100
AcDbLine
 10
301.2136673722542
 20
481.3205802738599
 30
0.0
 11
327.8083629200208
 21
497.8815561755181
 31
0.0
  0
LINE
  5
365
330
1F
100
AcDbEntity
  8
cut_out
100
AcDbLine
 10
327.8083629200209
 20
497.8815561755182
 30
0.0
 11
355.447936536202
 21
483.1303621760685
 31
0.0
  0
LINE
  5
366
330
1F
100
AcDbEntity
  8
cut_out
100
AcDbLine
 10
355.447936536202
 20
483.1303621760685
 30
0.0
 11
359.2829431225217
 21
490.3160819805181
 31
0.0
  0
LINE
  5
367
330
1F
100
AcDbEntity
  8
cut_out
100
AcDbLine
 10
241.6267546880838
 20
525.4531526178665
 30
0.0
 11
279.0560880214177
 21
525.4531526178665
 31
0.0
  0
LINE
  5
368
330
1F
100
AcDbEntity
  8
cut_out
100
AcDbLine
 10
279.0560880214177
 20
525.4531526178665
 30
0.0
 11
279.0560880214177
 21
533.598202932332
 31
0.0
  0
LINE
  5
369
330
1F
100
AcDbEntity
  8
cut_out
100
AcDbLine
 10
279.0560880214177
 20
533.598202932332
 30
0.0
 11
277.8460880214176
 21
534.8082029323319
 31
0.0
  0
LINE
  5
36A
330
1F
100
AcDbEntity
  8
cut_out
100
AcDbLine
 10
277.8460880214176
 20
534.8082029323319
 30
0.0
 11
262.4000346880841
 21
534.8082029323319
 31
0.0
  0
LINE
  5
36B
330
1F
100
AcDbEntity
  8
cut_out
100
AcDbLine
 10
262.4000346880841
 20
534.8082029323319
 30
0.0
 11
262.4000346880841
 21
537.2282029323321
 31
0.0
  0
LINE
  5
36C
330
1F
100
AcDbEntity
  8
cut_out
100
AcDbLine
 10
262.4000346880841
 20
537.2282029323321
 30
0.0
 11
277.8460880214176
 21
537.2282029323321
 31
0.0
  0
LINE
  5
36D
330
1F
100
AcDbEntity
  8
cut_out
100
AcDbLine
 10
277.8460880214176
 20
537.2282029323321
 30
0.0
 11
279.0560880214177
 21
538.438202932332
 31
0.0
  0
LINE
  5
36E
330
1F
100
AcDbEntity
  8
cut_out
100
AcDbLine
 10
279.0560880214177
 20
538.438202932332
 30
0.0
 11
279.0560880214177
 21
546.5832532467978
 31
0.0
  0
LINE
  5
36F
330
1F
100
AcDbEntity
  8
cut_out
100
AcDbLine
 10
279.0560880214177
 20
546.5832532467978
 30
0.0
 11
241.6267546880838
 21
546.5832532467978
 31
0.0
  0
LINE
  5
370
330
1F
100
AcDbEntity
  8
cut_out
100
AcDbLine
 10
241.6267546880838
 20
546.5832532467978
 30
0.0
 11
204.1974213547498
 21
546.5832532467978
 31
0.0
  0
LINE
  5
371
330
1F
100
AcDbEntity
  8
cut_out
100
AcDbLine
 10
204.1974213547498
 20
546.5832532467978
 30
0.0
 11
204.1974213547498
 21
538.438202932332
 31
0.0
  0
LINE
  5
372
330
1F
100
AcDbEntity
  8
cut_out
100
AcDbLine
 10
204.1974213547498
 20
538.438202932332
 30
0.0
 11
205.4074213547499
 21
537.2282029323321
 31
0.0
  0
LINE
  5
373
330
1F
100
AcDbEntity
  8
cut_out
100
AcDbLine
 10
205.4074213547499
 20
537.2282029323321
 30
0.0
 11
220.8534746880834
 21
537.2282029323321
 31
0.0
  0
LINE
  5
374
330
1F
100
AcDbEntity
  8
cut_out
100
AcDbLine
 10
220.8534746880834
 20
537.2282029323321
 30
0.0
 11
220.8534746880834
 21
534.8082029323319
 31
0.0
  0
LINE
  5
375
330
1F
100
AcDbEntity
  8
cut_out
100
AcDbLine
 10
220.8534746880834
 20
534.8082029323319
 30
0.0
 11
205.4074213547499
 21
534.8082029323319
 31
0.0
  0
LINE
  5
376
330
1F
100
AcDbEntity
  8
cut_out
100
AcDbLine
 10
205.4074213547499
 20
534.8082029323319
 30
0.0
 11
204.1974213547498
 21
533.598202932332
 31
0.0
  0
LINE
  5
377
330
1F
100
AcDbEntity
  8
cut_out
100
AcDbLine
 10
204.1974213547498
 20
533.598202932332
 30
0.0
 11
204.1974213547498
 21
525.4531526178665
 31
0.0
  0
LINE
  5
378
330
1F
100
AcDbEntity
  8
cut_out
100
AcDbLine
 10
204.1974213547498
 20
525.4531526178665
 30
0.0
 11
241.6267546880838
 21
525.4531526178665
 31
0.0
  0
LINE
  5
379
330
1F
100
AcDbEntity
  8
cut_out
100
AcDbLine
 10
274.3108226208014
 20
476.6897812737653
 30
0.0
 11
275.1439223245539
 21
478.9618606921853
 31
0.0
  0
LINE
  5
37A
330
1F
100
AcDbEntity
  8
cut_out
100
AcDbLine
 10
275.1439223245539
 20
478.9618606921853
 30
0.0
 11
289.6458478925225
 21
473.6444629830345
 31
0.0
  0
LINE
  5
37B
330
1F
100
AcDbEntity
  8
cut_out
100
AcDbLine
 10
289.6458478925225
 20
473.6444629830345
 30
0.0
 11
291.1984374536088
 21
474.3639528403684
 31
0.0
  0
LINE
  5
37C
330
1F
100
AcDbEntity
  8
cut_out
100
AcDbLine
 10
291.1984374536088
 20
474.3639528403684
 30
0.0
 11
294.0024205131253
 21
482.0111434112329
 31
0.0
  0
LINE
  5
37D
330
1F
100
AcDbEntity
  8
cut_out
100
AcDbLine
 10
294.0024205131253
 20
482.0111434112329
 30
0.0
 11
272.5136293857529
 21
489.8904038706502
 31
0.0
  0
LINE
  5
37E
330
1F
100
AcDbEntity
  8
cut_out
100
AcDbLine
 10
272.5136293857529
 20
489.8904038706502
 30
0.0
 11
286.6476530362
 21
507.8926333145766
 31
0.0
  0
LINE
  5
37F
330
1F
100
AcDbEntity
  8
cut_out
100
AcDbLine
 10
286.6476530362
 20
507.8926333145766
 30
0.0
 11
280.2412210297585
 21
512.922491520532
 31
0.0
  0
LINE
  5
380
330
1F
100
AcDbEntity
  8
cut_out
100
AcDbLine
 10
280.2412210297585
 20
512.922491520532
 30
0.0
 11
278.5422860173592
 21
512.7179925629714
 31
0.0
  0
LINE
  5
381
330
1F
100
AcDbEntity
  8
cut_out
100
AcDbLine
 10
278.5422860173592
 20
512.7179925629714
 30
0.0
 11
269.0037988246756
 21
500.5690080107054
 31
0.0
  0
LINE
  5
382
330
1F
100
AcDbEntity
  8
cut_out
100
AcDbLine
 10
269.0037988246756
 20
500.5690080107054
 30
0.0
 11
267.1003648547154
 21
502.0634440655441
 31
0.0
  0
LINE
  5
383
330
1F
100
AcDbEntity
  8
cut_out
100
AcDbLine
 10
267.1003648547154
 20
502.0634440655441
 30
0.0
 11
276.638852047399
 21
514.2124286178101
 31
0.0
  0
LINE
  5
384
330
1F
100
AcDbEntity
  8
cut_out
100
AcDbLine
 10
276.638852047399
 20
514.2124286178101
 30
0.0
 11
276.4343530898382
 21
515.9113636302095
 31
0.0
  0
LINE
  5
385
330
1F
100
AcDbEntity
  8
cut_out
100
AcDbLine
 10
276.4343530898382
 20
515.9113636302095
 30
0.0
 11
270.0279210833967
 21
520.9412218361648
 31
0.0
  0
LINE
  5
386
330
1F
100
AcDbEntity
  8
cut_out
100
AcDbLine
 10
270.0279210833967
 20
520.9412218361648
 30
0.0
 11
255.8938974329495
 21
502.9389923922383
 31
0.0
  0
LINE
  5
387
330
1F
100
AcDbEntity
  8
cut_out
100
AcDbLine
 10
255.8938974329495
 20
502.9389923922383
 30
0.0
 11
243.1404133193484
 21
521.9442425212764
 31
0.0
  0
LINE
  5
388
330
1F
100
AcDbEntity
  8
cut_out
100
AcDbLine
 10
243.1404133193484
 20
521.9442425212764
 30
0.0
 11
236.3770375332358
 21
517.4056752802848
 31
0.0
  0
LINE
  5
389
330
1F
100
AcDbEntity
  8
cut_out
100
AcDbLine
 10
236.3770375332358
 20
517.4056752802848
 30
0.0
 11
236.0465278082295
 21
515.7266984127621
 31
0.0
  0
LINE
  5
38A
330
1F
100
AcDbEntity
  8
cut_out
100
AcDbLine
 10
236.0465278082295
 20
515.7266984127621
 30
0.0
 11
244.6533440898641
 21
502.9008153215136
 31
0.0
  0
LINE
  5
38B
330
1F
100
AcDbEntity
  8
cut_out
100
AcDbLine
 10
244.6533440898641
 20
502.9008153215136
 30
0.0
 11
242.6438574973351
 21
501.5523481789972
 31
0.0
  0
LINE
  5
38C
330
1F
100
AcDbEntity
  8
cut_out
100
AcDbLine
 10
242.6438574973351
 20
501.5523481789972
 30
0.0
 11
234.0370412157005
 21
514.3782312702458
 31
0.0
  0
LINE
  5
38D
330
1F
100
AcDbEntity
  8
cut_out
100
AcDbLine
 10
234.0370412157005
 20
514.3782312702458
 30
0.0
 11
232.3580643481777
 21
514.708740995252
 31
0.0
  0
LINE
  5
38E
330
1F
100
AcDbEntity
  8
cut_out
100
AcDbLine
 10
232.3580643481777
 20
514.708740995252
 30
0.0
 11
225.5946885620652
 21
510.1701737542605
 31
0.0
  0
LINE
  5
38F
330
1F
100
AcDbEntity
  8
cut_out
100
AcDbLine
 10
225.5946885620652
 20
510.1701737542605
 30
0.0
 11
238.3481726756663
 21
491.1649236252225
 31
0.0
  0
LINE
  5
390
330
1F
100
AcDbEntity
  8
cut_out
100
AcDbLine
 10
238.3481726756663
 20
491.1649236252225
 30
0.0
 11
216.3320623680317
 21
484.9085847257348
 31
0.0
  0
LINE
  5
391
330
1F
100
AcDbEntity
  8
cut_out
100
AcDbLine
 10
216.3320623680317
 20
484.9085847257348
 30
0.0
 11
218.5584982599677
 21
477.0737377046198
 31
0.0
  0
LINE
  5
392
330
1F
100
AcDbEntity
  8
cut_out
100
AcDbLine
 10
218.5584982599677
 20
477.0737377046198
 30
0.0
 11
220.0531670287008
 21
476.2405718917267
 31
0.0
  0
LINE
  5
393
330
1F
100
AcDbEntity
  8
cut_out
100
AcDbLine
 10
220.0531670287008
 20
476.2405718917267
 30
0.0
 11
234.9109592183606
 21
480.4627247578685
 31
0.0
  0
LINE
  5
394
330
1F
100
AcDbEntity
  8
cut_out
100
AcDbLine
 10
234.9109592183606
 20
480.4627247578685
 30
0.0
 11
235.5724621742007
 21
478.1348901762423
 31
0.0
  0
LINE
  5
395
330
1F
100
AcDbEntity
  8
cut_out
100
AcDbLine
 10
235.5724621742007
 20
478.1348901762423
 30
0.0
 11
220.7146699845409
 21
473.9127373101005
 31
0.0
  0
LINE
  5
396
330
1F
100
AcDbEntity
  8
cut_out
100
AcDbLine
 10
220.7146699845409
 20
473.9127373101005
 30
0.0
 11
219.8815041716478
 21
472.4180685413673
 31
0.0
  0
LINE
  5
397
330
1F
100
AcDbEntity
  8
cut_out
100
AcDbLine
 10
219.8815041716478
 20
472.4180685413673
 30
0.0
 11
222.1079400635837
 21
464.5832215202523
 31
0.0
  0
LINE
  5
398
330
1F
100
AcDbEntity
  8
cut_out
100
AcDbLine
 10
222.1079400635837
 20
464.5832215202523
 30
0.0
 11
244.1240503712182
 21
470.83956041974
 31
0.0
  0
LINE
  5
399
330
1F
100
AcDbEntity
  8
cut_out
100
AcDbLine
 10
244.1240503712182
 20
470.83956041974
 30
0.0
 11
243.2708300146343
 21
447.9676802056805
 31
0.0
  0
LINE
  5
39A
330
1F
100
AcDbEntity
  8
cut_out
100
AcDbLine
 10
243.2708300146343
 20
447.9676802056805
 30
0.0
 11
251.4102188557359
 21
447.664045690967
 31
0.0
  0
LINE
  5
39B
330
1F
100
AcDbEntity
  8
cut_out
100
AcDbLine
 10
251.4102188557359
 20
447.664045690967
 30
0.0
 11
252.6644846817423
 21
448.8280977678573
 31
0.0
  0
LINE
  5
39C
330
1F
100
AcDbEntity
  8
cut_out
100
AcDbLine
 10
252.6644846817423
 20
448.8280977678573
 30
0.0
 11
253.2402889711002
 21
464.2634148360793
 31
0.0
  0
LINE
  5
39D
330
1F
100
AcDbEntity
  8
cut_out
100
AcDbLine
 10
253.2402889711002
 20
464.2634148360793
 30
0.0
 11
255.6586068739968
 21
464.1732010869633
 31
0.0
  0
LINE
  5
39E
330
1F
100
AcDbEntity
  8
cut_out
100
AcDbLine
 10
255.6586068739968
 20
464.1732010869633
 30
0.0
 11
255.0828025846389
 21
448.7378840187414
 31
0.0
  0
LINE
  5
39F
330
1F
100
AcDbEntity
  8
cut_out
100
AcDbLine
 10
255.0828025846389
 20
448.7378840187414
 30
0.0
 11
256.2468546615294
 21
447.483618192735
 31
0.0
  0
LINE
  5
3A0
330
1F
100
AcDbEntity
  8
cut_out
100
AcDbLine
 10
256.2468546615294
 20
447.483618192735
 30
0.0
 11
264.3862435026309
 21
447.1799836780216
 31
0.0
  0
LINE
  5
3A1
330
1F
100
AcDbEntity
  8
cut_out
100
AcDbLine
 10
264.3862435026309
 20
447.1799836780216
 30
0.0
 11
265.2394638592148
 21
470.0518638920811
 31
0.0
  0
LINE
  5
3A2
330
1F
100
AcDbEntity
  8
cut_out
100
AcDbLine
 10
265.2394638592148
 20
470.0518638920811
 30
0.0
 11
286.7282549865873
 21
462.1726034326639
 31
0.0
  0
LINE
  5
3A3
330
1F
100
AcDbEntity
  8
cut_out
100
AcDbLine
 10
286.7282549865873
 20
462.1726034326639
 30
0.0
 11
289.5322380461038
 21
469.8197940035284
 31
0.0
  0
LINE
  5
3A4
330
1F
100
AcDbEntity
  8
cut_out
100
AcDbLine
 10
289.5322380461038
 20
469.8197940035284
 30
0.0
 11
288.81274818877
 21
471.3723835646146
 31
0.0
  0
LINE
  5
3A5
330
1F
100
AcDbEntity
  8
cut_out
100
AcDbLine
 10
288.81274818877
 20
471.3723835646146
 30
0.0
 11
274.3108226208014
 21
476.6897812737653
 31
0.0
  0
LINE
  5
3A6
330
1F
100
AcDbEntity
  8
cut_out
100
AcDbLine
 10
401.1487816182446
 20
24.5664220520169
 30
0.0
 11
403.0635466270221
 21
-12.81390256855033
 31
0.0
  0
LINE
  5
3A7
330
1F
100
AcDbEntity
  8
cut_out
100
AcDbLine
 10
403.0635466270221
 20
-12.81390256855033
 30
0.0
 11
411.1979320859912
 21
-12.39722783918823
 31
0.0
  0
LINE
  5
3A8
330
1F
100
AcDbEntity
  8
cut_out
100
AcDbLine
 10
411.1979320859912
 20
-12.39722783918823
 30
0.0
 11
412.344448021717
 21
-11.12691244168779
 31
0.0
  0
LINE
  5
3A9
330
1F
100
AcDbEntity
  8
cut_out
100
AcDbLine
 10
412.344448021717
 20
-11.12691244168779
 30
0.0
 11
411.5542773236983
 21
4.298916347851448
 31
0.0
  0
LINE
  5
3AA
330
1F
100
AcDbEntity
  8
cut_out
100
AcDbLine
 10
411.5542773236983
 20
4.298916347851448
 30
0.0
 11
413.9711086569246
 21
4.422715809625831
 31
0.0
  0
LINE
  5
3AB
330
1F
100
AcDbEntity
  8
cut_out
100
AcDbLine
 10
413.9711086569246
 20
4.422715809625831
 30
0.0
 11
414.7612793549434
 21
-11.00311297991341
 31
0.0
  0
LINE
  5
3AC
330
1F
100
AcDbEntity
  8
cut_out
100
AcDbLine
 10
414.7612793549434
 20
-11.00311297991341
 30
0.0
 11
416.0315947524437
 21
-12.14962891563941
 31
0.0
  0
LINE
  5
3AD
330
1F
100
AcDbEntity
  8
cut_out
100
AcDbLine
 10
416.0315947524437
 20
-12.14962891563941
 30
0.0
 11
424.1659802114128
 21
-11.73295418627731
 31
0.0
  0
LINE
  5
3AE
330
1F
100
AcDbEntity
  8
cut_out
100
AcDbLine
 10
424.1659802114128
 20
-11.73295418627731
 30
0.0
 11
422.2512152026353
 21
25.64737043428992
 31
0.0
  0
LINE
  5
3AF
330
1F
100
AcDbEntity
  8
cut_out
100
AcDbLine
 10
422.2512152026353
 20
25.64737043428992
 30
0.0
 11
420.3364501938578
 21
63.02769505485715
 31
0.0
  0
LINE
  5
3B0
330
1F
100
AcDbEntity
  8
cut_out
100
AcDbLine
 10
420.3364501938578
 20
63.02769505485715
 30
0.0
 11
412.2020647348887
 21
62.61102032549505
 31
0.0
  0
LINE
  5
3B1
330
1F
100
AcDbEntity
  8
cut_out
100
AcDbLine
 10
412.2020647348887
 20
62.61102032549505
 30
0.0
 11
411.0555487991629
 21
61.34070492799466
 31
0.0
  0
LINE
  5
3B2
330
1F
100
AcDbEntity
  8
cut_out
100
AcDbLine
 10
411.0555487991629
 20
61.34070492799466
 30
0.0
 11
411.8457194971816
 21
45.91487613845541
 31
0.0
  0
LINE
  5
3B3
330
1F
100
AcDbEntity
  8
cut_out
100
AcDbLine
 10
411.8457194971816
 20
45.91487613845541
 30
0.0
 11
409.4288881639553
 21
45.79107667668103
 31
0.0
  0
LINE
  5
3B4
330
1F
100
AcDbEntity
  8
cut_out
100
AcDbLine
 10
409.4288881639553
 20
45.79107667668103
 30
0.0
 11
408.6387174659365
 21
61.21690546622028
 31
0.0
  0
LINE
  5
3B5
330
1F
100
AcDbEntity
  8
cut_out
100
AcDbLine
 10
408.6387174659365
 20
61.21690546622028
 30
0.0
 11
407.3684020684362
 21
62.36342140194624
 31
0.0
  0
LINE
  5
3B6
330
1F
100
AcDbEntity
  8
cut_out
100
AcDbLine
 10
407.3684020684362
 20
62.36342140194624
 30
0.0
 11
399.2340166094671
 21
61.94674667258414
 31
0.0
  0
LINE
  5
3B7
330
1F
100
AcDbEntity
  8
cut_out
100
AcDbLine
 10
399.2340166094671
 20
61.94674667258414
 30
0.0
 11
401.1487816182446
 21
24.5664220520169
 31
0.0
  0
LINE
  5
3B8
330
1F
100
AcDbEntity
  8
cut_out
100
AcDbLine
 10
456.6246851339688
 20
24.5664220520169
 30
0.0
 11
458.5394501427463
 21
-12.81390256855033
 31
0.0
  0
LINE
  5
3B9
330
1F
100
AcDbEntity
  8
cut_out
100
AcDbLine
 10
458.5394501427463
 20
-12.81390256855033
 30
0.0
 11
466.6738356017154
 21
-12.39722783918823
 31
0.0
  0
LINE
  5
3BA
330
1F
100
AcDbEntity
  8
cut_out
100
AcDbLine
 10
466.6738356017154
 20
-12.39722783918823
 30
0.0
 11
467.8203515374412
 21
-11.12691244168779
 31
0.0
  0
LINE
  5
3BB
330
1F
100
AcDbEntity
  8
cut_out
100
AcDbLine
 10
467.8203515374412
 20
-11.12691244168779
 30
0.0
 11
467.0301808394225
 21
4.298916347851448
 31
0.0
  0
LINE
  5
3BC
330
1F
100
AcDbEntity
  8
cut_out
100
AcDbLine
 10
467.0301808394225
 20
4.298916347851448
 30
0.0
 11
469.4470121726488
 21
4.422715809625831
 31
0.0
  0
LINE
  5
3BD
330
1F
100
AcDbEntity
  8
cut_out
100
AcDbLine
 10
469.4470121726488
 20
4.422715809625831
 30
0.0
 11
470.2371828706677
 21
-11.00311297991341
 31
0.0
  0
LINE
  5
3BE
330
1F
100
AcDbEntity
  8
cut_out
100
AcDbLine
 10
470.2371828706677
 20
-11.00311297991341
 30
0.0
 11
471.5074982681679
 21
-12.14962891563941
 31
0.0
  0
LINE
  5
3BF
330
1F
100
AcDbEntity
  8
cut_out
100
AcDbLine
 10
471.5074982681679
 20
-12.14962891563941
 30
0.0
 11
479.641883727137
 21
-11.73295418627731
 31
0.0
  0
LINE
  5
3C0
330
1F
100
AcDbEntity
  8
cut_out
100
AcDbLine
 10
479.641883727137
 20
-11.73295418627731
 30
0.0
 11
477.7271187183595
 21
25.64737043428992
 31
0.0
  0
LINE
  5
3C1
330
1F
100
AcDbEntity
  8
cut_out
100
AcDbLine
 10
477.7271187183595
 20
25.64737043428992
 30
0.0
 11
475.812353709582
 21
63.02769505485715
 31
0.0
  0
LINE
  5
3C2
330
1F
100
AcDbEntity
  8
cut_out
100
AcDbLine
 10
475.812353709582
 20
63.02769505485715
 30
0.0
 11
467.6779682506129
 21
62.61102032549505
 31
0.0
  0
LINE
  5
3C3
330
1F
100
AcDbEntity
  8
cut_out
100
AcDbLine
 10
467.6779682506129
 20
62.61102032549505
 30
0.0
 11
466.5314523148871
 21
61.34070492799466
 31
0.0
  0
LINE
  5
3C4
330
1F
100
AcDbEntity
  8
cut_out
100
AcDbLine
 10
466.5314523148871
 20
61.34070492799466
 30
0.0
 11
467.3216230129058
 21
45.91487613845541
 31
0.0
  0
LINE
  5
3C5
330
1F
100
AcDbEntity
  8
cut_out
100
AcDbLine
 10
467.3216230129058
 20
45.91487613845541
 30
0.0
 11
464.9047916796795
 21
45.79107667668103
 31
0.0
  0
LINE
  5
3C6
330
1F
100
AcDbEntity
  8
cut_out
100
AcDbLine
 10
464.9047916796795
 20
45.79107667668103
 30
0.0
 11
464.1146209816607
 21
61.21690546622028
 31
0.0
  0
LINE
  5
3C7
330
1F
100
AcDbEntity
  8
cut_out
100
AcDbLine
 10
464.1146209816607
 20
61.21690546622028
 30
0.0
 11
462.8443055841604
 21
62.36342140194624
 31
0.0
  0
LINE
  5
3C8
330
1F
100
AcDbEntity
  8
cut_out
100
AcDbLine
 10
462.8443055841604
 20
62.36342140194624
 30
0.0
 11
454.7099201251913
 21
61.94674667258414
 31
0.0
  0
LINE
  5
3C9
330
1F
100
AcDbEntity
  8
cut_out
100
AcDbLine
 10
454.7099201251913
 20
61.94674667258414
 30
0.0
 11
456.6246851339688
 21
24.5664220520169
 31
0.0
  0
LINE
  5
3CA
330
1F
100
AcDbEntity
  8
cut_out
100
AcDbLine
 10
430.9042693717687
 20
23.24742637190408
 30
0.0
 11
432.8190343805463
 21
-14.13289824866315
 31
0.0
  0
LINE
  5
3CB
330
1F
100
AcDbEntity
  8
cut_out
100
AcDbLine
 10
432.8190343805463
 20
-14.13289824866315
 30
0.0
 11
440.9534198395153
 21
-13.71622351930105
 31
0.0
  0
LINE
  5
3CC
330
1F
100
AcDbEntity
  8
cut_out
100
AcDbLine
 10
440.9534198395153
 20
-13.71622351930105
 30
0.0
 11
442.0999357752412
 21
-12.44590812180062
 31
0.0
  0
LINE
  5
3CD
330
1F
100
AcDbEntity
  8
cut_out
100
AcDbLine
 10
442.0999357752412
 20
-12.44590812180062
 30
0.0
 11
441.3097650772224
 21
2.979920667738625
 31
0.0
  0
LINE
  5
3CE
330
1F
100
AcDbEntity
  8
cut_out
100
AcDbLine
 10
441.3097650772224
 20
2.979920667738625
 30
0.0
 11
443.7265964104488
 21
3.103720129513008
 31
0.0
  0
LINE
  5
3CF
330
1F
100
AcDbEntity
  8
cut_out
100
AcDbLine
 10
443.7265964104488
 20
3.103720129513008
 30
0.0
 11
444.5167671084675
 21
-12.32210866002623
 31
0.0
  0
LINE
  5
3D0
330
1F
100
AcDbEntity
  8
cut_out
100
AcDbLine
 10
444.5167671084675
 20
-12.32210866002623
 30
0.0
 11
445.7870825059679
 21
-13.46862459575224
 31
0.0
  0
LINE
  5
3D1
330
1F
100
AcDbEntity
  8
cut_out
100
AcDbLine
 10
445.7870825059679
 20
-13.46862459575224
 30
0.0
 11
453.9214679649369
 21
-13.05194986639014
 31
0.0
  0
LINE
  5
3D2
330
1F
100
AcDbEntity
  8
cut_out
100
AcDbLine
 10
453.9214679649369
 20
-13.05194986639014
 30
0.0
 11
452.0067029561594
 21
24.32837475417709
 31
0.0
  0
LINE
  5
3D3
330
1F
100
AcDbEntity
  8
cut_out
100
AcDbLine
 10
452.0067029561594
 20
24.32837475417709
 30
0.0
 11
450.091937947382
 21
61.70869937474433
 31
0.0
  0
LINE
  5
3D4
330
1F
100
AcDbEntity
  8
cut_out
100
AcDbLine
 10
450.091937947382
 20
61.70869937474433
 30
0.0
 11
441.9575524884129
 21
61.29202464538223
 31
0.0
  0
LINE
  5
3D5
330
1F
100
AcDbEntity
  8
cut_out
100
AcDbLine
 10
441.9575524884129
 20
61.29202464538223
 30
0.0
 11
440.811036552687
 21
60.02170924788183
 31
0.0
  0
LINE
  5
3D6
330
1F
100
AcDbEntity
  8
cut_out
100
AcDbLine
 10
440.811036552687
 20
60.02170924788183
 30
0.0
 11
441.6012072507058
 21
44.59588045834259
 31
0.0
  0
LINE
  5
3D7
330
1F
100
AcDbEntity
  8
cut_out
100
AcDbLine
 10
441.6012072507058
 20
44.59588045834259
 30
0.0
 11
439.1843759174794
 21
44.47208099656821
 31
0.0
  0
LINE
  5
3D8
330
1F
100
AcDbEntity
  8
cut_out
100
AcDbLine
 10
439.1843759174794
 20
44.47208099656821
 30
0.0
 11
438.3942052194606
 21
59.89790978610745
 31
0.0
  0
LINE
  5
3D9
330
1F
100
AcDbEntity
  8
cut_out
100
AcDbLine
 10
438.3942052194606
 20
59.89790978610745
 30
0.0
 11
437.1238898219603
 21
61.04442572183342
 31
0.0
  0
LINE
  5
3DA
330
1F
100
AcDbEntity
  8
cut_out
100
AcDbLine
 10
437.1238898219603
 20
61.04442572183342
 30
0.0
 11
428.9895043629913
 21
60.62775099247131
 31
0.0
  0
LINE
  5
3DB
330
1F
100
AcDbEntity
  8
cut_out
100
AcDbLine
 10
428.9895043629913
 20
60.62775099247131
 30
0.0
 11
430.9042693717687
 21
23.24742637190408
 31
0.0
  0
LINE
  5
3DC
330
1F
100
AcDbEntity
  8
cut_out
100
AcDbLine
 10
430.9042693717687
 20
105.5756484715071
 30
0.0
 11
432.8190343805463
 21
68.19532385093989
 31
0.0
  0
LINE
  5
3DD
330
1F
100
AcDbEntity
  8
cut_out
100
AcDbLine
 10
432.8190343805463
 20
68.19532385093989
 30
0.0
 11
440.9534198395153
 21
68.61199858030199
 31
0.0
  0
LINE
  5
3DE
330
1F
100
AcDbEntity
  8
cut_out
100
AcDbLine
 10
440.9534198395153
 20
68.61199858030199
 30
0.0
 11
442.0999357752412
 21
69.88231397780243
 31
0.0
  0
LINE
  5
3DF
330
1F
100
AcDbEntity
  8
cut_out
100
AcDbLine
 10
442.0999357752412
 20
69.88231397780243
 30
0.0
 11
441.3097650772224
 21
85.30814276734166
 31
0.0
  0
LINE
  5
3E0
330
1F
100
AcDbEntity
  8
cut_out
100
AcDbLine
 10
441.3097650772224
 20
85.30814276734166
 30
0.0
 11
443.7265964104488
 21
85.43194222911605
 31
0.0
  0
LINE
  5
3E1
330
1F
100
AcDbEntity
  8
cut_out
100
AcDbLine
 10
443.7265964104488
 20
85.43194222911605
 30
0.0
 11
444.5167671084675
 21
70.00611343957681
 31
0.0
  0
LINE
  5
3E2
330
1F
100
AcDbEntity
  8
cut_out
100
AcDbLine
 10
444.5167671084675
 20
70.00611343957681
 30
0.0
 11
445.7870825059679
 21
68.85959750385081
 31
0.0
  0
LINE
  5
3E3
330
1F
100
AcDbEntity
  8
cut_out
100
AcDbLine
 10
445.7870825059679
 20
68.85959750385081
 30
0.0
 11
453.9214679649369
 21
69.27627223321291
 31
0.0
  0
LINE
  5
3E4
330
1F
100
AcDbEntity
  8
cut_out
100
AcDbLine
 10
453.9214679649369
 20
69.27627223321291
 30
0.0
 11
452.0067029561594
 21
106.6565968537801
 31
0.0
  0
LINE
  5
3E5
330
1F
100
AcDbEntity
  8
cut_out
100
AcDbLine
 10
452.0067029561594
 20
106.6565968537801
 30
0.0
 11
450.091937947382
 21
144.0369214743474
 31
0.0
  0
LINE
  5
3E6
330
1F
100
AcDbEntity
  8
cut_out
100
AcDbLine
 10
450.091937947382
 20
144.0369214743474
 30
0.0
 11
441.9575524884129
 21
143.6202467449853
 31
0.0
  0
LINE
  5
3E7
330
1F
100
AcDbEntity
  8
cut_out
100
AcDbLine
 10
441.9575524884129
 20
143.6202467449853
 30
0.0
 11
440.811036552687
 21
142.3499313474849
 31
0.0
  0
LINE
  5
3E8
330
1F
100
AcDbEntity
  8
cut_out
100
AcDbLine
 10
440.811036552687
 20
142.3499313474849
 30
0.0
 11
441.6012072507058
 21
126.9241025579456
 31
0.0
  0
LINE
  5
3E9
330
1F
100
AcDbEntity
  8
cut_out
100
AcDbLine
 10
441.6012072507058
 20
126.9241025579456
 30
0.0
 11
439.1843759174794
 21
126.8003030961712
 31
0.0
  0
LINE
  5
3EA
330
1F
100
AcDbEntity
  8
cut_out
100
AcDbLine
 10
439.1843759174794
 20
126.8003030961712
 30
0.0
 11
438.3942052194606
 21
142.2261318857105
 31
0.0
  0
LINE
  5
3EB
330
1F
100
AcDbEntity
  8
cut_out
100
AcDbLine
 10
438.3942052194606
 20
142.2261318857105
 30
0.0
 11
437.1238898219603
 21
143.3726478214365
 31
0.0
  0
LINE
  5
3EC
330
1F
100
AcDbEntity
  8
cut_out
100
AcDbLine
 10
437.1238898219603
 20
143.3726478214365
 30
0.0
 11
428.9895043629913
 21
142.9559730920743
 31
0.0
  0
LINE
  5
3ED
330
1F
100
AcDbEntity
  8
cut_out
100
AcDbLine
 10
428.9895043629913
 20
142.9559730920743
 30
0.0
 11
430.9042693717687
 21
105.5756484715071
 31
0.0
  0
LINE
  5
3EE
330
1F
100
AcDbEntity
  8
cut_out
100
AcDbLine
 10
456.6246851339688
 20
106.8946441516199
 30
0.0
 11
458.5394501427463
 21
69.5143195310527
 31
0.0
  0
LINE
  5
3EF
330
1F
100
AcDbEntity
  8
cut_out
100
AcDbLine
 10
458.5394501427463
 20
69.5143195310527
 30
0.0
 11
466.6738356017154
 21
69.93099426041482
 31
0.0
  0
LINE
  5
3F0
330
1F
100
AcDbEntity
  8
cut_out
100
AcDbLine
 10
466.6738356017154
 20
69.93099426041482
 30
0.0
 11
467.8203515374412
 21
71.20130965791525
 31
0.0
  0
LINE
  5
3F1
330
1F
100
AcDbEntity
  8
cut_out
100
AcDbLine
 10
467.8203515374412
 20
71.20130965791525
 30
0.0
 11
467.0301808394225
 21
86.62713844745448
 31
0.0
  0
LINE
  5
3F2
330
1F
100
AcDbEntity
  8
cut_out
100
AcDbLine
 10
467.0301808394225
 20
86.62713844745448
 30
0.0
 11
469.4470121726488
 21
86.75093790922887
 31
0.0
  0
LINE
  5
3F3
330
1F
100
AcDbEntity
  8
cut_out
100
AcDbLine
 10
469.4470121726488
 20
86.75093790922887
 30
0.0
 11
470.2371828706677
 21
71.32510911968963
 31
0.0
  0
LINE
  5
3F4
330
1F
100
AcDbEntity
  8
cut_out
100
AcDbLine
 10
470.2371828706677
 20
71.32510911968963
 30
0.0
 11
471.5074982681679
 21
70.17859318396363
 31
0.0
  0
LINE
  5
3F5
330
1F
100
AcDbEntity
  8
cut_out
100
AcDbLine
 10
471.5074982681679
 20
70.17859318396363
 30
0.0
 11
479.641883727137
 21
70.59526791332573
 31
0.0
  0
LINE
  5
3F6
330
1F
100
AcDbEntity
  8
cut_out
100
AcDbLine
 10
479.641883727137
 20
70.59526791332573
 30
0.0
 11
477.7271187183595
 21
107.975592533893
 31
0.0
  0
LINE
  5
3F7
330
1F
100
AcDbEntity
  8
cut_out
100
AcDbLine
 10
477.7271187183595
 20
107.975592533893
 30
0.0
 11
475.812353709582
 21
145.3559171544602
 31
0.0
  0
LINE
  5
3F8
330
1F
100
AcDbEntity
  8
cut_out
100
AcDbLine
 10
475.812353709582
 20
145.3559171544602
 30
0.0
 11
467.6779682506129
 21
144.9392424250981
 31
0.0
  0
LINE
  5
3F9
330
1F
100
AcDbEntity
  8
cut_out
100
AcDbLine
 10
467.6779682506129
 20
144.9392424250981
 30
0.0
 11
466.5314523148871
 21
143.6689270275977
 31
0.0
  0
LINE
  5
3FA
330
1F
100
AcDbEntity
  8
cut_out
100
AcDbLine
 10
466.5314523148871
 20
143.6689270275977
 30
0.0
 11
467.3216230129058
 21
128.2430982380585
 31
0.0
  0
LINE
  5
3FB
330
1F
100
AcDbEntity
  8
cut_out
100
AcDbLine
 10
467.3216230129058
 20
128.2430982380585
 30
0.0
 11
464.9047916796795
 21
128.1192987762841
 31
0.0
  0
LINE
  5
3FC
330
1F
100
AcDbEntity
  8
cut_out
100
AcDbLine
 10
464.9047916796795
 20
128.1192987762841
 30
0.0
 11
464.1146209816607
 21
143.5451275658233
 31
0.0
  0
LINE
  5
3FD
330
1F
100
AcDbEntity
  8
cut_out
100
AcDbLine
 10
464.1146209816607
 20
143.5451275658233
 30
0.0
 11
462.8443055841604
 21
144.6916435015493
 31
0.0
  0
LINE
  5
3FE
330
1F
100
AcDbEntity
  8
cut_out
100
AcDbLine
 10
462.8443055841604
 20
144.6916435015493
 30
0.0
 11
454.7099201251913
 21
144.2749687721872
 31
0.0
  0
LINE
  5
3FF
330
1F
100
AcDbEntity
  8
cut_out
100
AcDbLine
 10
454.7099201251913
 20
144.2749687721872
 30
0.0
 11
456.6246851339688
 21
106.8946441516199
 31
0.0
  0
LINE
  5
400
330
1F
100
AcDbEntity
  8
cut_out
100
AcDbLine
 10
430.9042693717687
 20
186.1706448426974
 30
0.0
 11
432.8190343805463
 21
148.7903202221302
 31
0.0
  0
LINE
  5
401
330
1F
100
AcDbEntity
  8
cut_out
100
AcDbLine
 10
432.8190343805463
 20
148.7903202221302
 30
0.0
 11
440.9534198395153
 21
149.2069949514923
 31
0.0
  0
LINE
  5
402
330
1F
100
AcDbEntity
  8
cut_out
100
AcDbLine
 10
440.9534198395153
 20
149.2069949514923
 30
0.0
 11
442.0999357752412
 21
150.4773103489927
 31
0.0
  0
LINE
  5
403
330
1F
100
AcDbEntity
  8
cut_out
100
AcDbLine
 10
442.0999357752412
 20
150.4773103489927
 30
0.0
 11
441.3097650772224
 21
165.903139138532
 31
0.0
  0
LINE
  5
404
330
1F
100
AcDbEntity
  8
cut_out
100
AcDbLine
 10
441.3097650772224
 20
165.903139138532
 30
0.0
 11
443.7265964104488
 21
166.0269386003064
 31
0.0
  0
LINE
  5
405
330
1F
100
AcDbEntity
  8
cut_out
100
AcDbLine
 10
443.7265964104488
 20
166.0269386003064
 30
0.0
 11
444.5167671084675
 21
150.6011098107671
 31
0.0
  0
LINE
  5
406
330
1F
100
AcDbEntity
  8
cut_out
100
AcDbLine
 10
444.5167671084675
 20
150.6011098107671
 30
0.0
 11
445.7870825059679
 21
149.4545938750411
 31
0.0
  0
LINE
  5
407
330
1F
100
AcDbEntity
  8
cut_out
100
AcDbLine
 10
445.7870825059679
 20
149.4545938750411
 30
0.0
 11
453.9214679649369
 21
149.8712686044032
 31
0.0
  0
LINE
  5
408
330
1F
100
AcDbEntity
  8
cut_out
100
AcDbLine
 10
453.9214679649369
 20
149.8712686044032
 30
0.0
 11
452.0067029561594
 21
187.2515932249705
 31
0.0
  0
LINE
  5
409
330
1F
100
AcDbEntity
  8
cut_out
100
AcDbLine
 10
452.0067029561594
 20
187.2515932249705
 30
0.0
 11
450.091937947382
 21
224.6319178455377
 31
0.0
  0
LINE
  5
40A
330
1F
100
AcDbEntity
  8
cut_out
100
AcDbLine
 10
450.091937947382
 20
224.6319178455377
 30
0.0
 11
441.9575524884129
 21
224.2152431161756
 31
0.0
  0
LINE
  5
40B
330
1F
100
AcDbEntity
  8
cut_out
100
AcDbLine
 10
441.9575524884129
 20
224.2152431161756
 30
0.0
 11
440.811036552687
 21
222.9449277186752
 31
0.0
  0
LINE
  5
40C
330
1F
100
AcDbEntity
  8
cut_out
100
AcDbLine
 10
440.811036552687
 20
222.9449277186752
 30
0.0
 11
441.6012072507058
 21
207.519098929136
 31
0.0
  0
LINE
  5
40D
330
1F
100
AcDbEntity
  8
cut_out
100
AcDbLine
 10
441.6012072507058
 20
207.519098929136
 30
0.0
 11
439.1843759174794
 21
207.3952994673616
 31
0.0
  0
LINE
  5
40E
330
1F
100
AcDbEntity
  8
cut_out
100
AcDbLine
 10
439.1843759174794
 20
207.3952994673616
 30
0.0
 11
438.3942052194606
 21
222.8211282569008
 31
0.0
  0
LINE
  5
40F
330
1F
100
AcDbEntity
  8
cut_out
100
AcDbLine
 10
438.3942052194606
 20
222.8211282569008
 30
0.0
 11
437.1238898219603
 21
223.9676441926268
 31
0.0
  0
LINE
  5
410
330
1F
100
AcDbEntity
  8
cut_out
100
AcDbLine
 10
437.1238898219603
 20
223.9676441926268
 30
0.0
 11
428.9895043629913
 21
223.5509694632647
 31
0.0
  0
LINE
  5
411
330
1F
100
AcDbEntity
  8
cut_out
100
AcDbLine
 10
428.9895043629913
 20
223.5509694632647
 30
0.0
 11
430.9042693717687
 21
186.1706448426974
 31
0.0
  0
LINE
  5
412
330
1F
100
AcDbEntity
  8
cut_out
100
AcDbLine
 10
456.6246851339688
 20
187.4896405228102
 30
0.0
 11
458.5394501427463
 21
150.109315902243
 31
0.0
  0
LINE
  5
413
330
1F
100
AcDbEntity
  8
cut_out
100
AcDbLine
 10
458.5394501427463
 20
150.109315902243
 30
0.0
 11
466.6738356017154
 21
150.5259906316051
 31
0.0
  0
LINE
  5
414
330
1F
100
AcDbEntity
  8
cut_out
100
AcDbLine
 10
466.6738356017154
 20
150.5259906316051
 30
0.0
 11
467.8203515374412
 21
151.7963060291056
 31
0.0
  0
LINE
  5
415
330
1F
100
AcDbEntity
  8
cut_out
100
AcDbLine
 10
467.8203515374412
 20
151.7963060291056
 30
0.0
 11
467.0301808394225
 21
167.2221348186448
 31
0.0
  0
LINE
  5
416
330
1F
100
AcDbEntity
  8
cut_out
100
AcDbLine
 10
467.0301808394225
 20
167.2221348186448
 30
0.0
 11
469.4470121726488
 21
167.3459342804192
 31
0.0
  0
LINE
  5
417
330
1F
100
AcDbEntity
  8
cut_out
100
AcDbLine
 10
469.4470121726488
 20
167.3459342804192
 30
0.0
 11
470.2371828706677
 21
151.92010549088
 31
0.0
  0
LINE
  5
418
330
1F
100
AcDbEntity
  8
cut_out
100
AcDbLine
 10
470.2371828706677
 20
151.92010549088
 30
0.0
 11
471.5074982681679
 21
150.7735895551539
 31
0.0
  0
LINE
  5
419
330
1F
100
AcDbEntity
  8
cut_out
100
AcDbLine
 10
471.5074982681679
 20
150.7735895551539
 30
0.0
 11
479.641883727137
 21
151.190264284516
 31
0.0
  0
LINE
  5
41A
330
1F
100
AcDbEntity
  8
cut_out
100
AcDbLine
 10
479.641883727137
 20
151.190264284516
 30
0.0
 11
477.7271187183595
 21
188.5705889050833
 31
0.0
  0
LINE
  5
41B
330
1F
100
AcDbEntity
  8
cut_out
100
AcDbLine
 10
477.7271187183595
 20
188.5705889050833
 30
0.0
 11
475.812353709582
 21
225.9509135256505
 31
0.0
  0
LINE
  5
41C
330
1F
100
AcDbEntity
  8
cut_out
100
AcDbLine
 10
475.812353709582
 20
225.9509135256505
 30
0.0
 11
467.6779682506129
 21
225.5342387962884
 31
0.0
  0
LINE
  5
41D
330
1F
100
AcDbEntity
  8
cut_out
100
AcDbLine
 10
467.6779682506129
 20
225.5342387962884
 30
0.0
 11
466.5314523148871
 21
224.263923398788
 31
0.0
  0
LINE
  5
41E
330
1F
100
AcDbEntity
  8
cut_out
100
AcDbLine
 10
466.5314523148871
 20
224.263923398788
 30
0.0
 11
467.3216230129058
 21
208.8380946092488
 31
0.0
  0
LINE
  5
41F
330
1F
100
AcDbEntity
  8
cut_out
100
AcDbLine
 10
467.3216230129058
 20
208.8380946092488
 30
0.0
 11
464.9047916796795
 21
208.7142951474744
 31
0.0
  0
LINE
  5
420
330
1F
100
AcDbEntity
  8
cut_out
100
AcDbLine
 10
464.9047916796795
 20
208.7142951474744
 30
0.0
 11
464.1146209816607
 21
224.1401239370136
 31
0.0
  0
LINE
  5
421
330
1F
100
AcDbEntity
  8
cut_out
100
AcDbLine
 10
464.1146209816607
 20
224.1401239370136
 30
0.0
 11
462.8443055841604
 21
225.2866398727396
 31
0.0
  0
LINE
  5
422
330
1F
100
AcDbEntity
  8
cut_out
100
AcDbLine
 10
462.8443055841604
 20
225.2866398727396
 30
0.0
 11
454.7099201251913
 21
224.8699651433775
 31
0.0
  0
LINE
  5
423
330
1F
100
AcDbEntity
  8
cut_out
100
AcDbLine
 10
454.7099201251913
 20
224.8699651433775
 30
0.0
 11
456.6246851339688
 21
187.4896405228102
 31
0.0
  0
LINE
  5
424
330
1F
100
AcDbEntity
  8
cut_out
100
AcDbLine
 10
430.9042693717687
 20
270.2320926707131
 30
0.0
 11
432.8190343805463
 21
232.8517680501459
 31
0.0
  0
LINE
  5
425
330
1F
100
AcDbEntity
  8
cut_out
100
AcDbLine
 10
432.8190343805463
 20
232.8517680501459
 30
0.0
 11
440.9534198395153
 21
233.268442779508
 31
0.0
  0
LINE
  5
426
330
1F
100
AcDbEntity
  8
cut_out
100
AcDbLine
 10
440.9534198395153
 20
233.268442779508
 30
0.0
 11
442.0999357752412
 21
234.5387581770084
 31
0.0
  0
LINE
  5
427
330
1F
100
AcDbEntity
  8
cut_out
100
AcDbLine
 10
442.0999357752412
 20
234.5387581770084
 30
0.0
 11
441.3097650772224
 21
249.9645869665477
 31
0.0
  0
LINE
  5
428
330
1F
100
AcDbEntity
  8
cut_out
100
AcDbLine
 10
441.3097650772224
 20
249.9645869665477
 30
0.0
 11
443.7265964104488
 21
250.0883864283221
 31
0.0
  0
LINE
  5
429
330
1F
100
AcDbEntity
  8
cut_out
100
AcDbLine
 10
443.7265964104488
 20
250.0883864283221
 30
0.0
 11
444.5167671084675
 21
234.6625576387828
 31
0.0
  0
LINE
  5
42A
330
1F
100
AcDbEntity
  8
cut_out
100
AcDbLine
 10
444.5167671084675
 20
234.6625576387828
 30
0.0
 11
445.7870825059679
 21
233.5160417030568
 31
0.0
  0
LINE
  5
42B
330
1F
100
AcDbEntity
  8
cut_out
100
AcDbLine
 10
445.7870825059679
 20
233.5160417030568
 30
0.0
 11
453.9214679649369
 21
233.9327164324189
 31
0.0
  0
LINE
  5
42C
330
1F
100
AcDbEntity
  8
cut_out
100
AcDbLine
 10
453.9214679649369
 20
233.9327164324189
 30
0.0
 11
452.0067029561594
 21
271.3130410529861
 31
0.0
  0
LINE
  5
42D
330
1F
100
AcDbEntity
  8
cut_out
100
AcDbLine
 10
452.0067029561594
 20
271.3130410529861
 30
0.0
 11
450.091937947382
 21
308.6933656735534
 31
0.0
  0
LINE
  5
42E
330
1F
100
AcDbEntity
  8
cut_out
100
AcDbLine
 10
450.091937947382
 20
308.6933656735534
 30
0.0
 11
441.9575524884129
 21
308.2766909441913
 31
0.0
  0
LINE
  5
42F
330
1F
100
AcDbEntity
  8
cut_out
100
AcDbLine
 10
441.9575524884129
 20
308.2766909441913
 30
0.0
 11
440.811036552687
 21
307.0063755466909
 31
0.0
  0
LINE
  5
430
330
1F
100
AcDbEntity
  8
cut_out
100
AcDbLine
 10
440.811036552687
 20
307.0063755466909
 30
0.0
 11
441.6012072507058
 21
291.5805467571516
 31
0.0
  0
LINE
  5
431
330
1F
100
AcDbEntity
  8
cut_out
100
AcDbLine
 10
441.6012072507058
 20
291.5805467571516
 30
0.0
 11
439.1843759174794
 21
291.4567472953773
 31
0.0
  0
LINE
  5
432
330
1F
100
AcDbEntity
  8
cut_out
100
AcDbLine
 10
439.1843759174794
 20
291.4567472953773
 30
0.0
 11
438.3942052194606
 21
306.8825760849165
 31
0.0
  0
LINE
  5
433
330
1F
100
AcDbEntity
  8
cut_out
100
AcDbLine
 10
438.3942052194606
 20
306.8825760849165
 30
0.0
 11
437.1238898219603
 21
308.0290920206425
 31
0.0
  0
LINE
  5
434
330
1F
100
AcDbEntity
  8
cut_out
100
AcDbLine
 10
437.1238898219603
 20
308.0290920206425
 30
0.0
 11
428.9895043629913
 21
307.6124172912804
 31
0.0
  0
LINE
  5
435
330
1F
100
AcDbEntity
  8
cut_out
100
AcDbLine
 10
428.9895043629913
 20
307.6124172912804
 30
0.0
 11
430.9042693717687
 21
270.2320926707131
 31
0.0
  0
LINE
  5
436
330
1F
100
AcDbEntity
  8
cut_out
100
AcDbLine
 10
456.6246851339688
 20
271.551088350826
 30
0.0
 11
458.5394501427463
 21
234.1707637302587
 31
0.0
  0
LINE
  5
437
330
1F
100
AcDbEntity
  8
cut_out
100
AcDbLine
 10
458.5394501427463
 20
234.1707637302587
 30
0.0
 11
466.6738356017154
 21
234.5874384596208
 31
0.0
  0
LINE
  5
438
330
1F
100
AcDbEntity
  8
cut_out
100
AcDbLine
 10
466.6738356017154
 20
234.5874384596208
 30
0.0
 11
467.8203515374412
 21
235.8577538571213
 31
0.0
  0
LINE
  5
439
330
1F
100
AcDbEntity
  8
cut_out
100
AcDbLine
 10
467.8203515374412
 20
235.8577538571213
 30
0.0
 11
467.0301808394225
 21
251.2835826466605
 31
0.0
  0
LINE
  5
43A
330
1F
100
AcDbEntity
  8
cut_out
100
AcDbLine
 10
467.0301808394225
 20
251.2835826466605
 30
0.0
 11
469.4470121726488
 21
251.4073821084349
 31
0.0
  0
LINE
  5
43B
330
1F
100
AcDbEntity
  8
cut_out
100
AcDbLine
 10
469.4470121726488
 20
251.4073821084349
 30
0.0
 11
470.2371828706677
 21
235.9815533188956
 31
0.0
  0
LINE
  5
43C
330
1F
100
AcDbEntity
  8
cut_out
100
AcDbLine
 10
470.2371828706677
 20
235.9815533188956
 30
0.0
 11
471.5074982681679
 21
234.8350373831696
 31
0.0
  0
LINE
  5
43D
330
1F
100
AcDbEntity
  8
cut_out
100
AcDbLine
 10
471.5074982681679
 20
234.8350373831696
 30
0.0
 11
479.641883727137
 21
235.2517121125317
 31
0.0
  0
LINE
  5
43E
330
1F
100
AcDbEntity
  8
cut_out
100
AcDbLine
 10
479.641883727137
 20
235.2517121125317
 30
0.0
 11
477.7271187183595
 21
272.632036733099
 31
0.0
  0
LINE
  5
43F
330
1F
100
AcDbEntity
  8
cut_out
100
AcDbLine
 10
477.7271187183595
 20
272.632036733099
 30
0.0
 11
475.812353709582
 21
310.0123613536662
 31
0.0
  0
LINE
  5
440
330
1F
100
AcDbEntity
  8
cut_out
100
AcDbLine
 10
475.812353709582
 20
310.0123613536662
 30
0.0
 11
467.6779682506129
 21
309.5956866243041
 31
0.0
  0
LINE
  5
441
330
1F
100
AcDbEntity
  8
cut_out
100
AcDbLine
 10
467.6779682506129
 20
309.5956866243041
 30
0.0
 11
466.5314523148871
 21
308.3253712268037
 31
0.0
  0
LINE
  5
442
330
1F
100
AcDbEntity
  8
cut_out
100
AcDbLine
 10
466.5314523148871
 20
308.3253712268037
 30
0.0
 11
467.3216230129058
 21
292.8995424372645
 31
0.0
  0
LINE
  5
443
330
1F
100
AcDbEntity
  8
cut_out
100
AcDbLine
 10
467.3216230129058
 20
292.8995424372645
 30
0.0
 11
464.9047916796795
 21
292.7757429754901
 31
0.0
  0
LINE
  5
444
330
1F
100
AcDbEntity
  8
cut_out
100
AcDbLine
 10
464.9047916796795
 20
292.7757429754901
 30
0.0
 11
464.1146209816607
 21
308.2015717650294
 31
0.0
  0
LINE
  5
445
330
1F
100
AcDbEntity
  8
cut_out
100
AcDbLine
 10
464.1146209816607
 20
308.2015717650294
 30
0.0
 11
462.8443055841604
 21
309.3480877007553
 31
0.0
  0
LINE
  5
446
330
1F
100
AcDbEntity
  8
cut_out
100
AcDbLine
 10
462.8443055841604
 20
309.3480877007553
 30
0.0
 11
454.7099201251913
 21
308.9314129713932
 31
0.0
  0
LINE
  5
447
330
1F
100
AcDbEntity
  8
cut_out
100
AcDbLine
 10
454.7099201251913
 20
308.9314129713932
 30
0.0
 11
456.6246851339688
 21
271.551088350826
 31
0.0
  0
LINE
  5
448
330
1F
100
AcDbEntity
  8
cut_out
100
AcDbLine
 10
430.9042693717687
 20
352.5603147703162
 30
0.0
 11
432.8190343805463
 21
315.179990149749
 31
0.0
  0
LINE
  5
449
330
1F
100
AcDbEntity
  8
cut_out
100
AcDbLine
 10
432.8190343805463
 20
315.179990149749
 30
0.0
 11
440.9534198395153
 21
315.5966648791111
 31
0.0
  0
LINE
  5
44A
330
1F
100
AcDbEntity
  8
cut_out
100
AcDbLine
 10
440.9534198395153
 20
315.5966648791111
 30
0.0
 11
442.0999357752412
 21
316.8669802766115
 31
0.0
  0
LINE
  5
44B
330
1F
100
AcDbEntity
  8
cut_out
100
AcDbLine
 10
442.0999357752412
 20
316.8669802766115
 30
0.0
 11
441.3097650772224
 21
332.2928090661507
 31
0.0
  0
LINE
  5
44C
330
1F
100
AcDbEntity
  8
cut_out
100
AcDbLine
 10
441.3097650772224
 20
332.2928090661507
 30
0.0
 11
443.7265964104488
 21
332.4166085279251
 31
0.0
  0
LINE
  5
44D
330
1F
100
AcDbEntity
  8
cut_out
100
AcDbLine
 10
443.7265964104488
 20
332.4166085279251
 30
0.0
 11
444.5167671084675
 21
316.9907797383859
 31
0.0
  0
LINE
  5
44E
330
1F
100
AcDbEntity
  8
cut_out
100
AcDbLine
 10
444.5167671084675
 20
316.9907797383859
 30
0.0
 11
445.7870825059679
 21
315.8442638026598
 31
0.0
  0
LINE
  5
44F
330
1F
100
AcDbEntity
  8
cut_out
100
AcDbLine
 10
445.7870825059679
 20
315.8442638026598
 30
0.0
 11
453.9214679649369
 21
316.260938532022
 31
0.0
  0
LINE
  5
450
330
1F
100
AcDbEntity
  8
cut_out
100
AcDbLine
 10
453.9214679649369
 20
316.260938532022
 30
0.0
 11
452.0067029561594
 21
353.6412631525892
 31
0.0
  0
LINE
  5
451
330
1F
100
AcDbEntity
  8
cut_out
100
AcDbLine
 10
452.0067029561594
 20
353.6412631525892
 30
0.0
 11
450.091937947382
 21
391.0215877731564
 31
0.0
  0
LINE
  5
452
330
1F
100
AcDbEntity
  8
cut_out
100
AcDbLine
 10
450.091937947382
 20
391.0215877731564
 30
0.0
 11
441.9575524884129
 21
390.6049130437943
 31
0.0
  0
LINE
  5
453
330
1F
100
AcDbEntity
  8
cut_out
100
AcDbLine
 10
441.9575524884129
 20
390.6049130437943
 30
0.0
 11
440.811036552687
 21
389.3345976462939
 31
0.0
  0
LINE
  5
454
330
1F
100
AcDbEntity
  8
cut_out
100
AcDbLine
 10
440.811036552687
 20
389.3345976462939
 30
0.0
 11
441.6012072507058
 21
373.9087688567547
 31
0.0
  0
LINE
  5
455
330
1F
100
AcDbEntity
  8
cut_out
100
AcDbLine
 10
441.6012072507058
 20
373.9087688567547
 30
0.0
 11
439.1843759174794
 21
373.7849693949803
 31
0.0
  0
LINE
  5
456
330
1F
100
AcDbEntity
  8
cut_out
100
AcDbLine
 10
439.1843759174794
 20
373.7849693949803
 30
0.0
 11
438.3942052194606
 21
389.2107981845195
 31
0.0
  0
LINE
  5
457
330
1F
100
AcDbEntity
  8
cut_out
100
AcDbLine
 10
438.3942052194606
 20
389.2107981845195
 30
0.0
 11
437.1238898219603
 21
390.3573141202455
 31
0.0
  0
LINE
  5
458
330
1F
100
AcDbEntity
  8
cut_out
100
AcDbLine
 10
437.1238898219603
 20
390.3573141202455
 30
0.0
 11
428.9895043629913
 21
389.9406393908834
 31
0.0
  0
LINE
  5
459
330
1F
100
AcDbEntity
  8
cut_out
100
AcDbLine
 10
428.9895043629913
 20
389.9406393908834
 30
0.0
 11
430.9042693717687
 21
352.5603147703162
 31
0.0
  0
LINE
  5
45A
330
1F
100
AcDbEntity
  8
cut_out
100
AcDbLine
 10
456.6246851339688
 20
353.879310450429
 30
0.0
 11
458.5394501427463
 21
316.4989858298618
 31
0.0
  0
LINE
  5
45B
330
1F
100
AcDbEntity
  8
cut_out
100
AcDbLine
 10
458.5394501427463
 20
316.4989858298618
 30
0.0
 11
466.6738356017154
 21
316.9156605592239
 31
0.0
  0
LINE
  5
45C
330
1F
100
AcDbEntity
  8
cut_out
100
AcDbLine
 10
466.6738356017154
 20
316.9156605592239
 30
0.0
 11
467.8203515374412
 21
318.1859759567243
 31
0.0
  0
LINE
  5
45D
330
1F
100
AcDbEntity
  8
cut_out
100
AcDbLine
 10
467.8203515374412
 20
318.1859759567243
 30
0.0
 11
467.0301808394225
 21
333.6118047462635
 31
0.0
  0
LINE
  5
45E
330
1F
100
AcDbEntity
  8
cut_out
100
AcDbLine
 10
467.0301808394225
 20
333.6118047462635
 30
0.0
 11
469.4470121726488
 21
333.735604208038
 31
0.0
  0
LINE
  5
45F
330
1F
100
AcDbEntity
  8
cut_out
100
AcDbLine
 10
469.4470121726488
 20
333.735604208038
 30
0.0
 11
470.2371828706677
 21
318.3097754184987
 31
0.0
  0
LINE
  5
460
330
1F
100
AcDbEntity
  8
cut_out
100
AcDbLine
 10
470.2371828706677
 20
318.3097754184987
 30
0.0
 11
471.5074982681679
 21
317.1632594827727
 31
0.0
  0
LINE
  5
461
330
1F
100
AcDbEntity
  8
cut_out
100
AcDbLine
 10
471.5074982681679
 20
317.1632594827727
 30
0.0
 11
479.641883727137
 21
317.5799342121348
 31
0.0
  0
LINE
  5
462
330
1F
100
AcDbEntity
  8
cut_out
100
AcDbLine
 10
479.641883727137
 20
317.5799342121348
 30
0.0
 11
477.7271187183595
 21
354.960258832702
 31
0.0
  0
LINE
  5
463
330
1F
100
AcDbEntity
  8
cut_out
100
AcDbLine
 10
477.7271187183595
 20
354.960258832702
 30
0.0
 11
475.812353709582
 21
392.3405834532692
 31
0.0
  0
LINE
  5
464
330
1F
100
AcDbEntity
  8
cut_out
100
AcDbLine
 10
475.812353709582
 20
392.3405834532692
 30
0.0
 11
467.6779682506129
 21
391.9239087239072
 31
0.0
  0
LINE
  5
465
330
1F
100
AcDbEntity
  8
cut_out
100
AcDbLine
 10
467.6779682506129
 20
391.9239087239072
 30
0.0
 11
466.5314523148871
 21
390.6535933264067
 31
0.0
  0
LINE
  5
466
330
1F
100
AcDbEntity
  8
cut_out
100
AcDbLine
 10
466.5314523148871
 20
390.6535933264067
 30
0.0
 11
467.3216230129058
 21
375.2277645368675
 31
0.0
  0
LINE
  5
467
330
1F
100
AcDbEntity
  8
cut_out
100
AcDbLine
 10
467.3216230129058
 20
375.2277645368675
 30
0.0
 11
464.9047916796795
 21
375.1039650750931
 31
0.0
  0
LINE
  5
468
330
1F
100
AcDbEntity
  8
cut_out
100
AcDbLine
 10
464.9047916796795
 20
375.1039650750931
 30
0.0
 11
464.1146209816607
 21
390.5297938646324
 31
0.0
  0
LINE
  5
469
330
1F
100
AcDbEntity
  8
cut_out
100
AcDbLine
 10
464.1146209816607
 20
390.5297938646324
 30
0.0
 11
462.8443055841604
 21
391.6763098003584
 31
0.0
  0
LINE
  5
46A
330
1F
100
AcDbEntity
  8
cut_out
100
AcDbLine
 10
462.8443055841604
 20
391.6763098003584
 30
0.0
 11
454.7099201251913
 21
391.2596350709962
 31
0.0
  0
LINE
  5
46B
330
1F
100
AcDbEntity
  8
cut_out
100
AcDbLine
 10
454.7099201251913
 20
391.2596350709962
 30
0.0
 11
456.6246851339688
 21
353.879310450429
 31
0.0
  0
LINE
  5
46C
330
1F
100
AcDbEntity
  8
cut_out
100
AcDbLine
 10
430.9042693717687
 20
434.0219240057128
 30
0.0
 11
432.8190343805463
 21
396.6415993851456
 31
0.0
  0
LINE
  5
46D
330
1F
100
AcDbEntity
  8
cut_out
100
AcDbLine
 10
432.8190343805463
 20
396.6415993851456
 30
0.0
 11
440.9534198395153
 21
397.0582741145078
 31
0.0
  0
LINE
  5
46E
330
1F
100
AcDbEntity
  8
cut_out
100
AcDbLine
 10
440.9534198395153
 20
397.0582741145078
 30
0.0
 11
442.0999357752412
 21
398.3285895120081
 31
0.0
  0
LINE
  5
46F
330
1F
100
AcDbEntity
  8
cut_out
100
AcDbLine
 10
442.0999357752412
 20
398.3285895120081
 30
0.0
 11
441.3097650772224
 21
413.7544183015474
 31
0.0
  0
LINE
  5
470
330
1F
100
AcDbEntity
  8
cut_out
100
AcDbLine
 10
441.3097650772224
 20
413.7544183015474
 30
0.0
 11
443.7265964104488
 21
413.8782177633218
 31
0.0
  0
LINE
  5
471
330
1F
100
AcDbEntity
  8
cut_out
100
AcDbLine
 10
443.7265964104488
 20
413.8782177633218
 30
0.0
 11
444.5167671084675
 21
398.4523889737825
 31
0.0
  0
LINE
  5
472
330
1F
100
AcDbEntity
  8
cut_out
100
AcDbLine
 10
444.5167671084675
 20
398.4523889737825
 30
0.0
 11
445.7870825059679
 21
397.3058730380565
 31
0.0
  0
LINE
  5
473
330
1F
100
AcDbEntity
  8
cut_out
100
AcDbLine
 10
445.7870825059679
 20
397.3058730380565
 30
0.0
 11
453.9214679649369
 21
397.7225477674186
 31
0.0
  0
LINE
  5
474
330
1F
100
AcDbEntity
  8
cut_out
100
AcDbLine
 10
453.9214679649369
 20
397.7225477674186
 30
0.0
 11
452.0067029561594
 21
435.1028723879859
 31
0.0
  0
LINE
  5
475
330
1F
100
AcDbEntity
  8
cut_out
100
AcDbLine
 10
452.0067029561594
 20
435.1028723879859
 30
0.0
 11
450.091937947382
 21
472.4831970085531
 31
0.0
  0
LINE
  5
476
330
1F
100
AcDbEntity
  8
cut_out
100
AcDbLine
 10
450.091937947382
 20
472.4831970085531
 30
0.0
 11
441.9575524884129
 21
472.066522279191
 31
0.0
  0
LINE
  5
477
330
1F
100
AcDbEntity
  8
cut_out
100
AcDbLine
 10
441.9575524884129
 20
472.066522279191
 30
0.0
 11
440.811036552687
 21
470.7962068816906
 31
0.0
  0
LINE
  5
478
330
1F
100
AcDbEntity
  8
cut_out
100
AcDbLine
 10
440.811036552687
 20
470.7962068816906
 30
0.0
 11
441.6012072507058
 21
455.3703780921514
 31
0.0
  0
LINE
  5
479
330
1F
100
AcDbEntity
  8
cut_out
100
AcDbLine
 10
441.6012072507058
 20
455.3703780921514
 30
0.0
 11
439.1843759174794
 21
455.246578630377
 31
0.0
  0
LINE
  5
47A
330
1F
100
AcDbEntity
  8
cut_out
100
AcDbLine
 10
439.1843759174794
 20
455.246578630377
 30
0.0
 11
438.3942052194606
 21
470.6724074199162
 31
0.0
  0
LINE
  5
47B
330
1F
100
AcDbEntity
  8
cut_out
100
AcDbLine
 10
438.3942052194606
 20
470.6724074199162
 30
0.0
 11
437.1238898219603
 21
471.8189233556422
 31
0.0
  0
LINE
  5
47C
330
1F
100
AcDbEntity
  8
cut_out
100
AcDbLine
 10
437.1238898219603
 20
471.8189233556422
 30
0.0
 11
428.9895043629913
 21
471.4022486262801
 31
0.0
  0
LINE
  5
47D
330
1F
100
AcDbEntity
  8
cut_out
100
AcDbLine
 10
428.9895043629913
 20
471.4022486262801
 30
0.0
 11
430.9042693717687
 21
434.0219240057128
 31
0.0
  0
LINE
  5
47E
330
1F
100
AcDbEntity
  8
cut_out
100
AcDbLine
 10
456.6246851339688
 20
435.3409196858257
 30
0.0
 11
458.5394501427463
 21
397.9605950652585
 31
0.0
  0
LINE
  5
47F
330
1F
100
AcDbEntity
  8
cut_out
100
AcDbLine
 10
458.5394501427463
 20
397.9605950652585
 30
0.0
 11
466.6738356017154
 21
398.3772697946205
 31
0.0
  0
LINE
  5
480
330
1F
100
AcDbEntity
  8
cut_out
100
AcDbLine
 10
466.6738356017154
 20
398.3772697946205
 30
0.0
 11
467.8203515374412
 21
399.647585192121
 31
0.0
  0
LINE
  5
481
330
1F
100
AcDbEntity
  8
cut_out
100
AcDbLine
 10
467.8203515374412
 20
399.647585192121
 30
0.0
 11
467.0301808394225
 21
415.0734139816602
 31
0.0
  0
LINE
  5
482
330
1F
100
AcDbEntity
  8
cut_out
100
AcDbLine
 10
467.0301808394225
 20
415.0734139816602
 30
0.0
 11
469.4470121726488
 21
415.1972134434346
 31
0.0
  0
LINE
  5
483
330
1F
100
AcDbEntity
  8
cut_out
100
AcDbLine
 10
469.4470121726488
 20
415.1972134434346
 30
0.0
 11
470.2371828706677
 21
399.7713846538954
 31
0.0
  0
LINE
  5
484
330
1F
100
AcDbEntity
  8
cut_out
100
AcDbLine
 10
470.2371828706677
 20
399.7713846538954
 30
0.0
 11
471.5074982681679
 21
398.6248687181694
 31
0.0
  0
LINE
  5
485
330
1F
100
AcDbEntity
  8
cut_out
100
AcDbLine
 10
471.5074982681679
 20
398.6248687181694
 30
0.0
 11
479.641883727137
 21
399.0415434475315
 31
0.0
  0
LINE
  5
486
330
1F
100
AcDbEntity
  8
cut_out
100
AcDbLine
 10
479.641883727137
 20
399.0415434475315
 30
0.0
 11
477.7271187183595
 21
436.4218680680987
 31
0.0
  0
LINE
  5
487
330
1F
100
AcDbEntity
  8
cut_out
100
AcDbLine
 10
477.7271187183595
 20
436.4218680680987
 30
0.0
 11
475.812353709582
 21
473.8021926886659
 31
0.0
  0
LINE
  5
488
330
1F
100
AcDbEntity
  8
cut_out
100
AcDbLine
 10
475.812353709582
 20
473.8021926886659
 30
0.0
 11
467.6779682506129
 21
473.3855179593038
 31
0.0
  0
LINE
  5
489
330
1F
100
AcDbEntity
  8
cut_out
100
AcDbLine
 10
467.6779682506129
 20
473.3855179593038
 30
0.0
 11
466.5314523148871
 21
472.1152025618035
 31
0.0
  0
LINE
  5
48A
330
1F
100
AcDbEntity
  8
cut_out
100
AcDbLine
 10
466.5314523148871
 20
472.1152025618035
 30
0.0
 11
467.3216230129058
 21
456.6893737722642
 31
0.0
  0
LINE
  5
48B
330
1F
100
AcDbEntity
  8
cut_out
100
AcDbLine
 10
467.3216230129058
 20
456.6893737722642
 30
0.0
 11
464.9047916796795
 21
456.5655743104898
 31
0.0
  0
LINE
  5
48C
330
1F
100
AcDbEntity
  8
cut_out
100
AcDbLine
 10
464.9047916796795
 20
456.5655743104898
 30
0.0
 11
464.1146209816607
 21
471.9914031000291
 31
0.0
  0
LINE
  5
48D
330
1F
100
AcDbEntity
  8
cut_out
100
AcDbLine
 10
464.1146209816607
 20
471.9914031000291
 30
0.0
 11
462.8443055841604
 21
473.137919035755
 31
0.0
  0
LINE
  5
48E
330
1F
100
AcDbEntity
  8
cut_out
100
AcDbLine
 10
462.8443055841604
 20
473.137919035755
 30
0.0
 11
454.7099201251913
 21
472.7212443063929
 31
0.0
  0
LINE
  5
48F
330
1F
100
AcDbEntity
  8
cut_out
100
AcDbLine
 10
454.7099201251913
 20
472.7212443063929
 30
0.0
 11
456.6246851339688
 21
435.3409196858257
 31
0.0
  0
ENDSEC
  0
SECTION
  2
OBJECTS
  0
DICTIONARY
  5
C
330
0
100
AcDbDictionary
281
     1
  3
ACAD_DETAILVIEWSTYLE
350
4CB
  3
ACAD_GROUP
350
D
  3
ACAD_LAYOUT
350
1A
  3
ACAD_MATERIAL
350
43
  3
ACAD_MLEADERSTYLE
350
4CA
  3
ACAD_MLINESTYLE
350
17
  3
ACAD_PLOTSETTINGS
350
19
  3
ACAD_PLOTSTYLENAME
350
E
  3
ACAD_SCALELIST
350
47
  3
ACAD_SECTIONVIEWSTYLE
350
4CC
  3
ACAD_TABLESTYLE
350
4C9
  3
ACAD_VISUALSTYLE
350
2A
  3
AcDbVariableDictionary
350
490
  0
DICTIONARY
  5
4CB
102
{ACAD_REACTORS
330
C
102
}
330
C
100
AcDbDictionary
281
     1
  0
DICTIONARY
  5
D
102
{ACAD_REACTORS
330
C
102
}
330
C
100
AcDbDictionary
281
     1
  0
DICTIONARY
  5
1A
102
{ACAD_REACTORS
330
C
102
}
330
C
100
AcDbDictionary
281
     1
  3
Layout1
350
1E
  3
Layout2
350
26
  3
Model
350
22
  0
DICTIONARY
  5
43
102
{ACAD_REACTORS
330
C
102
}
330
C
100
AcDbDictionary
281
     1
  3
ByBlock
350
45
  3
ByLayer
350
44
  3
Global
350
46
  0
DICTIONARY
  5
4CA
102
{ACAD_REACTORS
330
C
102
}
330
C
100
AcDbDictionary
281
     1
  0
DICTIONARY
  5
17
102
{ACAD_REACTORS
330
C
102
}
330
C
100
AcDbDictionary
281
     1
  3
Standard
350
18
  0
DICTIONARY
  5
19
102
{ACAD_REACTORS
330
C
102
}
330
C
100
AcDbDictionary
281
     1
  0
ACDBDICTIONARYWDFLT
  5
E
102
{ACAD_REACTORS
330
C
102
}
330
C
100
AcDbDictionary
281
     1
  3
Normal
350
F
100
AcDbDictionaryWithDefault
340
F
  0
DICTIONARY
  5
47
102
{ACAD_REACTORS
330
C
102
}
330
C
100
AcDbDictionary
281
     1
  3
A0
350
48
  3
A1
350
49
  3
A2
350
4A
  3
A3
350
4B
  3
A4
350
4C
  3
A5
350
4D
  3
A6
350
4E
  3
A7
350
4F
  3
A8
350
50
  3
A9
350
51
  3
B0
350
52
  3
B1
350
53
  3
B2
350
54
  3
B3
350
55
  3
B4
350
56
  3
B5
350
57
  3
B6
350
58
  3
B7
350
59
  3
B8
350
5A
  3
B9
350
5B
  3
C0
350
5C
  3
C1
350
5D
  3
C2
350
5E
  3
C3
350
5F
  3
C4
350
60
  3
C5
350
61
  3
C6
350
62
  3
C7
350
63
  3
C8
350
64
  3
C9
350
65
  3
D0
350
66
  3
D1
350
67
  3
D2
350
68
  0
DICTIONARY
  5
4CC
102
{ACAD_REACTORS
330
C
102
}
330
C
100
AcDbDictionary
281
     1
  0
DICTIONARY
  5
4C9
102
{ACAD_REACTORS
330
C
102
}
330
C
100
AcDbDictionary
281
     1
  0
DICTIONARY
  5
2A
102
{ACAD_REACTORS
330
C
102
}
330
C
100
AcDbDictionary
281
     1
  3
2dWireframe
350
2F
  3
Basic
350
32
  3
Brighten
350
36
  3
ColorChange
350
3A
  3
Conceptual
350
34
  3
Dim
350
35
  3
EdgeColorOff
350
3D
  3
Facepattern
350
39
  3
Flat
350
2B
  3
FlatWithEdges
350
2C
  3
Gouraud
350
2D
  3
GouraudWithEdges
350
2E
  3
Hidden
350
31
  3
JitterOff
350
3B
  3
Linepattern
350
38
  3
OverhangOff
350
3C
  3
Realistic
350
33
  3
Shaded
350
42
  3
Shaded with edges
350
41
  3
Shades of Gray
350
3E
  3
Sketchy
350
3F
  3
Thicken
350
37
  3
Wireframe
350
30
  3
X-Ray
350
40
  0
DICTIONARY
  5
490
102
{ACAD_REACTORS
330
C
102
}
330
C
100
AcDbDictionary
281
     1
  3
CANNOSCALE
350
491
  3
MSLTSCALE
350
492
  0
LAYOUT
  5
1E
102
{ACAD_REACTORS
330
1A
102
}
330
1A
100
AcDbPlotSettings
  1

  2
none_device
  4

  6

 40
0.0
 41
0.0
 42
0.0
 43
0.0
 44
0.0
 45
0.0
 46
0.0
 47
0.0
 48
0.0
 49
0.0
140
0.0
141
0.0
142
1.0
143
1.0
 70
   688
 72
     0
 73
     0
 74
     5
  7

 75
    16
 76
     0
 77
     2
 78
   300
147
1.0
148
0.0
149
0.0
100
AcDbLayout
  1
Layout1
 70
     1
 71
     1
 10
0.0
 20
0.0
 11
12.0
 21
9.0
 12
0.0
 22
0.0
 32
0.0
 14
1.000000000000000E+20
 24
1.000000000000000E+20
 34
1.000000000000000E+20
 15
-1.000000000000000E+20
 25
-1.000000000000000E+20
 35
-1.000000000000000E+20
146
0.0
 13
0.0
 23
0.0
 33
0.0
 16
1.0
 26
0.0
 36
0.0
 17
0.0
 27
1.0
 37
0.0
 76
     0
330
1B
  0
LAYOUT
  5
26
102
{ACAD_REACTORS
330
1A
102
}
330
1A
100
AcDbPlotSettings
  1

  2
none_device
  4

  6

 40
0.0
 41
0.0
 42
0.0
 43
0.0
 44
0.0
 45
0.0
 46
0.0
 47
0.0
 48
0.0
 49
0.0
140
0.0
141
0.0
142
1.0
143
1.0
 70
   688
 72
     0
 73
     0
 74
     5
  7

 75
    16
 76
     0
 77
     2
 78
   300
147
1.0
148
0.0
149
0.0
100
AcDbLayout
  1
Layout2
 70
     1
 71
     2
 10
0.0
 20
0.0
 11
0.0
 21
0.0
 12
0.0
 22
0.0
 32
0.0
 14
0.0
 24
0.0
 34
0.0
 15
0.0
 25
0.0
 35
0.0
146
0.0
 13
0.0
 23
0.0
 33
0.0
 16
1.0
 26
0.0
 36
0.0
 17
0.0
 27
1.0
 37
0.0
 76
     0
330
23
  0
LAYOUT
  5
22
102
{ACAD_REACTORS
330
1A
102
}
330
1A
100
AcDbPlotSettings
  1

  2
none_device
  4
Letter_(8.50_x_11.00_Inches)
  6

 40
6.35
 41
6.35
 42
6.35000508
 43
6.35000508
 44
215.9
 45
279.4
 46
0.0
 47
0.0
 48
0.0
 49
0.0
140
0.0
141
0.0
142
1.0
143
1.0
 70
  1712
 72
     0
 73
     0
 74
     0
  7

 75
     0
 76
     0
 77
     2
 78
   300
147
1.0
148
0.0
149
0.0
100
AcDbLayout
  1
Model
 70
     1
 71
     0
 10
0.0
 20
0.0
 11
12.0
 21
9.0
 12
0.0
 22
0.0
 32
0.0
 14
182.993246720729
 24
-31.65538556018952
 34
0.0
 15
489.6787648142655
 25
568.3446144398105
 35
0.0
146
0.0
 13
0.0
 23
0.0
 33
0.0
 16
1.0
 26
0.0
 36
0.0
 17
0.0
 27
1.0
 37
0.0
 76
     0
330
1F
331
29
  0
MATERIAL
  5
45
102
{ACAD_REACTORS
330
43
102
}
102
{ACAD_XDICTIONARY
360
4C5
102
}
330
43
100
AcDbMaterial
  1
ByBlock
  0
MATERIAL
  5
44
102
{ACAD_REACTORS
330
43
102
}
102
{ACAD_XDICTIONARY
360
4C3
102
}
330
43
100
AcDbMaterial
  1
ByLayer
  0
MATERIAL
  5
46
102
{ACAD_REACTORS
330
43
102
}
102
{ACAD_XDICTIONARY
360
4C7
102
}
330
43
100
AcDbMaterial
  1
Global
  0
MLINESTYLE
  5
18
102
{ACAD_REACTORS
330
17
102
}
330
17
100
AcDbMlineStyle
  2
Standard
 70
     0
  3

 62
   256
 51
90.0
 52
90.0
 71
     2
 49
0.5
 62
   256
  6
BYLAYER
 49
-0.5
 62
   256
  6
BYLAYER
  0
ACDBPLACEHOLDER
  5
F
102
{ACAD_REACTORS
330
E
102
}
330
E
  0
SCALE
  5
48
102
{ACAD_REACTORS
330
47
102
}
330
47
100
AcDbScale
 70
     0
300
1:1
140
1.0
141
1.0
290
     1
  0
SCALE
  5
49
102
{ACAD_REACTORS
330
47
102
}
330
47
100
AcDbScale
 70
     0
300
1:2
140
1.0
141
2.0
290
     0
  0
SCALE
  5
4A
102
{ACAD_REACTORS
330
47
102
}
330
47
100
AcDbScale
 70
     0
300
1:4
140
1.0
141
4.0
290
     0
  0
SCALE
  5
4B
102
{ACAD_REACTORS
330
47
102
}
330
47
100
AcDbScale
 70
     0
300
1:5
140
1.0
141
5.0
290
     0
  0
SCALE
  5
4C
102
{ACAD_REACTORS
330
47
102
}
330
47
100
AcDbScale
 70
     0
300
1:8
140
1.0
141
8.0
290
     0
  0
SCALE
  5
4D
102
{ACAD_REACTORS
330
47
102
}
330
47
100
AcDbScale
 70
     0
300
1:10
140
1.0
141
10.0
290
     0
  0
SCALE
  5
4E
102
{ACAD_REACTORS
330
47
102
}
330
47
100
AcDbScale
 70
     0
300
1:16
140
1.0
141
16.0
290
     0
  0
SCALE
  5
4F
102
{ACAD_REACTORS
330
47
102
}
330
47
100
AcDbScale
 70
     0
300
1:20
140
1.0
141
20.0
290
     0
  0
SCALE
  5
50
102
{ACAD_REACTORS
330
47
102
}
330
47
100
AcDbScale
 70
     0
300
1:30
140
1.0
141
30.0
290
     0
  0
SCALE
  5
51
102
{ACAD_REACTORS
330
47
102
}
330
47
100
AcDbScale
 70
     0
300
1:40
140
1.0
141
40.0
290
     0
  0
SCALE
  5
52
102
{ACAD_REACTORS
330
47
102
}
330
47
100
AcDbScale
 70
     0
300
1:50
140
1.0
141
50.0
290
     0
  0
SCALE
  5
53
102
{ACAD_REACTORS
330
47
102
}
330
47
100
AcDbScale
 70
     0
300
1:100
140
1.0
141
100.0
290
     0
  0
SCALE
  5
54
102
{ACAD_REACTORS
330
47
102
}
330
47
100
AcDbScale
 70
     0
300
2:1
140
2.0
141
1.0
290
     0
  0
SCALE
  5
55
102
{ACAD_REACTORS
330
47
102
}
330
47
100
AcDbScale
 70
     0
300
4:1
140
4.0
141
1.0
290
     0
  0
SCALE
  5
56
102
{ACAD_REACTORS
330
47
102
}
330
47
100
AcDbScale
 70
     0
300
8:1
140
8.0
141
1.0
290
     0
  0
SCALE
  5
57
102
{ACAD_REACTORS
330
47
102
}
330
47
100
AcDbScale
 70
     0
300
10:1
140
10.0
141
1.0
290
     0
  0
SCALE
  5
58
102
{ACAD_REACTORS
330
47
102
}
330
47
100
AcDbScale
 70
     0
300
100:1
140
100.0
141
1.0
290
     0
  0
SCALE
  5
59
102
{ACAD_REACTORS
330
47
102
}
330
47
100
AcDbScale
 70
     0
300
1/128" = 1'-0"
140
0.0078125
141
12.0
290
     0
  0
SCALE
  5
5A
102
{ACAD_REACTORS
330
47
102
}
330
47
100
AcDbScale
 70
     0
300
1/64" = 1'-0"
140
0.015625
141
12.0
290
     0
  0
SCALE
  5
5B
102
{ACAD_REACTORS
330
47
102
}
330
47
100
AcDbScale
 70
     0
300
1/32" = 1'-0"
140
0.03125
141
12.0
290
     0
  0
SCALE
  5
5C
102
{ACAD_REACTORS
330
47
102
}
330
47
100
AcDbScale
 70
     0
300
1/16" = 1'-0"
140
0.0625
141
12.0
290
     0
  0
SCALE
  5
5D
102
{ACAD_REACTORS
330
47
102
}
330
47
100
AcDbScale
 70
     0
300
3/32" = 1'-0"
140
0.09375
141
12.0
290
     0
  0
SCALE
  5
5E
102
{ACAD_REACTORS
330
47
102
}
330
47
100
AcDbScale
 70
     0
300
1/8" = 1'-0"
140
0.125
141
12.0
290
     0
  0
SCALE
  5
5F
102
{ACAD_REACTORS
330
47
102
}
330
47
100
AcDbScale
 70
     0
300
3/16" = 1'-0"
140
0.1875
141
12.0
290
     0
  0
SCALE
  5
60
102
{ACAD_REACTORS
330
47
102
}
330
47
100
AcDbScale
 70
     0
300
1/4" = 1'-0"
140
0.25
141
12.0
290
     0
  0
SCALE
  5
61
102
{ACAD_REACTORS
330
47
102
}
330
47
100
AcDbScale
 70
     0
300
3/8" = 1'-0"
140
0.375
141
12.0
290
     0
  0
SCALE
  5
62
102
{ACAD_REACTORS
330
47
102
}
330
47
100
AcDbScale
 70
     0
300
1/2" = 1'-0"
140
0.5
141
12.0
290
     0
  0
SCALE
  5
63
102
{ACAD_REACTORS
330
47
102
}
330
47
100
AcDbScale
 70
     0
300
3/4" = 1'-0"
140
0.75
141
12.0
290
     0
  0
SCALE
  5
64
102
{ACAD_REACTORS
330
47
102
}
330
47
100
AcDbScale
 70
     0
300
1" = 1'-0"
140
1.0
141
12.0
290
     0
  0
SCALE
  5
65
102
{ACAD_REACTORS
330
47
102
}
330
47
100
AcDbScale
 70
     0
300
1-1/2" = 1'-0"
140
1.5
141
12.0
290
     0
  0
SCALE
  5
66
102
{ACAD_REACTORS
330
47
102
}
330
47
100
AcDbScale
 70
     0
300
3" = 1'-0"
140
3.0
141
12.0
290
     0
  0
SCALE
  5
67
102
{ACAD_REACTORS
330
47
102
}
330
47
100
AcDbScale
 70
     0
300
6" = 1'-0"
140
6.0
141
12.0
290
     0
  0
SCALE
  5
68
102
{ACAD_REACTORS
330
47
102
}
330
47
100
AcDbScale
 70
     0
300
1'-0" = 1'-0"
140
12.0
141
12.0
290
     0
  0
VISUALSTYLE
  5
2F
102
{ACAD_REACTORS
330
2A
102
}
102
{ACAD_XDICTIONARY
360
49B
102
}
330
2A
100
AcDbVisualStyle
  2
2dWireframe
 70
     4
 71
     0
 72
     2
 73
     0
 90
        0
 40
0.6
 41
30.0
 62
     5
 63
     7
421
 16777215
 74
     1
 91
        4
 64
     7
 65
   257
 75
     1
175
     1
 42
1.0
 92
        0
 66
   257
 43
1.0
 76
     1
 77
     6
 78
     2
 67
     7
 79
     5
170
     0
171
     0
290
     0
174
     0
 93
        1
 44
0.0
173
     0
291
     0
 45
0.0
1001
ACAD
1000
AcDbSavedByObjectVersion
1070
     0
  0
VISUALSTYLE
  5
32
102
{ACAD_REACTORS
330
2A
102
}
102
{ACAD_XDICTIONARY
360
4A1
102
}
330
2A
100
AcDbVisualStyle
  2
Basic
 70
     7
 71
     1
 72
     0
 73
     1
 90
        0
 40
0.6
 41
30.0
 62
     5
 63
     7
421
 16777215
 74
     0
 91
        4
 64
     7
 65
   257
 75
     1
175
     1
 42
1.0
 92
        8
 66
     7
 43
1.0
 76
     1
 77
     6
 78
     2
 67
     7
 79
     5
170
     0
171
     0
290
     0
174
     0
 93
        1
 44
0.0
173
     0
291
     1
 45
0.0
1001
ACAD
1000
AcDbSavedByObjectVersion
1070
     0
  0
VISUALSTYLE
  5
36
102
{ACAD_REACTORS
330
2A
102
}
102
{ACAD_XDICTIONARY
360
4A9
102
}
330
2A
100
AcDbVisualStyle
  2
Brighten
 70
    12
 71
     2
 72
     2
 73
     0
 90
        0
 40
0.6
 41
30.0
 62
     5
 63
     7
421
 16777215
 74
     1
 91
        4
 64
     7
 65
   257
 75
     1
175
     1
 42
1.0
 92
        8
 66
     7
 43
1.0
 76
     1
 77
     6
 78
     2
 67
     7
 79
     5
170
     0
171
     0
290
     0
174
     0
 93
        1
 44
50.0
173
     0
291
     1
 45
0.0
1001
ACAD
1000
AcDbSavedByObjectVersion
1070
     0
  0
VISUALSTYLE
  5
3A
102
{ACAD_REACTORS
330
2A
102
}
102
{ACAD_XDICTIONARY
360
4B1
102
}
330
2A
100
AcDbVisualStyle
  2
ColorChange
 70
    16
 71
     2
 72
     2
 73
     3
 90
        0
 40
0.6
 41
30.0
 62
     5
 63
     8
421
  8421504
 74
     1
 91
        4
 64
     7
 65
   257
 75
     1
175
     1
 42
1.0
 92
        8
 66
     8
424
  8421504
 43
1.0
 76
     1
 77
     6
 78
     2
 67
     7
 79
     5
170
     0
171
     0
290
     0
174
     0
 93
        1
 44
0.0
173
     0
291
     1
 45
0.0
1001
ACAD
1000
AcDbSavedByObjectVersion
1070
     0
  0
VISUALSTYLE
  5
34
102
{ACAD_REACTORS
330
2A
102
}
102
{ACAD_XDICTIONARY
360
4A5
102
}
330
2A
100
AcDbVisualStyle
  2
Conceptual
 70
     9
 71
     3
 72
     2
 73
     0
 90
        0
 40
0.6
 41
30.0
 62
     5
 63
     7
421
 16777215
 74
     2
 91
        2
 64
     7
 65
   257
 75
     1
175
     1
 42
179.0
 92
        8
 66
     7
 43
1.0
 76
     1
 77
     6
 78
     2
 67
     7
 79
     3
170
     0
171
     0
290
     0
174
     0
 93
        1
 44
0.0
173
     0
291
     0
 45
0.0
1001
ACAD
1000
AcDbSavedByObjectVersion
1070
     0
  0
VISUALSTYLE
  5
35
102
{ACAD_REACTORS
330
2A
102
}
102
{ACAD_XDICTIONARY
360
4A7
102
}
330
2A
100
AcDbVisualStyle
  2
Dim
 70
    11
 71
     2
 72
     2
 73
     0
 90
        0
 40
0.6
 41
30.0
 62
     5
 63
     7
421
 16777215
 74
     1
 91
        4
 64
     7
 65
   257
 75
     1
175
     1
 42
1.0
 92
        8
 66
     7
 43
1.0
 76
     1
 77
     6
 78
     2
 67
     7
 79
     5
170
     0
171
     0
290
     0
174
     0
 93
        1
 44
-50.0
173
     0
291
     1
 45
0.0
1001
ACAD
1000
AcDbSavedByObjectVersion
1070
     0
  0
VISUALSTYLE
  5
3D
102
{ACAD_REACTORS
330
2A
102
}
102
{ACAD_XDICTIONARY
360
4B7
102
}
330
2A
100
AcDbVisualStyle
  2
EdgeColorOff
 70
    22
 71
     2
 72
     2
 73
     0
 90
        0
 40
0.6
 41
30.0
 62
     5
 63
     7
421
 16777215
 74
     1
 91
        4
 64
     7
 65
   257
 75
     1
175
     1
 42
1.0
 92
        8
 66
     7
 43
1.0
 76
     1
 77
     6
 78
     2
 67
     7
 79
     5
170
     0
171
     0
290
     0
174
     0
 93
        1
 44
0.0
173
     0
291
     1
 45
0.0
1001
ACAD
1000
AcDbSavedByObjectVersion
1070
     0
  0
VISUALSTYLE
  5
39
102
{ACAD_REACTORS
330
2A
102
}
102
{ACAD_XDICTIONARY
360
4AF
102
}
330
2A
100
AcDbVisualStyle
  2
Facepattern
 70
    15
 71
     2
 72
     2
 73
     0
 90
        0
 40
0.6
 41
30.0
 62
     5
 63
     7
421
 16777215
 74
     1
 91
        4
 64
     7
 65
   257
 75
     1
175
     1
 42
1.0
 92
        8
 66
     7
 43
1.0
 76
     1
 77
     6
 78
     2
 67
     7
 79
     5
170
     0
171
     0
290
     0
174
     0
 93
        1
 44
0.0
173
     0
291
     1
 45
0.0
1001
ACAD
1000
AcDbSavedByObjectVersion
1070
     0
  0
VISUALSTYLE
  5
2B
102
{ACAD_REACTORS
330
2A
102
}
102
{ACAD_XDICTIONARY
360
493
102
}
330
2A
100
AcDbVisualStyle
  2
Flat
 70
     0
 71
     2
 72
     1
 73
     1
 90
        2
 40
0.6
 41
30.0
 62
     5
 63
     7
421
 16777215
 74
     0
 91
        0
 64
     7
 65
   257
 75
     1
175
     1
 42
1.0
 92
        8
 66
     7
 43
1.0
 76
     1
 77
     6
 78
     2
 67
     7
 79
     5
170
     0
171
     0
290
     0
174
     0
 93
       13
 44
0.0
173
     0
291
     1
 45
0.0
1001
ACAD
1000
AcDbSavedByObjectVersion
1070
     0
  0
VISUALSTYLE
  5
2C
102
{ACAD_REACTORS
330
2A
102
}
102
{ACAD_XDICTIONARY
360
495
102
}
330
2A
100
AcDbVisualStyle
  2
FlatWithEdges
 70
     1
 71
     2
 72
     1
 73
     1
 90
        2
 40
0.6
 41
30.0
 62
     5
 63
     7
421
 16777215
 74
     1
 91
        0
 64
     7
 65
   257
 75
     1
175
     1
 42
1.0
 92
        0
 66
   257
 43
1.0
 76
     1
 77
     6
 78
     2
 67
     7
 79
     5
170
     0
171
     0
290
     0
174
     0
 93
       13
 44
0.0
173
     0
291
     1
 45
0.0
1001
ACAD
1000
AcDbSavedByObjectVersion
1070
     0
  0
VISUALSTYLE
  5
2D
102
{ACAD_REACTORS
330
2A
102
}
102
{ACAD_XDICTIONARY
360
497
102
}
330
2A
100
AcDbVisualStyle
  2
Gouraud
 70
     2
 71
     2
 72
     2
 73
     1
 90
        2
 40
0.6
 41
30.0
 62
     5
 63
     7
421
 16777215
 74
     0
 91
        0
 64
     7
 65
   257
 75
     1
175
     1
 42
1.0
 92
        0
 66
     7
 43
1.0
 76
     1
 77
     6
 78
     2
 67
     7
 79
     5
170
     0
171
     0
290
     0
174
     0
 93
       13
 44
0.0
173
     0
291
     1
 45
0.0
1001
ACAD
1000
AcDbSavedByObjectVersion
1070
     0
  0
VISUALSTYLE
  5
2E
102
{ACAD_REACTORS
330
2A
102
}
102
{ACAD_XDICTIONARY
360
499
102
}
330
2A
100
AcDbVisualStyle
  2
GouraudWithEdges
 70
     3
 71
     2
 72
     2
 73
     1
 90
        2
 40
0.6
 41
30.0
 62
     5
 63
     7
421
 16777215
 74
     1
 91
        0
 64
     7
 65
   257
 75
     1
175
     1
 42
1.0
 92
        0
 66
   257
 43
1.0
 76
     1
 77
     6
 78
     2
 67
     7
 79
     5
170
     0
171
     0
290
     0
174
     0
 93
       13
 44
0.0
173
     0
291
     1
 45
0.0
1001
ACAD
1000
AcDbSavedByObjectVersion
1070
     0
  0
VISUALSTYLE
  5
31
102
{ACAD_REACTORS
330
2A
102
}
102
{ACAD_XDICTIONARY
360
49F
102
}
330
2A
100
AcDbVisualStyle
  2
Hidden
 70
     6
 71
     1
 72
     2
 73
     2
 90
        0
 40
0.6
 41
30.0
 62
     5
 63
     7
421
 16777215
 74
     2
 91
        2
 64
     7
 65
   257
 75
     2
175
     1
 42
40.0
 92
        0
 66
   257
 43
1.0
 76
     1
 77
     6
 78
     2
 67
     7
 79
     3
170
     0
171
     0
290
     0
174
     0
 93
        1
 44
0.0
173
     0
291
     0
 45
0.0
1001
ACAD
1000
AcDbSavedByObjectVersion
1070
     0
  0
VISUALSTYLE
  5
3B
102
{ACAD_REACTORS
330
2A
102
}
102
{ACAD_XDICTIONARY
360
4B3
102
}
330
2A
100
AcDbVisualStyle
  2
JitterOff
 70
    20
 71
     2
 72
     2
 73
     0
 90
        0
 40
0.6
 41
30.0
 62
     5
 63
     7
421
 16777215
 74
     1
 91
        4
 64
     7
 65
   257
 75
     1
175
     1
 42
1.0
 92
       10
 66
     7
 43
1.0
 76
     1
 77
     6
 78
     2
 67
     7
 79
     5
170
     0
171
     0
290
     0
174
     0
 93
        1
 44
0.0
173
     0
291
     1
 45
0.0
1001
ACAD
1000
AcDbSavedByObjectVersion
1070
     0
  0
VISUALSTYLE
  5
38
102
{ACAD_REACTORS
330
2A
102
}
102
{ACAD_XDICTIONARY
360
4AD
102
}
330
2A
100
AcDbVisualStyle
  2
Linepattern
 70
    14
 71
     2
 72
     2
 73
     0
 90
        0
 40
0.6
 41
30.0
 62
     5
 63
     7
421
 16777215
 74
     1
 91
        4
 64
     7
 65
   257
 75
     7
175
     7
 42
1.0
 92
        8
 66
     7
 43
1.0
 76
     1
 77
     6
 78
     2
 67
     7
 79
     5
170
     0
171
     0
290
     0
174
     0
 93
        1
 44
0.0
173
     0
291
     1
 45
0.0
1001
ACAD
1000
AcDbSavedByObjectVersion
1070
     0
  0
VISUALSTYLE
  5
3C
102
{ACAD_REACTORS
330
2A
102
}
102
{ACAD_XDICTIONARY
360
4B5
102
}
330
2A
100
AcDbVisualStyle
  2
OverhangOff
 70
    21
 71
     2
 72
     2
 73
     0
 90
        0
 40
0.6
 41
30.0
 62
     5
 63
     7
421
 16777215
 74
     1
 91
        4
 64
     7
 65
   257
 75
     1
175
     1
 42
1.0
 92
        9
 66
     7
 43
1.0
 76
     1
 77
     6
 78
     2
 67
     7
 79
     5
170
     0
171
     0
290
     0
174
     0
 93
        1
 44
0.0
173
     0
291
     1
 45
0.0
1001
ACAD
1000
AcDbSavedByObjectVersion
1070
     0
  0
VISUALSTYLE
  5
33
102
{ACAD_REACTORS
330
2A
102
}
102
{ACAD_XDICTIONARY
360
4A3
102
}
330
2A
100
AcDbVisualStyle
  2
Realistic
 70
     8
 71
     2
 72
     3
 73
     0
 90
        2
 40
0.6
 41
30.0
 62
     5
 63
     7
421
 16777215
 74
     0
 91
        0
 64
     7
 65
   257
 75
     1
175
     1
 42
1.0
 92
        8
 66
   257
 43
1.0
 76
     1
 77
     6
 78
     2
 67
     7
 79
     3
170
     0
171
     0
290
     0
174
     0
 93
       13
 44
0.0
173
     0
291
     0
 45
0.0
1001
ACAD
1000
AcDbSavedByObjectVersion
1070
     0
  0
VISUALSTYLE
  5
42
102
{ACAD_REACTORS
330
2A
102
}
102
{ACAD_XDICTIONARY
360
4C1
102
}
330
2A
100
AcDbVisualStyle
  2
Shaded
 70
    27
 71
     2
 72
     2
 73
     1
 90
        2
 40
0.6
 41
30.0
 62
     5
 63
     7
421
 16777215
 74
     0
 91
        4
 64
     7
 65
   257
 75
     1
175
     1
 42
1.0
 92
        8
 66
   257
 43
1.0
 76
     1
 77
     6
 78
     2
 67
     8
425
  7895160
 79
     3
170
     0
171
     0
290
     0
174
     0
 93
        5
 44
0.0
173
     0
291
     0
 45
0.0
1001
ACAD
1000
AcDbSavedByObjectVersion
1070
     0
  0
VISUALSTYLE
  5
41
102
{ACAD_REACTORS
330
2A
102
}
102
{ACAD_XDICTIONARY
360
4BF
102
}
330
2A
100
AcDbVisualStyle
  2
Shaded with edges
 70
    26
 71
     2
 72
     2
 73
     1
 90
        2
 40
0.6
 41
30.0
 62
     5
 63
     7
421
 16777215
 74
     1
 91
       10
 64
     7
 65
   257
 75
     2
175
     1
 42
1.0
 92
        8
 66
   257
 43
1.0
 76
     1
 77
     6
 78
     2
 67
     7
 79
     3
170
     0
171
     0
290
     0
174
     0
 93
        5
 44
0.0
173
     0
291
     0
 45
0.0
1001
ACAD
1000
AcDbSavedByObjectVersion
1070
     0
  0
VISUALSTYLE
  5
3E
102
{ACAD_REACTORS
330
2A
102
}
102
{ACAD_XDICTIONARY
360
4B9
102
}
330
2A
100
AcDbVisualStyle
  2
Shades of Gray
 70
    23
 71
     2
 72
     2
 73
     3
 90
        0
 40
0.6
 41
30.0
 62
     5
 63
     7
421
 16777215
 74
     2
 91
        2
 64
     7
 65
     7
 75
     1
175
     1
 42
40.0
 92
        8
 66
     7
 43
1.0
 76
     1
 77
     6
 78
     2
 67
     7
 79
     3
170
     0
171
     0
290
     0
174
     0
 93
        1
 44
0.0
173
     0
291
     0
 45
0.0
1001
ACAD
1000
AcDbSavedByObjectVersion
1070
     0
  0
VISUALSTYLE
  5
3F
102
{ACAD_REACTORS
330
2A
102
}
102
{ACAD_XDICTIONARY
360
4BB
102
}
330
2A
100
AcDbVisualStyle
  2
Sketchy
 70
    24
 71
     1
 72
     2
 73
     2
 90
        0
 40
0.6
 41
30.0
 62
     5
 63
     7
421
 16777215
 74
     2
 91
        2
 64
     7
 65
     7
 75
     1
175
     1
 42
40.0
 92
       11
 66
     7
 43
1.0
 76
     1
 77
     6
 78
     2
 67
     7
 79
     6
170
     0
171
     0
290
     0
174
     0
 93
        1
 44
0.0
173
     0
291
     0
 45
0.0
1001
ACAD
1000
AcDbSavedByObjectVersion
1070
     0
  0
VISUALSTYLE
  5
37
102
{ACAD_REACTORS
330
2A
102
}
102
{ACAD_XDICTIONARY
360
4AB
102
}
330
2A
100
AcDbVisualStyle
  2
Thicken
 70
    13
 71
     2
 72
     2
 73
     0
 90
        0
 40
0.6
 41
30.0
 62
     5
 63
     7
421
 16777215
 74
     1
 91
        4
 64
     7
 65
   257
 75
     1
175
     1
 42
1.0
 92
       12
 66
     7
 43
1.0
 76
     1
 77
     6
 78
     2
 67
     7
 79
     5
170
     0
171
     0
290
     0
174
     0
 93
        1
 44
0.0
173
     0
291
     1
 45
0.0
1001
ACAD
1000
AcDbSavedByObjectVersion
1070
     0
  0
VISUALSTYLE
  5
30
102
{ACAD_REACTORS
330
2A
102
}
102
{ACAD_XDICTIONARY
360
49D
102
}
330
2A
100
AcDbVisualStyle
  2
Wireframe
 70
     5
 71
     0
 72
     2
 73
     0
 90
        0
 40
0.6
 41
30.0
 62
     5
 63
     7
421
 16777215
 74
     1
 91
        4
 64
     7
 65
   257
 75
     1
175
     1
 42
1.0
 92
        0
 66
   257
 43
1.0
 76
     1
 77
     6
 78
     2
 67
     7
 79
     3
170
     0
171
     0
290
     0
174
     0
 93
        1
 44
0.0
173
     0
291
     0
 45
0.0
1001
ACAD
1000
AcDbSavedByObjectVersion
1070
     0
  0
VISUALSTYLE
  5
40
102
{ACAD_REACTORS
330
2A
102
}
102
{ACAD_XDICTIONARY
360
4BD
102
}
330
2A
100
AcDbVisualStyle
  2
X-Ray
 70
    25
 71
     2
 72
     2
 73
     1
 90
        1
 40
0.5
 41
30.0
 62
     5
 63
     7
421
 16777215
 74
     1
 91
        0
 64
     7
 65
   257
 75
     1
175
     1
 42
1.0
 92
        8
 66
     7
 43
1.0
 76
     1
 77
     6
 78
     2
 67
     7
 79
     3
170
     0
171
     0
290
     0
174
     0
 93
       13
 44
0.0
173
     0
291
     0
 45
0.0
1001
ACAD
1000
AcDbSavedByObjectVersion
1070
     0
  0
DICTIONARYVAR
  5
491
102
{ACAD_REACTORS
330
490
102
}
330
490
100
DictionaryVariables
280
     0
  1
1:1
  0
DICTIONARYVAR
  5
492
102
{ACAD_REACTORS
330
490
102
}
330
490
100
DictionaryVariables
280
     0
  1
1
  0
DICTIONARY
  5
4C5
330
45
100
AcDbDictionary
280
     1
281
     1
  3
ACAD_XREC_ROUNDTRIP
360
4C6
  0
DICTIONARY
  5
4C3
330
44
100
AcDbDictionary
280
     1
281
     1
  3
ACAD_XREC_ROUNDTRIP
360
4C4
  0
DICTIONARY
  5
4C7
330
46
100
AcDbDictionary
280
     1
281
     1
  3
ACAD_XREC_ROUNDTRIP
360
4C8
  0
DICTIONARY
  5
49B
330
2F
100
AcDbDictionary
280
     1
281
     1
  3
ACAD_XREC_ROUNDTRIP
360
49C
  0
DICTIONARY
  5
4A1
330
32
100
AcDbDictionary
280
     1
281
     1
  3
ACAD_XREC_ROUNDTRIP
360
4A2
  0
DICTIONARY
  5
4A9
330
36
100
AcDbDictionary
280
     1
281
     1
  3
ACAD_XREC_ROUNDTRIP
360
4AA
  0
DICTIONARY
  5
4B1
330
3A
100
AcDbDictionary
280
     1
281
     1
  3
ACAD_XREC_ROUNDTRIP
360
4B2
  0
DICTIONARY
  5
4A5
330
34
100
AcDbDictionary
280
     1
281
     1
  3
ACAD_XREC_ROUNDTRIP
360
4A6
  0
DICTIONARY
  5
4A7
330
35
100
AcDbDictionary
280
     1
281
     1
  3
ACAD_XREC_ROUNDTRIP
360
4A8
  0
DICTIONARY
  5
4B7
330
3D
100
AcDbDictionary
280
     1
281
     1
  3
ACAD_XREC_ROUNDTRIP
360
4B8
  0
DICTIONARY
  5
4AF
330
39
100
AcDbDictionary
280
     1
281
     1
  3
ACAD_XREC_ROUNDTRIP
360
4B0
  0
DICTIONARY
  5
493
330
2B
100
AcDbDictionary
280
     1
281
     1
  3
ACAD_XREC_ROUNDTRIP
360
494
  0
DICTIONARY
  5
495
330
2C
100
AcDbDictionary
280
     1
281
     1
  3
ACAD_XREC_ROUNDTRIP
360
496
  0
DICTIONARY
  5
497
330
2D
100
AcDbDictionary
280
     1
281
     1
  3
ACAD_XREC_ROUNDTRIP
360
498
  0
DICTIONARY
  5
499
330
2E
100
AcDbDictionary
280
     1
281
     1
  3
ACAD_XREC_ROUNDTRIP
360
49A
  0
DICTIONARY
  5
49F
330
31
100
AcDbDictionary
280
     1
281
     1
  3
ACAD_XREC_ROUNDTRIP
360
4A0
  0
DICTIONARY
  5
4B3
330
3B
100
AcDbDictionary
280
     1
281
     1
  3
ACAD_XREC_ROUNDTRIP
360
4B4
  0
DICTIONARY
  5
4AD
330
38
100
AcDbDictionary
280
     1
281
     1
  3
ACAD_XREC_ROUNDTRIP
360
4AE
  0
DICTIONARY
  5
4B5
330
3C
100
AcDbDictionary
280
     1
281
     1
  3
ACAD_XREC_ROUNDTRIP
360
4B6
  0
DICTIONARY
  5
4A3
330
33
100
AcDbDictionary
280
     1
281
     1
  3
ACAD_XREC_ROUNDTRIP
360
4A4
  0
DICTIONARY
  5
4C1
330
42
100
AcDbDictionary
280
     1
281
     1
  3
ACAD_XREC_ROUNDTRIP
360
4C2
  0
DICTIONARY
  5
4BF
330
41
100
AcDbDictionary
280
     1
281
     1
  3
ACAD_XREC_ROUNDTRIP
360
4C0
  0
DICTIONARY
  5
4B9
330
3E
100
AcDbDictionary
280
     1
281
     1
  3
ACAD_XREC_ROUNDTRIP
360
4BA
  0
DICTIONARY
  5
4BB
330
3F
100
AcDbDictionary
280
     1
281
     1
  3
ACAD_XREC_ROUNDTRIP
360
4BC
  0
DICTIONARY
  5
4AB
330
37
100
AcDbDictionary
280
     1
281
     1
  3
ACAD_XREC_ROUNDTRIP
360
4AC
  0
DICTIONARY
  5
49D
330
30
100
AcDbDictionary
280
     1
281
     1
  3
ACAD_XREC_ROUNDTRIP
360
49E
  0
DICTIONARY
  5
4BD
330
40
100
AcDbDictionary
280
     1
281
     1
  3
ACAD_XREC_ROUNDTRIP
360
4BE
  0
XRECORD
  5
4C6
102
{ACAD_REACTORS
330
4C5
102
}
330
4C5
100
AcDbXrecord
280
     1
102
MATERIAL
148
0.0
149
0.0
149
0.0
 93
        0
 94
      127
282
     0
 72
     1
 77
     1
171
     1
175
     1
179
     1
273
     0
  0
XRECORD
  5
4C4
102
{ACAD_REACTORS
330
4C3
102
}
330
4C3
100
AcDbXrecord
280
     1
102
MATERIAL
148
0.0
149
0.0
149
0.0
 93
        0
 94
      127
282
     0
 72
     1
 77
     1
171
     1
175
     1
179
     1
273
     0
  0
XRECORD
  5
4C8
102
{ACAD_REACTORS
330
4C7
102
}
330
4C7
100
AcDbXrecord
280
     1
102
MATERIAL
148
0.0
149
0.0
149
0.0
 93
        0
 94
      127
282
     0
 72
     1
 77
     1
171
     1
175
     1
179
     1
273
     0
  0
XRECORD
  5
49C
102
{ACAD_REACTORS
330
49B
102
}
330
49B
100
AcDbXrecord
280
     1
102
RTVSPropertyOp0
 70
     1
102
RTVSPropertyOp1
 70
     1
102
RTVSPropertyOp2
 70
     1
102
RTVSPropertyOp3
 70
     1
102
RTVSPropertyOp4
 70
     1
102
RTVSPropertyOp5
 70
     1
102
RTVSPropertyOp6
 70
     1
102
RTVSPropertyOp7
 70
     1
102
RTVSPropertyOp8
 70
     1
102
RTVSPropertyOp9
 70
     1
102
RTVSPropertyOp10
 70
     1
102
RTVSPropertyOp11
 70
     1
102
RTVSPropertyOp12
 70
     1
102
RTVSPropertyOp13
 70
     1
102
RTVSPropertyOp14
 70
     1
102
RTVSPropertyOp15
 70
     1
102
RTVSPropertyOp16
 70
     1
102
RTVSPropertyOp17
 70
     1
102
RTVSPropertyOp18
 70
     1
102
RTVSPropertyOp19
 70
     1
102
RTVSPropertyOp20
 70
     1
102
RTVSPropertyOp21
 70
     1
102
RTVSPropertyOp22
 70
     1
102
RTVSPropertyOp23
 70
     1
102
RTVSPropertyOp24
 70
     1
102
RTVSPropertyOp25
 70
     1
102
RTVSPropertyOp26
 70
     1
102
RTVSPropertyOp27
 70
     1
102
RTVSPropertyOp28
 70
     1
102
RTVSPropertyOp29
 70
     1
102
RTVSPropertyOp30
 70
     1
102
RTVSPropertyOp31
 70
     1
102
RTVSPropertyOp32
 70
     1
102
RTVSPropertyOp33
 70
     1
102
RTVSPropertyOp34
 70
     1
102
RTVSPropertyOp35
 70
     1
102
RTVSPropertyOp36
 70
     1
102
RTVSPropertyOp37
 70
     1
102
RTVSPropertyOp38
 70
     1
102
RTVSPropertyOp39
 70
     1
102
RTVSPropertyOp40
 70
     1
102
RTVSPropertyOp41
 70
     1
102
RTVSPropertyOp42
 70
     1
102
RTVSPropertyOp43
 70
     1
102
RTVSPropertyOp44
 70
     1
102
RTVSPropertyOp45
 70
     1
102
RTVSPropertyOp46
 70
     1
102
RTVSPropertyOp47
 70
     1
102
RTVSPropertyOp48
 70
     1
102
RTVSPropertyOp49
 70
     1
102
RTVSPropertyOp50
 70
     1
102
RTVSPropertyOp51
 70
     0
102
RTVSPropertyOp52
 70
     0
102
RTVSPropertyOp53
 70
     1
102
RTVSPropertyOp54
 70
     1
102
RTVSPropertyOp55
 70
     1
102
RTVSPropertyOp56
 70
     1
102
RTVSPropertyOp57
 70
     1
102
RTVSPost2010Prop28
280
     1
102
RTVSPost2010PropOp28
 70
     1
102
RTVSPost2010Prop29
280
     1
102
RTVSPost2010PropOp29
 70
     1
102
RTVSPost2010Prop30
280
     0
102
RTVSPost2010PropOp30
 70
     1
102
RTVSPost2010Prop31
280
     0
102
RTVSPost2010PropOp31
 70
     1
102
RTVSPost2010Prop32
280
     0
102
RTVSPost2010PropOp32
 70
     1
102
RTVSPost2010Prop33
280
     0
102
RTVSPost2010PropOp33
 70
     1
102
RTVSPost2010Prop34
280
     0
102
RTVSPost2010PropOp34
 70
     1
102
RTVSPost2010Prop35
280
     0
102
RTVSPost2010PropOp35
 70
     1
102
RTVSPost2010Prop36
280
     0
102
RTVSPost2010PropOp36
 70
     1
102
RTVSPost2010Prop37
 90
       50
102
RTVSPost2010PropOp37
 70
     1
102
RTVSPost2010Prop38
140
0.0
102
RTVSPost2010PropOp38
 70
     1
102
RTVSPost2010Prop39
140
1.0
102
RTVSPost2010PropOp39
 70
     1
102
RTVSPost2010Prop40
 90
        0
102
RTVSPost2010PropOp40
 70
     1
102
RTVSPost2010Prop41ColorIndex
 90
       18
102
RTVSPost2010Prop41ColorRGB
 90
        0
102
RTVSPost2010PropOp41
 70
     1
102
RTVSPost2010Prop42
 90
       50
102
RTVSPost2010PropOp42
 70
     1
102
RTVSPost2010Prop43
 90
        3
102
RTVSPost2010PropOp43
 70
     1
102
RTVSPost2010Prop44ColorIndex
 90
        5
102
RTVSPost2010Prop44ColorRGB
 90
      255
102
RTVSPost2010PropOp44
 70
     1
102
RTVSPost2010Prop45
280
     0
102
RTVSPost2010PropOp45
 70
     1
102
RTVSPost2010Prop46
 90
       50
102
RTVSPost2010PropOp46
 70
     1
102
RTVSPost2010Prop47
 90
       50
102
RTVSPost2010PropOp47
 70
     1
102
RTVSPost2010Prop48
 90
       50
102
RTVSPost2010PropOp48
 70
     1
102
RTVSPost2010Prop49
280
     0
102
RTVSPost2010PropOp49
 70
     1
102
RTVSPost2010Prop50
 90
       50
102
RTVSPost2010PropOp50
 70
     1
102
RTVSPost2010Prop51ColorIndex
 90
      256
102
RTVSPost2010Prop51ColorRGB
 90
-16777216
102
RTVSPost2010PropOp51
 70
     0
102
RTVSPost2010Prop52
140
1.0
102
RTVSPost2010PropOp52
 70
     0
102
RTVSPost2010Prop53
 90
        2
102
RTVSPost2010PropOp53
 70
     1
102
RTVSPost2010Prop54
  1
strokes_ogs.tif
102
RTVSPost2010PropOp54
 70
     1
102
RTVSPost2010Prop55
280
     0
102
RTVSPost2010PropOp55
 70
     1
102
RTVSPost2010Prop56
140
1.0
102
RTVSPost2010PropOp56
 70
     1
102
RTVSPost2010Prop57
140
1.0
102
RTVSPost2010PropOp57
 70
     1
  0
XRECORD
  5
4A2
102
{ACAD_REACTORS
330
4A1
102
}
330
4A1
100
AcDbXrecord
280
     1
102
RTVSPropertyOp0
 70
     1
102
RTVSPropertyOp1
 70
     1
102
RTVSPropertyOp2
 70
     1
102
RTVSPropertyOp3
 70
     1
102
RTVSPropertyOp4
 70
     1
102
RTVSPropertyOp5
 70
     1
102
RTVSPropertyOp6
 70
     1
102
RTVSPropertyOp7
 70
     1
102
RTVSPropertyOp8
 70
     1
102
RTVSPropertyOp9
 70
     1
102
RTVSPropertyOp10
 70
     1
102
RTVSPropertyOp11
 70
     1
102
RTVSPropertyOp12
 70
     1
102
RTVSPropertyOp13
 70
     1
102
RTVSPropertyOp14
 70
     1
102
RTVSPropertyOp15
 70
     1
102
RTVSPropertyOp16
 70
     1
102
RTVSPropertyOp17
 70
     1
102
RTVSPropertyOp18
 70
     1
102
RTVSPropertyOp19
 70
     1
102
RTVSPropertyOp20
 70
     1
102
RTVSPropertyOp21
 70
     1
102
RTVSPropertyOp22
 70
     1
102
RTVSPropertyOp23
 70
     1
102
RTVSPropertyOp24
 70
     1
102
RTVSPropertyOp25
 70
     1
102
RTVSPropertyOp26
 70
     1
102
RTVSPropertyOp27
 70
     1
102
RTVSPropertyOp28
 70
     1
102
RTVSPropertyOp29
 70
     1
102
RTVSPropertyOp30
 70
     1
102
RTVSPropertyOp31
 70
     1
102
RTVSPropertyOp32
 70
     1
102
RTVSPropertyOp33
 70
     1
102
RTVSPropertyOp34
 70
     1
102
RTVSPropertyOp35
 70
     1
102
RTVSPropertyOp36
 70
     1
102
RTVSPropertyOp37
 70
     1
102
RTVSPropertyOp38
 70
     1
102
RTVSPropertyOp39
 70
     1
102
RTVSPropertyOp40
 70
     1
102
RTVSPropertyOp41
 70
     1
102
RTVSPropertyOp42
 70
     1
102
RTVSPropertyOp43
 70
     1
102
RTVSPropertyOp44
 70
     1
102
RTVSPropertyOp45
 70
     1
102
RTVSPropertyOp46
 70
     1
102
RTVSPropertyOp47
 70
     1
102
RTVSPropertyOp48
 70
     1
102
RTVSPropertyOp49
 70
     1
102
RTVSPropertyOp50
 70
     1
102
RTVSPropertyOp51
 70
     0
102
RTVSPropertyOp52
 70
     0
102
RTVSPropertyOp53
 70
     1
102
RTVSPropertyOp54
 70
     1
102
RTVSPropertyOp55
 70
     1
102
RTVSPropertyOp56
 70
     1
102
RTVSPropertyOp57
 70
     1
102
RTVSPost2010Prop28
280
     0
102
RTVSPost2010PropOp28
 70
     1
102
RTVSPost2010Prop29
280
     1
102
RTVSPost2010PropOp29
 70
     1
102
RTVSPost2010Prop30
280
     1
102
RTVSPost2010PropOp30
 70
     1
102
RTVSPost2010Prop31
280
     0
102
RTVSPost2010PropOp31
 70
     1
102
RTVSPost2010Prop32
280
     0
102
RTVSPost2010PropOp32
 70
     1
102
RTVSPost2010Prop33
280
     0
102
RTVSPost2010PropOp33
 70
     1
102
RTVSPost2010Prop34
280
     0
102
RTVSPost2010PropOp34
 70
     1
102
RTVSPost2010Prop35
280
     0
102
RTVSPost2010PropOp35
 70
     1
102
RTVSPost2010Prop36
280
     0
102
RTVSPost2010PropOp36
 70
     1
102
RTVSPost2010Prop37
 90
       50
102
RTVSPost2010PropOp37
 70
     1
102
RTVSPost2010Prop38
140
0.0
102
RTVSPost2010PropOp38
 70
     1
102
RTVSPost2010Prop39
140
1.0
102
RTVSPost2010PropOp39
 70
     1
102
RTVSPost2010Prop40
 90
        0
102
RTVSPost2010PropOp40
 70
     1
102
RTVSPost2010Prop41ColorIndex
 90
       18
102
RTVSPost2010Prop41ColorRGB
 90
        0
102
RTVSPost2010PropOp41
 70
     1
102
RTVSPost2010Prop42
 90
       50
102
RTVSPost2010PropOp42
 70
     1
102
RTVSPost2010Prop43
 90
        3
102
RTVSPost2010PropOp43
 70
     1
102
RTVSPost2010Prop44ColorIndex
 90
        5
102
RTVSPost2010Prop44ColorRGB
 90
      255
102
RTVSPost2010PropOp44
 70
     1
102
RTVSPost2010Prop45
280
     0
102
RTVSPost2010PropOp45
 70
     1
102
RTVSPost2010Prop46
 90
       50
102
RTVSPost2010PropOp46
 70
     1
102
RTVSPost2010Prop47
 90
       50
102
RTVSPost2010PropOp47
 70
     1
102
RTVSPost2010Prop48
 90
       50
102
RTVSPost2010PropOp48
 70
     1
102
RTVSPost2010Prop49
280
     0
102
RTVSPost2010PropOp49
 70
     1
102
RTVSPost2010Prop50
 90
       50
102
RTVSPost2010PropOp50
 70
     1
102
RTVSPost2010Prop51ColorIndex
 90
      256
102
RTVSPost2010Prop51ColorRGB
 90
-16777216
102
RTVSPost2010PropOp51
 70
     0
102
RTVSPost2010Prop52
140
1.0
102
RTVSPost2010PropOp52
 70
     0
102
RTVSPost2010Prop53
 90
        2
102
RTVSPost2010PropOp53
 70
     1
102
RTVSPost2010Prop54
  1
strokes_ogs.tif
102
RTVSPost2010PropOp54
 70
     1
102
RTVSPost2010Prop55
280
     0
102
RTVSPost2010PropOp55
 70
     1
102
RTVSPost2010Prop56
140
1.0
102
RTVSPost2010PropOp56
 70
     1
102
RTVSPost2010Prop57
140
1.0
102
RTVSPost2010PropOp57
 70
     1
  0
XRECORD
  5
4AA
102
{ACAD_REACTORS
330
4A9
102
}
330
4A9
100
AcDbXrecord
280
     1
102
RTVSPropertyOp0
 70
     1
102
RTVSPropertyOp1
 70
     1
102
RTVSPropertyOp2
 70
     1
102
RTVSPropertyOp3
 70
     1
102
RTVSPropertyOp4
 70
     1
102
RTVSPropertyOp5
 70
     1
102
RTVSPropertyOp6
 70
     1
102
RTVSPropertyOp7
 70
     1
102
RTVSPropertyOp8
 70
     1
102
RTVSPropertyOp9
 70
     1
102
RTVSPropertyOp10
 70
     1
102
RTVSPropertyOp11
 70
     1
102
RTVSPropertyOp12
 70
     1
102
RTVSPropertyOp13
 70
     1
102
RTVSPropertyOp14
 70
     1
102
RTVSPropertyOp15
 70
     1
102
RTVSPropertyOp16
 70
     1
102
RTVSPropertyOp17
 70
     1
102
RTVSPropertyOp18
 70
     1
102
RTVSPropertyOp19
 70
     1
102
RTVSPropertyOp20
 70
     1
102
RTVSPropertyOp21
 70
     1
102
RTVSPropertyOp22
 70
     1
102
RTVSPropertyOp23
 70
     1
102
RTVSPropertyOp24
 70
     1
102
RTVSPropertyOp25
 70
     1
102
RTVSPropertyOp26
 70
     1
102
RTVSPropertyOp27
 70
     1
102
RTVSPropertyOp28
 70
     1
102
RTVSPropertyOp29
 70
     1
102
RTVSPropertyOp30
 70
     1
102
RTVSPropertyOp31
 70
     1
102
RTVSPropertyOp32
 70
     1
102
RTVSPropertyOp33
 70
     1
102
RTVSPropertyOp34
 70
     1
102
RTVSPropertyOp35
 70
     1
102
RTVSPropertyOp36
 70
     1
102
RTVSPropertyOp37
 70
     1
102
RTVSPropertyOp38
 70
     1
102
RTVSPropertyOp39
 70
     1
102
RTVSPropertyOp40
 70
     1
102
RTVSPropertyOp41
 70
     1
102
RTVSPropertyOp42
 70
     1
102
RTVSPropertyOp43
 70
     1
102
RTVSPropertyOp44
 70
     1
102
RTVSPropertyOp45
 70
     1
102
RTVSPropertyOp46
 70
     1
102
RTVSPropertyOp47
 70
     1
102
RTVSPropertyOp48
 70
     1
102
RTVSPropertyOp49
 70
     1
102
RTVSPropertyOp50
 70
     1
102
RTVSPropertyOp51
 70
     0
102
RTVSPropertyOp52
 70
     0
102
RTVSPropertyOp53
 70
     1
102
RTVSPropertyOp54
 70
     1
102
RTVSPropertyOp55
 70
     1
102
RTVSPropertyOp56
 70
     1
102
RTVSPropertyOp57
 70
     1
102
RTVSPost2010Prop28
280
     0
102
RTVSPost2010PropOp28
 70
     1
102
RTVSPost2010Prop29
280
     1
102
RTVSPost2010PropOp29
 70
     1
102
RTVSPost2010Prop30
280
     1
102
RTVSPost2010PropOp30
 70
     1
102
RTVSPost2010Prop31
280
     0
102
RTVSPost2010PropOp31
 70
     1
102
RTVSPost2010Prop32
280
     0
102
RTVSPost2010PropOp32
 70
     1
102
RTVSPost2010Prop33
280
     0
102
RTVSPost2010PropOp33
 70
     1
102
RTVSPost2010Prop34
280
     0
102
RTVSPost2010PropOp34
 70
     1
102
RTVSPost2010Prop35
280
     0
102
RTVSPost2010PropOp35
 70
     1
102
RTVSPost2010Prop36
280
     0
102
RTVSPost2010PropOp36
 70
     1
102
RTVSPost2010Prop37
 90
       50
102
RTVSPost2010PropOp37
 70
     1
102
RTVSPost2010Prop38
140
0.0
102
RTVSPost2010PropOp38
 70
     1
102
RTVSPost2010Prop39
140
1.0
102
RTVSPost2010PropOp39
 70
     1
102
RTVSPost2010Prop40
 90
        0
102
RTVSPost2010PropOp40
 70
     1
102
RTVSPost2010Prop41ColorIndex
 90
       18
102
RTVSPost2010Prop41ColorRGB
 90
        0
102
RTVSPost2010PropOp41
 70
     1
102
RTVSPost2010Prop42
 90
       50
102
RTVSPost2010PropOp42
 70
     1
102
RTVSPost2010Prop43
 90
        3
102
RTVSPost2010PropOp43
 70
     1
102
RTVSPost2010Prop44ColorIndex
 90
        5
102
RTVSPost2010Prop44ColorRGB
 90
      255
102
RTVSPost2010PropOp44
 70
     1
102
RTVSPost2010Prop45
280
     0
102
RTVSPost2010PropOp45
 70
     1
102
RTVSPost2010Prop46
 90
       50
102
RTVSPost2010PropOp46
 70
     1
102
RTVSPost2010Prop47
 90
       50
102
RTVSPost2010PropOp47
 70
     1
102
RTVSPost2010Prop48
 90
       50
102
RTVSPost2010PropOp48
 70
     1
102
RTVSPost2010Prop49
280
     0
102
RTVSPost2010PropOp49
 70
     1
102
RTVSPost2010Prop50
 90
       50
102
RTVSPost2010PropOp50
 70
     1
102
RTVSPost2010Prop51ColorIndex
 90
      256
102
RTVSPost2010Prop51ColorRGB
 90
-16777216
102
RTVSPost2010PropOp51
 70
     0
102
RTVSPost2010Prop52
140
1.0
102
RTVSPost2010PropOp52
 70
     0
102
RTVSPost2010Prop53
 90
        2
102
RTVSPost2010PropOp53
 70
     1
102
RTVSPost2010Prop54
  1
strokes_ogs.tif
102
RTVSPost2010PropOp54
 70
     1
102
RTVSPost2010Prop55
280
     0
102
RTVSPost2010PropOp55
 70
     1
102
RTVSPost2010Prop56
140
1.0
102
RTVSPost2010PropOp56
 70
     1
102
RTVSPost2010Prop57
140
1.0
102
RTVSPost2010PropOp57
 70
     1
  0
XRECORD
  5
4B2
102
{ACAD_REACTORS
330
4B1
102
}
330
4B1
100
AcDbXrecord
280
     1
102
RTVSPropertyOp0
 70
     1
102
RTVSPropertyOp1
 70
     1
102
RTVSPropertyOp2
 70
     1
102
RTVSPropertyOp3
 70
     1
102
RTVSPropertyOp4
 70
     1
102
RTVSPropertyOp5
 70
     1
102
RTVSPropertyOp6
 70
     1
102
RTVSPropertyOp7
 70
     1
102
RTVSPropertyOp8
 70
     1
102
RTVSPropertyOp9
 70
     1
102
RTVSPropertyOp10
 70
     1
102
RTVSPropertyOp11
 70
     1
102
RTVSPropertyOp12
 70
     1
102
RTVSPropertyOp13
 70
     1
102
RTVSPropertyOp14
 70
     1
102
RTVSPropertyOp15
 70
     1
102
RTVSPropertyOp16
 70
     1
102
RTVSPropertyOp17
 70
     1
102
RTVSPropertyOp18
 70
     1
102
RTVSPropertyOp19
 70
     1
102
RTVSPropertyOp20
 70
     1
102
RTVSPropertyOp21
 70
     1
102
RTVSPropertyOp22
 70
     1
102
RTVSPropertyOp23
 70
     1
102
RTVSPropertyOp24
 70
     1
102
RTVSPropertyOp25
 70
     1
102
RTVSPropertyOp26
 70
     1
102
RTVSPropertyOp27
 70
     1
102
RTVSPropertyOp28
 70
     1
102
RTVSPropertyOp29
 70
     1
102
RTVSPropertyOp30
 70
     1
102
RTVSPropertyOp31
 70
     1
102
RTVSPropertyOp32
 70
     1
102
RTVSPropertyOp33
 70
     1
102
RTVSPropertyOp34
 70
     1
102
RTVSPropertyOp35
 70
     1
102
RTVSPropertyOp36
 70
     1
102
RTVSPropertyOp37
 70
     1
102
RTVSPropertyOp38
 70
     1
102
RTVSPropertyOp39
 70
     1
102
RTVSPropertyOp40
 70
     1
102
RTVSPropertyOp41
 70
     1
102
RTVSPropertyOp42
 70
     1
102
RTVSPropertyOp43
 70
     1
102
RTVSPropertyOp44
 70
     1
102
RTVSPropertyOp45
 70
     1
102
RTVSPropertyOp46
 70
     1
102
RTVSPropertyOp47
 70
     1
102
RTVSPropertyOp48
 70
     1
102
RTVSPropertyOp49
 70
     1
102
RTVSPropertyOp50
 70
     1
102
RTVSPropertyOp51
 70
     0
102
RTVSPropertyOp52
 70
     0
102
RTVSPropertyOp53
 70
     1
102
RTVSPropertyOp54
 70
     1
102
RTVSPropertyOp55
 70
     1
102
RTVSPropertyOp56
 70
     1
102
RTVSPropertyOp57
 70
     1
102
RTVSPost2010Prop28
280
     0
102
RTVSPost2010PropOp28
 70
     1
102
RTVSPost2010Prop29
280
     1
102
RTVSPost2010PropOp29
 70
     1
102
RTVSPost2010Prop30
280
     1
102
RTVSPost2010PropOp30
 70
     1
102
RTVSPost2010Prop31
280
     0
102
RTVSPost2010PropOp31
 70
     1
102
RTVSPost2010Prop32
280
     0
102
RTVSPost2010PropOp32
 70
     1
102
RTVSPost2010Prop33
280
     0
102
RTVSPost2010PropOp33
 70
     1
102
RTVSPost2010Prop34
280
     0
102
RTVSPost2010PropOp34
 70
     1
102
RTVSPost2010Prop35
280
     0
102
RTVSPost2010PropOp35
 70
     1
102
RTVSPost2010Prop36
280
     0
102
RTVSPost2010PropOp36
 70
     1
102
RTVSPost2010Prop37
 90
       50
102
RTVSPost2010PropOp37
 70
     1
102
RTVSPost2010Prop38
140
0.0
102
RTVSPost2010PropOp38
 70
     1
102
RTVSPost2010Prop39
140
1.0
102
RTVSPost2010PropOp39
 70
     1
102
RTVSPost2010Prop40
 90
        0
102
RTVSPost2010PropOp40
 70
     1
102
RTVSPost2010Prop41ColorIndex
 90
       18
102
RTVSPost2010Prop41ColorRGB
 90
        0
102
RTVSPost2010PropOp41
 70
     1
102
RTVSPost2010Prop42
 90
       50
102
RTVSPost2010PropOp42
 70
     1
102
RTVSPost2010Prop43
 90
        3
102
RTVSPost2010PropOp43
 70
     1
102
RTVSPost2010Prop44ColorIndex
 90
        5
102
RTVSPost2010Prop44ColorRGB
 90
      255
102
RTVSPost2010PropOp44
 70
     1
102
RTVSPost2010Prop45
280
     0
102
RTVSPost2010PropOp45
 70
     1
102
RTVSPost2010Prop46
 90
       50
102
RTVSPost2010PropOp46
 70
     1
102
RTVSPost2010Prop47
 90
       50
102
RTVSPost2010PropOp47
 70
     1
102
RTVSPost2010Prop48
 90
       50
102
RTVSPost2010PropOp48
 70
     1
102
RTVSPost2010Prop49
280
     0
102
RTVSPost2010PropOp49
 70
     1
102
RTVSPost2010Prop50
 90
       50
102
RTVSPost2010PropOp50
 70
     1
102
RTVSPost2010Prop51ColorIndex
 90
      256
102
RTVSPost2010Prop51ColorRGB
 90
-16777216
102
RTVSPost2010PropOp51
 70
     0
102
RTVSPost2010Prop52
140
1.0
102
RTVSPost2010PropOp52
 70
     0
102
RTVSPost2010Prop53
 90
        2
102
RTVSPost2010PropOp53
 70
     1
102
RTVSPost2010Prop54
  1
strokes_ogs.tif
102
RTVSPost2010PropOp54
 70
     1
102
RTVSPost2010Prop55
280
     0
102
RTVSPost2010PropOp55
 70
     1
102
RTVSPost2010Prop56
140
1.0
102
RTVSPost2010PropOp56
 70
     1
102
RTVSPost2010Prop57
140
1.0
102
RTVSPost2010PropOp57
 70
     1
  0
XRECORD
  5
4A6
102
{ACAD_REACTORS
330
4A5
102
}
330
4A5
100
AcDbXrecord
280
     1
102
RTVSPropertyOp0
 70
     1
102
RTVSPropertyOp1
 70
     1
102
RTVSPropertyOp2
 70
     1
102
RTVSPropertyOp3
 70
     1
102
RTVSPropertyOp4
 70
     1
102
RTVSPropertyOp5
 70
     1
102
RTVSPropertyOp6
 70
     1
102
RTVSPropertyOp7
 70
     1
102
RTVSPropertyOp8
 70
     1
102
RTVSPropertyOp9
 70
     1
102
RTVSPropertyOp10
 70
     1
102
RTVSPropertyOp11
 70
     1
102
RTVSPropertyOp12
 70
     1
102
RTVSPropertyOp13
 70
     1
102
RTVSPropertyOp14
 70
     1
102
RTVSPropertyOp15
 70
     1
102
RTVSPropertyOp16
 70
     1
102
RTVSPropertyOp17
 70
     1
102
RTVSPropertyOp18
 70
     1
102
RTVSPropertyOp19
 70
     1
102
RTVSPropertyOp20
 70
     1
102
RTVSPropertyOp21
 70
     1
102
RTVSPropertyOp22
 70
     1
102
RTVSPropertyOp23
 70
     1
102
RTVSPropertyOp24
 70
     1
102
RTVSPropertyOp25
 70
     1
102
RTVSPropertyOp26
 70
     1
102
RTVSPropertyOp27
 70
     1
102
RTVSPropertyOp28
 70
     1
102
RTVSPropertyOp29
 70
     1
102
RTVSPropertyOp30
 70
     1
102
RTVSPropertyOp31
 70
     1
102
RTVSPropertyOp32
 70
     1
102
RTVSPropertyOp33
 70
     1
102
RTVSPropertyOp34
 70
     1
102
RTVSPropertyOp35
 70
     1
102
RTVSPropertyOp36
 70
     1
102
RTVSPropertyOp37
 70
     1
102
RTVSPropertyOp38
 70
     1
102
RTVSPropertyOp39
 70
     1
102
RTVSPropertyOp40
 70
     1
102
RTVSPropertyOp41
 70
     1
102
RTVSPropertyOp42
 70
     1
102
RTVSPropertyOp43
 70
     1
102
RTVSPropertyOp44
 70
     1
102
RTVSPropertyOp45
 70
     1
102
RTVSPropertyOp46
 70
     1
102
RTVSPropertyOp47
 70
     1
102
RTVSPropertyOp48
 70
     1
102
RTVSPropertyOp49
 70
     1
102
RTVSPropertyOp50
 70
     1
102
RTVSPropertyOp51
 70
     0
102
RTVSPropertyOp52
 70
     0
102
RTVSPropertyOp53
 70
     1
102
RTVSPropertyOp54
 70
     1
102
RTVSPropertyOp55
 70
     1
102
RTVSPropertyOp56
 70
     1
102
RTVSPropertyOp57
 70
     1
102
RTVSPost2010Prop28
280
     0
102
RTVSPost2010PropOp28
 70
     1
102
RTVSPost2010Prop29
280
     1
102
RTVSPost2010PropOp29
 70
     1
102
RTVSPost2010Prop30
280
     1
102
RTVSPost2010PropOp30
 70
     1
102
RTVSPost2010Prop31
280
     0
102
RTVSPost2010PropOp31
 70
     1
102
RTVSPost2010Prop32
280
     0
102
RTVSPost2010PropOp32
 70
     1
102
RTVSPost2010Prop33
280
     0
102
RTVSPost2010PropOp33
 70
     1
102
RTVSPost2010Prop34
280
     0
102
RTVSPost2010PropOp34
 70
     1
102
RTVSPost2010Prop35
280
     0
102
RTVSPost2010PropOp35
 70
     1
102
RTVSPost2010Prop36
280
     0
102
RTVSPost2010PropOp36
 70
     1
102
RTVSPost2010Prop37
 90
       50
102
RTVSPost2010PropOp37
 70
     1
102
RTVSPost2010Prop38
140
0.0
102
RTVSPost2010PropOp38
 70
     1
102
RTVSPost2010Prop39
140
1.0
102
RTVSPost2010PropOp39
 70
     1
102
RTVSPost2010Prop40
 90
        0
102
RTVSPost2010PropOp40
 70
     1
102
RTVSPost2010Prop41ColorIndex
 90
       18
102
RTVSPost2010Prop41ColorRGB
 90
        0
102
RTVSPost2010PropOp41
 70
     1
102
RTVSPost2010Prop42
 90
       50
102
RTVSPost2010PropOp42
 70
     1
102
RTVSPost2010Prop43
 90
        3
102
RTVSPost2010PropOp43
 70
     1
102
RTVSPost2010Prop44ColorIndex
 90
        5
102
RTVSPost2010Prop44ColorRGB
 90
      255
102
RTVSPost2010PropOp44
 70
     1
102
RTVSPost2010Prop45
280
     0
102
RTVSPost2010PropOp45
 70
     1
102
RTVSPost2010Prop46
 90
       50
102
RTVSPost2010PropOp46
 70
     1
102
RTVSPost2010Prop47
 90
       50
102
RTVSPost2010PropOp47
 70
     1
102
RTVSPost2010Prop48
 90
       50
102
RTVSPost2010PropOp48
 70
     1
102
RTVSPost2010Prop49
280
     0
102
RTVSPost2010PropOp49
 70
     1
102
RTVSPost2010Prop50
 90
       50
102
RTVSPost2010PropOp50
 70
     1
102
RTVSPost2010Prop51ColorIndex
 90
      256
102
RTVSPost2010Prop51ColorRGB
 90
-16777216
102
RTVSPost2010PropOp51
 70
     0
102
RTVSPost2010Prop52
140
1.0
102
RTVSPost2010PropOp52
 70
     0
102
RTVSPost2010Prop53
 90
        2
102
RTVSPost2010PropOp53
 70
     1
102
RTVSPost2010Prop54
  1
strokes_ogs.tif
102
RTVSPost2010PropOp54
 70
     1
102
RTVSPost2010Prop55
280
     0
102
RTVSPost2010PropOp55
 70
     1
102
RTVSPost2010Prop56
140
1.0
102
RTVSPost2010PropOp56
 70
     1
102
RTVSPost2010Prop57
140
1.0
102
RTVSPost2010PropOp57
 70
     1
  0
XRECORD
  5
4A8
102
{ACAD_REACTORS
330
4A7
102
}
330
4A7
100
AcDbXrecord
280
     1
102
RTVSPropertyOp0
 70
     1
102
RTVSPropertyOp1
 70
     1
102
RTVSPropertyOp2
 70
     1
102
RTVSPropertyOp3
 70
     1
102
RTVSPropertyOp4
 70
     1
102
RTVSPropertyOp5
 70
     1
102
RTVSPropertyOp6
 70
     1
102
RTVSPropertyOp7
 70
     1
102
RTVSPropertyOp8
 70
     1
102
RTVSPropertyOp9
 70
     1
102
RTVSPropertyOp10
 70
     1
102
RTVSPropertyOp11
 70
     1
102
RTVSPropertyOp12
 70
     1
102
RTVSPropertyOp13
 70
     1
102
RTVSPropertyOp14
 70
     1
102
RTVSPropertyOp15
 70
     1
102
RTVSPropertyOp16
 70
     1
102
RTVSPropertyOp17
 70
     1
102
RTVSPropertyOp18
 70
     1
102
RTVSPropertyOp19
 70
     1
102
RTVSPropertyOp20
 70
     1
102
RTVSPropertyOp21
 70
     1
102
RTVSPropertyOp22
 70
     1
102
RTVSPropertyOp23
 70
     1
102
RTVSPropertyOp24
 70
     1
102
RTVSPropertyOp25
 70
     1
102
RTVSPropertyOp26
 70
     1
102
RTVSPropertyOp27
 70
     1
102
RTVSPropertyOp28
 70
     1
102
RTVSPropertyOp29
 70
     1
102
RTVSPropertyOp30
 70
     1
102
RTVSPropertyOp31
 70
     1
102
RTVSPropertyOp32
 70
     1
102
RTVSPropertyOp33
 70
     1
102
RTVSPropertyOp34
 70
     1
102
RTVSPropertyOp35
 70
     1
102
RTVSPropertyOp36
 70
     1
102
RTVSPropertyOp37
 70
     1
102
RTVSPropertyOp38
 70
     1
102
RTVSPropertyOp39
 70
     1
102
RTVSPropertyOp40
 70
     1
102
RTVSPropertyOp41
 70
     1
102
RTVSPropertyOp42
 70
     1
102
RTVSPropertyOp43
 70
     1
102
RTVSPropertyOp44
 70
     1
102
RTVSPropertyOp45
 70
     1
102
RTVSPropertyOp46
 70
     1
102
RTVSPropertyOp47
 70
     1
102
RTVSPropertyOp48
 70
     1
102
RTVSPropertyOp49
 70
     1
102
RTVSPropertyOp50
 70
     1
102
RTVSPropertyOp51
 70
     0
102
RTVSPropertyOp52
 70
     0
102
RTVSPropertyOp53
 70
     1
102
RTVSPropertyOp54
 70
     1
102
RTVSPropertyOp55
 70
     1
102
RTVSPropertyOp56
 70
     1
102
RTVSPropertyOp57
 70
     1
102
RTVSPost2010Prop28
280
     0
102
RTVSPost2010PropOp28
 70
     1
102
RTVSPost2010Prop29
280
     1
102
RTVSPost2010PropOp29
 70
     1
102
RTVSPost2010Prop30
280
     1
102
RTVSPost2010PropOp30
 70
     1
102
RTVSPost2010Prop31
280
     0
102
RTVSPost2010PropOp31
 70
     1
102
RTVSPost2010Prop32
280
     0
102
RTVSPost2010PropOp32
 70
     1
102
RTVSPost2010Prop33
280
     0
102
RTVSPost2010PropOp33
 70
     1
102
RTVSPost2010Prop34
280
     0
102
RTVSPost2010PropOp34
 70
     1
102
RTVSPost2010Prop35
280
     0
102
RTVSPost2010PropOp35
 70
     1
102
RTVSPost2010Prop36
280
     0
102
RTVSPost2010PropOp36
 70
     1
102
RTVSPost2010Prop37
 90
       50
102
RTVSPost2010PropOp37
 70
     1
102
RTVSPost2010Prop38
140
0.0
102
RTVSPost2010PropOp38
 70
     1
102
RTVSPost2010Prop39
140
1.0
102
RTVSPost2010PropOp39
 70
     1
102
RTVSPost2010Prop40
 90
        0
102
RTVSPost2010PropOp40
 70
     1
102
RTVSPost2010Prop41ColorIndex
 90
       18
102
RTVSPost2010Prop41ColorRGB
 90
        0
102
RTVSPost2010PropOp41
 70
     1
102
RTVSPost2010Prop42
 90
       50
102
RTVSPost2010PropOp42
 70
     1
102
RTVSPost2010Prop43
 90
        3
102
RTVSPost2010PropOp43
 70
     1
102
RTVSPost2010Prop44ColorIndex
 90
        5
102
RTVSPost2010Prop44ColorRGB
 90
      255
102
RTVSPost2010PropOp44
 70
     1
102
RTVSPost2010Prop45
280
     0
102
RTVSPost2010PropOp45
 70
     1
102
RTVSPost2010Prop46
 90
       50
102
RTVSPost2010PropOp46
 70
     1
102
RTVSPost2010Prop47
 90
       50
102
RTVSPost2010PropOp47
 70
     1
102
RTVSPost2010Prop48
 90
       50
102
RTVSPost2010PropOp48
 70
     1
102
RTVSPost2010Prop49
280
     0
102
RTVSPost2010PropOp49
 70
     1
102
RTVSPost2010Prop50
 90
       50
102
RTVSPost2010PropOp50
 70
     1
102
RTVSPost2010Prop51ColorIndex
 90
      256
102
RTVSPost2010Prop51ColorRGB
 90
-16777216
102
RTVSPost2010PropOp51
 70
     0
102
RTVSPost2010Prop52
140
1.0
102
RTVSPost2010PropOp52
 70
     0
102
RTVSPost2010Prop53
 90
        2
102
RTVSPost2010PropOp53
 70
     1
102
RTVSPost2010Prop54
  1
strokes_ogs.tif
102
RTVSPost2010PropOp54
 70
     1
102
RTVSPost2010Prop55
280
     0
102
RTVSPost2010PropOp55
 70
     1
102
RTVSPost2010Prop56
140
1.0
102
RTVSPost2010PropOp56
 70
     1
102
RTVSPost2010Prop57
140
1.0
102
RTVSPost2010PropOp57
 70
     1
  0
XRECORD
  5
4B8
102
{ACAD_REACTORS
330
4B7
102
}
330
4B7
100
AcDbXrecord
280
     1
102
RTVSPropertyOp0
 70
     0
102
RTVSPropertyOp1
 70
     0
102
RTVSPropertyOp2
 70
     0
102
RTVSPropertyOp3
 70
     0
102
RTVSPropertyOp4
 70
     0
102
RTVSPropertyOp5
 70
     0
102
RTVSPropertyOp6
 70
     0
102
RTVSPropertyOp7
 70
     0
102
RTVSPropertyOp8
 70
     0
102
RTVSPropertyOp9
 70
     0
102
RTVSPropertyOp10
 70
     0
102
RTVSPropertyOp11
 70
     0
102
RTVSPropertyOp12
 70
     0
102
RTVSPropertyOp13
 70
     0
102
RTVSPropertyOp14
 70
     2
102
RTVSPropertyOp15
 70
     0
102
RTVSPropertyOp16
 70
     0
102
RTVSPropertyOp17
 70
     0
102
RTVSPropertyOp18
 70
     0
102
RTVSPropertyOp19
 70
     0
102
RTVSPropertyOp20
 70
     0
102
RTVSPropertyOp21
 70
     0
102
RTVSPropertyOp22
 70
     0
102
RTVSPropertyOp23
 70
     0
102
RTVSPropertyOp24
 70
     0
102
RTVSPropertyOp25
 70
     0
102
RTVSPropertyOp26
 70
     0
102
RTVSPropertyOp27
 70
     0
102
RTVSPropertyOp28
 70
     0
102
RTVSPropertyOp29
 70
     0
102
RTVSPropertyOp30
 70
     0
102
RTVSPropertyOp31
 70
     0
102
RTVSPropertyOp32
 70
     0
102
RTVSPropertyOp33
 70
     0
102
RTVSPropertyOp34
 70
     0
102
RTVSPropertyOp35
 70
     0
102
RTVSPropertyOp36
 70
     0
102
RTVSPropertyOp37
 70
     0
102
RTVSPropertyOp38
 70
     0
102
RTVSPropertyOp39
 70
     0
102
RTVSPropertyOp40
 70
     0
102
RTVSPropertyOp41
 70
     0
102
RTVSPropertyOp42
 70
     0
102
RTVSPropertyOp43
 70
     0
102
RTVSPropertyOp44
 70
     0
102
RTVSPropertyOp45
 70
     0
102
RTVSPropertyOp46
 70
     0
102
RTVSPropertyOp47
 70
     0
102
RTVSPropertyOp48
 70
     0
102
RTVSPropertyOp49
 70
     0
102
RTVSPropertyOp50
 70
     0
102
RTVSPropertyOp51
 70
     0
102
RTVSPropertyOp52
 70
     0
102
RTVSPropertyOp53
 70
     0
102
RTVSPropertyOp54
 70
     0
102
RTVSPropertyOp55
 70
     0
102
RTVSPropertyOp56
 70
     0
102
RTVSPropertyOp57
 70
     0
102
RTVSPost2010Prop28
280
     0
102
RTVSPost2010PropOp28
 70
     0
102
RTVSPost2010Prop29
280
     1
102
RTVSPost2010PropOp29
 70
     0
102
RTVSPost2010Prop30
280
     1
102
RTVSPost2010PropOp30
 70
     0
102
RTVSPost2010Prop31
280
     0
102
RTVSPost2010PropOp31
 70
     0
102
RTVSPost2010Prop32
280
     0
102
RTVSPost2010PropOp32
 70
     0
102
RTVSPost2010Prop33
280
     0
102
RTVSPost2010PropOp33
 70
     0
102
RTVSPost2010Prop34
280
     0
102
RTVSPost2010PropOp34
 70
     0
102
RTVSPost2010Prop35
280
     0
102
RTVSPost2010PropOp35
 70
     0
102
RTVSPost2010Prop36
280
     0
102
RTVSPost2010PropOp36
 70
     0
102
RTVSPost2010Prop37
 90
       50
102
RTVSPost2010PropOp37
 70
     0
102
RTVSPost2010Prop38
140
0.0
102
RTVSPost2010PropOp38
 70
     0
102
RTVSPost2010Prop39
140
1.0
102
RTVSPost2010PropOp39
 70
     0
102
RTVSPost2010Prop40
 90
        0
102
RTVSPost2010PropOp40
 70
     0
102
RTVSPost2010Prop41ColorIndex
 90
       18
102
RTVSPost2010Prop41ColorRGB
 90
        0
102
RTVSPost2010PropOp41
 70
     0
102
RTVSPost2010Prop42
 90
       50
102
RTVSPost2010PropOp42
 70
     0
102
RTVSPost2010Prop43
 90
        3
102
RTVSPost2010PropOp43
 70
     0
102
RTVSPost2010Prop44ColorIndex
 90
        5
102
RTVSPost2010Prop44ColorRGB
 90
      255
102
RTVSPost2010PropOp44
 70
     0
102
RTVSPost2010Prop45
280
     0
102
RTVSPost2010PropOp45
 70
     0
102
RTVSPost2010Prop46
 90
       50
102
RTVSPost2010PropOp46
 70
     0
102
RTVSPost2010Prop47
 90
       50
102
RTVSPost2010PropOp47
 70
     0
102
RTVSPost2010Prop48
 90
       50
102
RTVSPost2010PropOp48
 70
     0
102
RTVSPost2010Prop49
280
     0
102
RTVSPost2010PropOp49
 70
     0
102
RTVSPost2010Prop50
 90
       50
102
RTVSPost2010PropOp50
 70
     0
102
RTVSPost2010Prop51ColorIndex
 90
      256
102
RTVSPost2010Prop51ColorRGB
 90
-16777216
102
RTVSPost2010PropOp51
 70
     0
102
RTVSPost2010Prop52
140
1.0
102
RTVSPost2010PropOp52
 70
     0
102
RTVSPost2010Prop53
 90
        2
102
RTVSPost2010PropOp53
 70
     0
102
RTVSPost2010Prop54
  1
strokes_ogs.tif
102
RTVSPost2010PropOp54
 70
     0
102
RTVSPost2010Prop55
280
     0
102
RTVSPost2010PropOp55
 70
     0
102
RTVSPost2010Prop56
140
1.0
102
RTVSPost2010PropOp56
 70
     0
102
RTVSPost2010Prop57
140
1.0
102
RTVSPost2010PropOp57
 70
     0
  0
XRECORD
  5
4B0
102
{ACAD_REACTORS
330
4AF
102
}
330
4AF
100
AcDbXrecord
280
     1
102
RTVSPropertyOp0
 70
     1
102
RTVSPropertyOp1
 70
     1
102
RTVSPropertyOp2
 70
     1
102
RTVSPropertyOp3
 70
     1
102
RTVSPropertyOp4
 70
     1
102
RTVSPropertyOp5
 70
     1
102
RTVSPropertyOp6
 70
     1
102
RTVSPropertyOp7
 70
     1
102
RTVSPropertyOp8
 70
     1
102
RTVSPropertyOp9
 70
     1
102
RTVSPropertyOp10
 70
     1
102
RTVSPropertyOp11
 70
     1
102
RTVSPropertyOp12
 70
     1
102
RTVSPropertyOp13
 70
     1
102
RTVSPropertyOp14
 70
     1
102
RTVSPropertyOp15
 70
     1
102
RTVSPropertyOp16
 70
     1
102
RTVSPropertyOp17
 70
     1
102
RTVSPropertyOp18
 70
     1
102
RTVSPropertyOp19
 70
     1
102
RTVSPropertyOp20
 70
     1
102
RTVSPropertyOp21
 70
     1
102
RTVSPropertyOp22
 70
     1
102
RTVSPropertyOp23
 70
     1
102
RTVSPropertyOp24
 70
     1
102
RTVSPropertyOp25
 70
     1
102
RTVSPropertyOp26
 70
     1
102
RTVSPropertyOp27
 70
     1
102
RTVSPropertyOp28
 70
     1
102
RTVSPropertyOp29
 70
     1
102
RTVSPropertyOp30
 70
     1
102
RTVSPropertyOp31
 70
     1
102
RTVSPropertyOp32
 70
     1
102
RTVSPropertyOp33
 70
     1
102
RTVSPropertyOp34
 70
     1
102
RTVSPropertyOp35
 70
     1
102
RTVSPropertyOp36
 70
     1
102
RTVSPropertyOp37
 70
     1
102
RTVSPropertyOp38
 70
     1
102
RTVSPropertyOp39
 70
     1
102
RTVSPropertyOp40
 70
     1
102
RTVSPropertyOp41
 70
     1
102
RTVSPropertyOp42
 70
     1
102
RTVSPropertyOp43
 70
     1
102
RTVSPropertyOp44
 70
     1
102
RTVSPropertyOp45
 70
     1
102
RTVSPropertyOp46
 70
     1
102
RTVSPropertyOp47
 70
     1
102
RTVSPropertyOp48
 70
     1
102
RTVSPropertyOp49
 70
     1
102
RTVSPropertyOp50
 70
     1
102
RTVSPropertyOp51
 70
     0
102
RTVSPropertyOp52
 70
     0
102
RTVSPropertyOp53
 70
     1
102
RTVSPropertyOp54
 70
     1
102
RTVSPropertyOp55
 70
     1
102
RTVSPropertyOp56
 70
     1
102
RTVSPropertyOp57
 70
     1
102
RTVSPost2010Prop28
280
     0
102
RTVSPost2010PropOp28
 70
     1
102
RTVSPost2010Prop29
280
     1
102
RTVSPost2010PropOp29
 70
     1
102
RTVSPost2010Prop30
280
     1
102
RTVSPost2010PropOp30
 70
     1
102
RTVSPost2010Prop31
280
     0
102
RTVSPost2010PropOp31
 70
     1
102
RTVSPost2010Prop32
280
     0
102
RTVSPost2010PropOp32
 70
     1
102
RTVSPost2010Prop33
280
     0
102
RTVSPost2010PropOp33
 70
     1
102
RTVSPost2010Prop34
280
     0
102
RTVSPost2010PropOp34
 70
     1
102
RTVSPost2010Prop35
280
     0
102
RTVSPost2010PropOp35
 70
     1
102
RTVSPost2010Prop36
280
     0
102
RTVSPost2010PropOp36
 70
     1
102
RTVSPost2010Prop37
 90
       50
102
RTVSPost2010PropOp37
 70
     1
102
RTVSPost2010Prop38
140
0.0
102
RTVSPost2010PropOp38
 70
     1
102
RTVSPost2010Prop39
140
1.0
102
RTVSPost2010PropOp39
 70
     1
102
RTVSPost2010Prop40
 90
        0
102
RTVSPost2010PropOp40
 70
     1
102
RTVSPost2010Prop41ColorIndex
 90
       18
102
RTVSPost2010Prop41ColorRGB
 90
        0
102
RTVSPost2010PropOp41
 70
     1
102
RTVSPost2010Prop42
 90
       50
102
RTVSPost2010PropOp42
 70
     1
102
RTVSPost2010Prop43
 90
        3
102
RTVSPost2010PropOp43
 70
     1
102
RTVSPost2010Prop44ColorIndex
 90
        5
102
RTVSPost2010Prop44ColorRGB
 90
      255
102
RTVSPost2010PropOp44
 70
     1
102
RTVSPost2010Prop45
280
     0
102
RTVSPost2010PropOp45
 70
     1
102
RTVSPost2010Prop46
 90
       50
102
RTVSPost2010PropOp46
 70
     1
102
RTVSPost2010Prop47
 90
       50
102
RTVSPost2010PropOp47
 70
     1
102
RTVSPost2010Prop48
 90
       50
102
RTVSPost2010PropOp48
 70
     1
102
RTVSPost2010Prop49
280
     0
102
RTVSPost2010PropOp49
 70
     1
102
RTVSPost2010Prop50
 90
       50
102
RTVSPost2010PropOp50
 70
     1
102
RTVSPost2010Prop51ColorIndex
 90
      256
102
RTVSPost2010Prop51ColorRGB
 90
-16777216
102
RTVSPost2010PropOp51
 70
     0
102
RTVSPost2010Prop52
140
1.0
102
RTVSPost2010PropOp52
 70
     0
102
RTVSPost2010Prop53
 90
        2
102
RTVSPost2010PropOp53
 70
     1
102
RTVSPost2010Prop54
  1
strokes_ogs.tif
102
RTVSPost2010PropOp54
 70
     1
102
RTVSPost2010Prop55
280
     0
102
RTVSPost2010PropOp55
 70
     1
102
RTVSPost2010Prop56
140
1.0
102
RTVSPost2010PropOp56
 70
     1
102
RTVSPost2010Prop57
140
1.0
102
RTVSPost2010PropOp57
 70
     1
  0
XRECORD
  5
494
102
{ACAD_REACTORS
330
493
102
}
330
493
100
AcDbXrecord
280
     1
102
RTVSPropertyOp0
 70
     1
102
RTVSPropertyOp1
 70
     1
102
RTVSPropertyOp2
 70
     1
102
RTVSPropertyOp3
 70
     1
102
RTVSPropertyOp4
 70
     1
102
RTVSPropertyOp5
 70
     1
102
RTVSPropertyOp6
 70
     1
102
RTVSPropertyOp7
 70
     1
102
RTVSPropertyOp8
 70
     1
102
RTVSPropertyOp9
 70
     1
102
RTVSPropertyOp10
 70
     1
102
RTVSPropertyOp11
 70
     1
102
RTVSPropertyOp12
 70
     1
102
RTVSPropertyOp13
 70
     1
102
RTVSPropertyOp14
 70
     1
102
RTVSPropertyOp15
 70
     1
102
RTVSPropertyOp16
 70
     1
102
RTVSPropertyOp17
 70
     1
102
RTVSPropertyOp18
 70
     1
102
RTVSPropertyOp19
 70
     1
102
RTVSPropertyOp20
 70
     1
102
RTVSPropertyOp21
 70
     1
102
RTVSPropertyOp22
 70
     1
102
RTVSPropertyOp23
 70
     1
102
RTVSPropertyOp24
 70
     1
102
RTVSPropertyOp25
 70
     1
102
RTVSPropertyOp26
 70
     1
102
RTVSPropertyOp27
 70
     1
102
RTVSPropertyOp28
 70
     1
102
RTVSPropertyOp29
 70
     1
102
RTVSPropertyOp30
 70
     1
102
RTVSPropertyOp31
 70
     1
102
RTVSPropertyOp32
 70
     1
102
RTVSPropertyOp33
 70
     1
102
RTVSPropertyOp34
 70
     1
102
RTVSPropertyOp35
 70
     1
102
RTVSPropertyOp36
 70
     1
102
RTVSPropertyOp37
 70
     1
102
RTVSPropertyOp38
 70
     1
102
RTVSPropertyOp39
 70
     1
102
RTVSPropertyOp40
 70
     1
102
RTVSPropertyOp41
 70
     1
102
RTVSPropertyOp42
 70
     1
102
RTVSPropertyOp43
 70
     1
102
RTVSPropertyOp44
 70
     1
102
RTVSPropertyOp45
 70
     1
102
RTVSPropertyOp46
 70
     1
102
RTVSPropertyOp47
 70
     1
102
RTVSPropertyOp48
 70
     1
102
RTVSPropertyOp49
 70
     1
102
RTVSPropertyOp50
 70
     1
102
RTVSPropertyOp51
 70
     0
102
RTVSPropertyOp52
 70
     0
102
RTVSPropertyOp53
 70
     1
102
RTVSPropertyOp54
 70
     1
102
RTVSPropertyOp55
 70
     1
102
RTVSPropertyOp56
 70
     1
102
RTVSPropertyOp57
 70
     1
102
RTVSPost2010Prop28
280
     0
102
RTVSPost2010PropOp28
 70
     1
102
RTVSPost2010Prop29
280
     1
102
RTVSPost2010PropOp29
 70
     1
102
RTVSPost2010Prop30
280
     1
102
RTVSPost2010PropOp30
 70
     1
102
RTVSPost2010Prop31
280
     0
102
RTVSPost2010PropOp31
 70
     1
102
RTVSPost2010Prop32
280
     0
102
RTVSPost2010PropOp32
 70
     1
102
RTVSPost2010Prop33
280
     0
102
RTVSPost2010PropOp33
 70
     1
102
RTVSPost2010Prop34
280
     0
102
RTVSPost2010PropOp34
 70
     1
102
RTVSPost2010Prop35
280
     0
102
RTVSPost2010PropOp35
 70
     1
102
RTVSPost2010Prop36
280
     0
102
RTVSPost2010PropOp36
 70
     1
102
RTVSPost2010Prop37
 90
       50
102
RTVSPost2010PropOp37
 70
     1
102
RTVSPost2010Prop38
140
0.0
102
RTVSPost2010PropOp38
 70
     1
102
RTVSPost2010Prop39
140
1.0
102
RTVSPost2010PropOp39
 70
     1
102
RTVSPost2010Prop40
 90
        0
102
RTVSPost2010PropOp40
 70
     1
102
RTVSPost2010Prop41ColorIndex
 90
       18
102
RTVSPost2010Prop41ColorRGB
 90
        0
102
RTVSPost2010PropOp41
 70
     1
102
RTVSPost2010Prop42
 90
       50
102
RTVSPost2010PropOp42
 70
     1
102
RTVSPost2010Prop43
 90
        3
102
RTVSPost2010PropOp43
 70
     1
102
RTVSPost2010Prop44ColorIndex
 90
        5
102
RTVSPost2010Prop44ColorRGB
 90
      255
102
RTVSPost2010PropOp44
 70
     1
102
RTVSPost2010Prop45
280
     0
102
RTVSPost2010PropOp45
 70
     1
102
RTVSPost2010Prop46
 90
       50
102
RTVSPost2010PropOp46
 70
     1
102
RTVSPost2010Prop47
 90
       50
102
RTVSPost2010PropOp47
 70
     1
102
RTVSPost2010Prop48
 90
       50
102
RTVSPost2010PropOp48
 70
     1
102
RTVSPost2010Prop49
280
     0
102
RTVSPost2010PropOp49
 70
     1
102
RTVSPost2010Prop50
 90
       50
102
RTVSPost2010PropOp50
 70
     1
102
RTVSPost2010Prop51ColorIndex
 90
      256
102
RTVSPost2010Prop51ColorRGB
 90
-16777216
102
RTVSPost2010PropOp51
 70
     0
102
RTVSPost2010Prop52
140
1.0
102
RTVSPost2010PropOp52
 70
     0
102
RTVSPost2010Prop53
 90
        2
102
RTVSPost2010PropOp53
 70
     1
102
RTVSPost2010Prop54
  1
strokes_ogs.tif
102
RTVSPost2010PropOp54
 70
     1
102
RTVSPost2010Prop55
280
     0
102
RTVSPost2010PropOp55
 70
     1
102
RTVSPost2010Prop56
140
1.0
102
RTVSPost2010PropOp56
 70
     1
102
RTVSPost2010Prop57
140
1.0
102
RTVSPost2010PropOp57
 70
     1
  0
XRECORD
  5
496
102
{ACAD_REACTORS
330
495
102
}
330
495
100
AcDbXrecord
280
     1
102
RTVSPropertyOp0
 70
     1
102
RTVSPropertyOp1
 70
     1
102
RTVSPropertyOp2
 70
     1
102
RTVSPropertyOp3
 70
     1
102
RTVSPropertyOp4
 70
     1
102
RTVSPropertyOp5
 70
     1
102
RTVSPropertyOp6
 70
     1
102
RTVSPropertyOp7
 70
     1
102
RTVSPropertyOp8
 70
     1
102
RTVSPropertyOp9
 70
     1
102
RTVSPropertyOp10
 70
     1
102
RTVSPropertyOp11
 70
     1
102
RTVSPropertyOp12
 70
     1
102
RTVSPropertyOp13
 70
     1
102
RTVSPropertyOp14
 70
     1
102
RTVSPropertyOp15
 70
     1
102
RTVSPropertyOp16
 70
     1
102
RTVSPropertyOp17
 70
     1
102
RTVSPropertyOp18
 70
     1
102
RTVSPropertyOp19
 70
     1
102
RTVSPropertyOp20
 70
     1
102
RTVSPropertyOp21
 70
     1
102
RTVSPropertyOp22
 70
     1
102
RTVSPropertyOp23
 70
     1
102
RTVSPropertyOp24
 70
     1
102
RTVSPropertyOp25
 70
     1
102
RTVSPropertyOp26
 70
     1
102
RTVSPropertyOp27
 70
     1
102
RTVSPropertyOp28
 70
     1
102
RTVSPropertyOp29
 70
     1
102
RTVSPropertyOp30
 70
     1
102
RTVSPropertyOp31
 70
     1
102
RTVSPropertyOp32
 70
     1
102
RTVSPropertyOp33
 70
     1
102
RTVSPropertyOp34
 70
     1
102
RTVSPropertyOp35
 70
     1
102
RTVSPropertyOp36
 70
     1
102
RTVSPropertyOp37
 70
     1
102
RTVSPropertyOp38
 70
     1
102
RTVSPropertyOp39
 70
     1
102
RTVSPropertyOp40
 70
     1
102
RTVSPropertyOp41
 70
     1
102
RTVSPropertyOp42
 70
     1
102
RTVSPropertyOp43
 70
     1
102
RTVSPropertyOp44
 70
     1
102
RTVSPropertyOp45
 70
     1
102
RTVSPropertyOp46
 70
     1
102
RTVSPropertyOp47
 70
     1
102
RTVSPropertyOp48
 70
     1
102
RTVSPropertyOp49
 70
     1
102
RTVSPropertyOp50
 70
     1
102
RTVSPropertyOp51
 70
     0
102
RTVSPropertyOp52
 70
     0
102
RTVSPropertyOp53
 70
     1
102
RTVSPropertyOp54
 70
     1
102
RTVSPropertyOp55
 70
     1
102
RTVSPropertyOp56
 70
     1
102
RTVSPropertyOp57
 70
     1
102
RTVSPost2010Prop28
280
     0
102
RTVSPost2010PropOp28
 70
     1
102
RTVSPost2010Prop29
280
     1
102
RTVSPost2010PropOp29
 70
     1
102
RTVSPost2010Prop30
280
     1
102
RTVSPost2010PropOp30
 70
     1
102
RTVSPost2010Prop31
280
     0
102
RTVSPost2010PropOp31
 70
     1
102
RTVSPost2010Prop32
280
     0
102
RTVSPost2010PropOp32
 70
     1
102
RTVSPost2010Prop33
280
     0
102
RTVSPost2010PropOp33
 70
     1
102
RTVSPost2010Prop34
280
     0
102
RTVSPost2010PropOp34
 70
     1
102
RTVSPost2010Prop35
280
     0
102
RTVSPost2010PropOp35
 70
     1
102
RTVSPost2010Prop36
280
     0
102
RTVSPost2010PropOp36
 70
     1
102
RTVSPost2010Prop37
 90
       50
102
RTVSPost2010PropOp37
 70
     1
102
RTVSPost2010Prop38
140
0.0
102
RTVSPost2010PropOp38
 70
     1
102
RTVSPost2010Prop39
140
1.0
102
RTVSPost2010PropOp39
 70
     1
102
RTVSPost2010Prop40
 90
        0
102
RTVSPost2010PropOp40
 70
     1
102
RTVSPost2010Prop41ColorIndex
 90
       18
102
RTVSPost2010Prop41ColorRGB
 90
        0
102
RTVSPost2010PropOp41
 70
     1
102
RTVSPost2010Prop42
 90
       50
102
RTVSPost2010PropOp42
 70
     1
102
RTVSPost2010Prop43
 90
        3
102
RTVSPost2010PropOp43
 70
     1
102
RTVSPost2010Prop44ColorIndex
 90
        5
102
RTVSPost2010Prop44ColorRGB
 90
      255
102
RTVSPost2010PropOp44
 70
     1
102
RTVSPost2010Prop45
280
     0
102
RTVSPost2010PropOp45
 70
     1
102
RTVSPost2010Prop46
 90
       50
102
RTVSPost2010PropOp46
 70
     1
102
RTVSPost2010Prop47
 90
       50
102
RTVSPost2010PropOp47
 70
     1
102
RTVSPost2010Prop48
 90
       50
102
RTVSPost2010PropOp48
 70
     1
102
RTVSPost2010Prop49
280
     0
102
RTVSPost2010PropOp49
 70
     1
102
RTVSPost2010Prop50
 90
       50
102
RTVSPost2010PropOp50
 70
     1
102
RTVSPost2010Prop51ColorIndex
 90
      256
102
RTVSPost2010Prop51ColorRGB
 90
-16777216
102
RTVSPost2010PropOp51
 70
     0
102
RTVSPost2010Prop52
140
1.0
102
RTVSPost2010PropOp52
 70
     0
102
RTVSPost2010Prop53
 90
        2
102
RTVSPost2010PropOp53
 70
     1
102
RTVSPost2010Prop54
  1
strokes_ogs.tif
102
RTVSPost2010PropOp54
 70
     1
102
RTVSPost2010Prop55
280
     0
102
RTVSPost2010PropOp55
 70
     1
102
RTVSPost2010Prop56
140
1.0
102
RTVSPost2010PropOp56
 70
     1
102
RTVSPost2010Prop57
140
1.0
102
RTVSPost2010PropOp57
 70
     1
  0
XRECORD
  5
498
102
{ACAD_REACTORS
330
497
102
}
330
497
100
AcDbXrecord
280
     1
102
RTVSPropertyOp0
 70
     1
102
RTVSPropertyOp1
 70
     1
102
RTVSPropertyOp2
 70
     1
102
RTVSPropertyOp3
 70
     1
102
RTVSPropertyOp4
 70
     1
102
RTVSPropertyOp5
 70
     1
102
RTVSPropertyOp6
 70
     1
102
RTVSPropertyOp7
 70
     1
102
RTVSPropertyOp8
 70
     1
102
RTVSPropertyOp9
 70
     1
102
RTVSPropertyOp10
 70
     1
102
RTVSPropertyOp11
 70
     1
102
RTVSPropertyOp12
 70
     1
102
RTVSPropertyOp13
 70
     1
102
RTVSPropertyOp14
 70
     1
102
RTVSPropertyOp15
 70
     1
102
RTVSPropertyOp16
 70
     1
102
RTVSPropertyOp17
 70
     1
102
RTVSPropertyOp18
 70
     1
102
RTVSPropertyOp19
 70
     1
102
RTVSPropertyOp20
 70
     1
102
RTVSPropertyOp21
 70
     1
102
RTVSPropertyOp22
 70
     1
102
RTVSPropertyOp23
 70
     1
102
RTVSPropertyOp24
 70
     1
102
RTVSPropertyOp25
 70
     1
102
RTVSPropertyOp26
 70
     1
102
RTVSPropertyOp27
 70
     1
102
RTVSPropertyOp28
 70
     1
102
RTVSPropertyOp29
 70
     1
102
RTVSPropertyOp30
 70
     1
102
RTVSPropertyOp31
 70
     1
102
RTVSPropertyOp32
 70
     1
102
RTVSPropertyOp33
 70
     1
102
RTVSPropertyOp34
 70
     1
102
RTVSPropertyOp35
 70
     1
102
RTVSPropertyOp36
 70
     1
102
RTVSPropertyOp37
 70
     1
102
RTVSPropertyOp38
 70
     1
102
RTVSPropertyOp39
 70
     1
102
RTVSPropertyOp40
 70
     1
102
RTVSPropertyOp41
 70
     1
102
RTVSPropertyOp42
 70
     1
102
RTVSPropertyOp43
 70
     1
102
RTVSPropertyOp44
 70
     1
102
RTVSPropertyOp45
 70
     1
102
RTVSPropertyOp46
 70
     1
102
RTVSPropertyOp47
 70
     1
102
RTVSPropertyOp48
 70
     1
102
RTVSPropertyOp49
 70
     1
102
RTVSPropertyOp50
 70
     1
102
RTVSPropertyOp51
 70
     0
102
RTVSPropertyOp52
 70
     0
102
RTVSPropertyOp53
 70
     1
102
RTVSPropertyOp54
 70
     1
102
RTVSPropertyOp55
 70
     1
102
RTVSPropertyOp56
 70
     1
102
RTVSPropertyOp57
 70
     1
102
RTVSPost2010Prop28
280
     0
102
RTVSPost2010PropOp28
 70
     1
102
RTVSPost2010Prop29
280
     1
102
RTVSPost2010PropOp29
 70
     1
102
RTVSPost2010Prop30
280
     1
102
RTVSPost2010PropOp30
 70
     1
102
RTVSPost2010Prop31
280
     0
102
RTVSPost2010PropOp31
 70
     1
102
RTVSPost2010Prop32
280
     0
102
RTVSPost2010PropOp32
 70
     1
102
RTVSPost2010Prop33
280
     0
102
RTVSPost2010PropOp33
 70
     1
102
RTVSPost2010Prop34
280
     0
102
RTVSPost2010PropOp34
 70
     1
102
RTVSPost2010Prop35
280
     0
102
RTVSPost2010PropOp35
 70
     1
102
RTVSPost2010Prop36
280
     0
102
RTVSPost2010PropOp36
 70
     1
102
RTVSPost2010Prop37
 90
       50
102
RTVSPost2010PropOp37
 70
     1
102
RTVSPost2010Prop38
140
0.0
102
RTVSPost2010PropOp38
 70
     1
102
RTVSPost2010Prop39
140
1.0
102
RTVSPost2010PropOp39
 70
     1
102
RTVSPost2010Prop40
 90
        0
102
RTVSPost2010PropOp40
 70
     1
102
RTVSPost2010Prop41ColorIndex
 90
       18
102
RTVSPost2010Prop41ColorRGB
 90
        0
102
RTVSPost2010PropOp41
 70
     1
102
RTVSPost2010Prop42
 90
       50
102
RTVSPost2010PropOp42
 70
     1
102
RTVSPost2010Prop43
 90
        3
102
RTVSPost2010PropOp43
 70
     1
102
RTVSPost2010Prop44ColorIndex
 90
        5
102
RTVSPost2010Prop44ColorRGB
 90
      255
102
RTVSPost2010PropOp44
 70
     1
102
RTVSPost2010Prop45
280
     0
102
RTVSPost2010PropOp45
 70
     1
102
RTVSPost2010Prop46
 90
       50
102
RTVSPost2010PropOp46
 70
     1
102
RTVSPost2010Prop47
 90
       50
102
RTVSPost2010PropOp47
 70
     1
102
RTVSPost2010Prop48
 90
       50
102
RTVSPost2010PropOp48
 70
     1
102
RTVSPost2010Prop49
280
     0
102
RTVSPost2010PropOp49
 70
     1
102
RTVSPost2010Prop50
 90
       50
102
RTVSPost2010PropOp50
 70
     1
102
RTVSPost2010Prop51ColorIndex
 90
      256
102
RTVSPost2010Prop51ColorRGB
 90
-16777216
102
RTVSPost2010PropOp51
 70
     0
102
RTVSPost2010Prop52
140
1.0
102
RTVSPost2010PropOp52
 70
     0
102
RTVSPost2010Prop53
 90
        2
102
RTVSPost2010PropOp53
 70
     1
102
RTVSPost2010Prop54
  1
strokes_ogs.tif
102
RTVSPost2010PropOp54
 70
     1
102
RTVSPost2010Prop55
280
     0
102
RTVSPost2010PropOp55
 70
     1
102
RTVSPost2010Prop56
140
1.0
102
RTVSPost2010PropOp56
 70
     1
102
RTVSPost2010Prop57
140
1.0
102
RTVSPost2010PropOp57
 70
     1
  0
XRECORD
  5
49A
102
{ACAD_REACTORS
330
499
102
}
330
499
100
AcDbXrecord
280
     1
102
RTVSPropertyOp0
 70
     1
102
RTVSPropertyOp1
 70
     1
102
RTVSPropertyOp2
 70
     1
102
RTVSPropertyOp3
 70
     1
102
RTVSPropertyOp4
 70
     1
102
RTVSPropertyOp5
 70
     1
102
RTVSPropertyOp6
 70
     1
102
RTVSPropertyOp7
 70
     1
102
RTVSPropertyOp8
 70
     1
102
RTVSPropertyOp9
 70
     1
102
RTVSPropertyOp10
 70
     1
102
RTVSPropertyOp11
 70
     1
102
RTVSPropertyOp12
 70
     1
102
RTVSPropertyOp13
 70
     1
102
RTVSPropertyOp14
 70
     1
102
RTVSPropertyOp15
 70
     1
102
RTVSPropertyOp16
 70
     1
102
RTVSPropertyOp17
 70
     1
102
RTVSPropertyOp18
 70
     1
102
RTVSPropertyOp19
 70
     1
102
RTVSPropertyOp20
 70
     1
102
RTVSPropertyOp21
 70
     1
102
RTVSPropertyOp22
 70
     1
102
RTVSPropertyOp23
 70
     1
102
RTVSPropertyOp24
 70
     1
102
RTVSPropertyOp25
 70
     1
102
RTVSPropertyOp26
 70
     1
102
RTVSPropertyOp27
 70
     1
102
RTVSPropertyOp28
 70
     1
102
RTVSPropertyOp29
 70
     1
102
RTVSPropertyOp30
 70
     1
102
RTVSPropertyOp31
 70
     1
102
RTVSPropertyOp32
 70
     1
102
RTVSPropertyOp33
 70
     1
102
RTVSPropertyOp34
 70
     1
102
RTVSPropertyOp35
 70
     1
102
RTVSPropertyOp36
 70
     1
102
RTVSPropertyOp37
 70
     1
102
RTVSPropertyOp38
 70
     1
102
RTVSPropertyOp39
 70
     1
102
RTVSPropertyOp40
 70
     1
102
RTVSPropertyOp41
 70
     1
102
RTVSPropertyOp42
 70
     1
102
RTVSPropertyOp43
 70
     1
102
RTVSPropertyOp44
 70
     1
102
RTVSPropertyOp45
 70
     1
102
RTVSPropertyOp46
 70
     1
102
RTVSPropertyOp47
 70
     1
102
RTVSPropertyOp48
 70
     1
102
RTVSPropertyOp49
 70
     1
102
RTVSPropertyOp50
 70
     1
102
RTVSPropertyOp51
 70
     0
102
RTVSPropertyOp52
 70
     0
102
RTVSPropertyOp53
 70
     1
102
RTVSPropertyOp54
 70
     1
102
RTVSPropertyOp55
 70
     1
102
RTVSPropertyOp56
 70
     1
102
RTVSPropertyOp57
 70
     1
102
RTVSPost2010Prop28
280
     0
102
RTVSPost2010PropOp28
 70
     1
102
RTVSPost2010Prop29
280
     1
102
RTVSPost2010PropOp29
 70
     1
102
RTVSPost2010Prop30
280
     1
102
RTVSPost2010PropOp30
 70
     1
102
RTVSPost2010Prop31
280
     0
102
RTVSPost2010PropOp31
 70
     1
102
RTVSPost2010Prop32
280
     0
102
RTVSPost2010PropOp32
 70
     1
102
RTVSPost2010Prop33
280
     0
102
RTVSPost2010PropOp33
 70
     1
102
RTVSPost2010Prop34
280
     0
102
RTVSPost2010PropOp34
 70
     1
102
RTVSPost2010Prop35
280
     0
102
RTVSPost2010PropOp35
 70
     1
102
RTVSPost2010Prop36
280
     0
102
RTVSPost2010PropOp36
 70
     1
102
RTVSPost2010Prop37
 90
       50
102
RTVSPost2010PropOp37
 70
     1
102
RTVSPost2010Prop38
140
0.0
102
RTVSPost2010PropOp38
 70
     1
102
RTVSPost2010Prop39
140
1.0
102
RTVSPost2010PropOp39
 70
     1
102
RTVSPost2010Prop40
 90
        0
102
RTVSPost2010PropOp40
 70
     1
102
RTVSPost2010Prop41ColorIndex
 90
       18
102
RTVSPost2010Prop41ColorRGB
 90
        0
102
RTVSPost2010PropOp41
 70
     1
102
RTVSPost2010Prop42
 90
       50
102
RTVSPost2010PropOp42
 70
     1
102
RTVSPost2010Prop43
 90
        3
102
RTVSPost2010PropOp43
 70
     1
102
RTVSPost2010Prop44ColorIndex
 90
        5
102
RTVSPost2010Prop44ColorRGB
 90
      255
102
RTVSPost2010PropOp44
 70
     1
102
RTVSPost2010Prop45
280
     0
102
RTVSPost2010PropOp45
 70
     1
102
RTVSPost2010Prop46
 90
       50
102
RTVSPost2010PropOp46
 70
     1
102
RTVSPost2010Prop47
 90
       50
102
RTVSPost2010PropOp47
 70
     1
102
RTVSPost2010Prop48
 90
       50
102
RTVSPost2010PropOp48
 70
     1
102
RTVSPost2010Prop49
280
     0
102
RTVSPost2010PropOp49
 70
     1
102
RTVSPost2010Prop50
 90
       50
102
RTVSPost2010PropOp50
 70
     1
102
RTVSPost2010Prop51ColorIndex
 90
      256
102
RTVSPost2010Prop51ColorRGB
 90
-16777216
102
RTVSPost2010PropOp51
 70
     0
102
RTVSPost2010Prop52
140
1.0
102
RTVSPost2010PropOp52
 70
     0
102
RTVSPost2010Prop53
 90
        2
102
RTVSPost2010PropOp53
 70
     1
102
RTVSPost2010Prop54
  1
strokes_ogs.tif
102
RTVSPost2010PropOp54
 70
     1
102
RTVSPost2010Prop55
280
     0
102
RTVSPost2010PropOp55
 70
     1
102
RTVSPost2010Prop56
140
1.0
102
RTVSPost2010PropOp56
 70
     1
102
RTVSPost2010Prop57
140
1.0
102
RTVSPost2010PropOp57
 70
     1
  0
XRECORD
  5
4A0
102
{ACAD_REACTORS
330
49F
102
}
330
49F
100
AcDbXrecord
280
     1
102
RTVSPropertyOp0
 70
     1
102
RTVSPropertyOp1
 70
     1
102
RTVSPropertyOp2
 70
     1
102
RTVSPropertyOp3
 70
     1
102
RTVSPropertyOp4
 70
     1
102
RTVSPropertyOp5
 70
     1
102
RTVSPropertyOp6
 70
     1
102
RTVSPropertyOp7
 70
     1
102
RTVSPropertyOp8
 70
     1
102
RTVSPropertyOp9
 70
     1
102
RTVSPropertyOp10
 70
     1
102
RTVSPropertyOp11
 70
     1
102
RTVSPropertyOp12
 70
     1
102
RTVSPropertyOp13
 70
     1
102
RTVSPropertyOp14
 70
     1
102
RTVSPropertyOp15
 70
     1
102
RTVSPropertyOp16
 70
     1
102
RTVSPropertyOp17
 70
     1
102
RTVSPropertyOp18
 70
     1
102
RTVSPropertyOp19
 70
     1
102
RTVSPropertyOp20
 70
     1
102
RTVSPropertyOp21
 70
     1
102
RTVSPropertyOp22
 70
     1
102
RTVSPropertyOp23
 70
     1
102
RTVSPropertyOp24
 70
     1
102
RTVSPropertyOp25
 70
     1
102
RTVSPropertyOp26
 70
     1
102
RTVSPropertyOp27
 70
     1
102
RTVSPropertyOp28
 70
     1
102
RTVSPropertyOp29
 70
     1
102
RTVSPropertyOp30
 70
     1
102
RTVSPropertyOp31
 70
     1
102
RTVSPropertyOp32
 70
     1
102
RTVSPropertyOp33
 70
     1
102
RTVSPropertyOp34
 70
     1
102
RTVSPropertyOp35
 70
     1
102
RTVSPropertyOp36
 70
     1
102
RTVSPropertyOp37
 70
     1
102
RTVSPropertyOp38
 70
     1
102
RTVSPropertyOp39
 70
     1
102
RTVSPropertyOp40
 70
     1
102
RTVSPropertyOp41
 70
     1
102
RTVSPropertyOp42
 70
     1
102
RTVSPropertyOp43
 70
     1
102
RTVSPropertyOp44
 70
     1
102
RTVSPropertyOp45
 70
     1
102
RTVSPropertyOp46
 70
     1
102
RTVSPropertyOp47
 70
     1
102
RTVSPropertyOp48
 70
     1
102
RTVSPropertyOp49
 70
     1
102
RTVSPropertyOp50
 70
     1
102
RTVSPropertyOp51
 70
     0
102
RTVSPropertyOp52
 70
     0
102
RTVSPropertyOp53
 70
     1
102
RTVSPropertyOp54
 70
     1
102
RTVSPropertyOp55
 70
     1
102
RTVSPropertyOp56
 70
     1
102
RTVSPropertyOp57
 70
     1
102
RTVSPost2010Prop28
280
     0
102
RTVSPost2010PropOp28
 70
     1
102
RTVSPost2010Prop29
280
     1
102
RTVSPost2010PropOp29
 70
     1
102
RTVSPost2010Prop30
280
     1
102
RTVSPost2010PropOp30
 70
     1
102
RTVSPost2010Prop31
280
     0
102
RTVSPost2010PropOp31
 70
     1
102
RTVSPost2010Prop32
280
     0
102
RTVSPost2010PropOp32
 70
     1
102
RTVSPost2010Prop33
280
     0
102
RTVSPost2010PropOp33
 70
     1
102
RTVSPost2010Prop34
280
     0
102
RTVSPost2010PropOp34
 70
     1
102
RTVSPost2010Prop35
280
     0
102
RTVSPost2010PropOp35
 70
     1
102
RTVSPost2010Prop36
280
     0
102
RTVSPost2010PropOp36
 70
     1
102
RTVSPost2010Prop37
 90
       50
102
RTVSPost2010PropOp37
 70
     1
102
RTVSPost2010Prop38
140
0.0
102
RTVSPost2010PropOp38
 70
     1
102
RTVSPost2010Prop39
140
1.0
102
RTVSPost2010PropOp39
 70
     1
102
RTVSPost2010Prop40
 90
        0
102
RTVSPost2010PropOp40
 70
     1
102
RTVSPost2010Prop41ColorIndex
 90
       18
102
RTVSPost2010Prop41ColorRGB
 90
        0
102
RTVSPost2010PropOp41
 70
     1
102
RTVSPost2010Prop42
 90
       50
102
RTVSPost2010PropOp42
 70
     1
102
RTVSPost2010Prop43
 90
        3
102
RTVSPost2010PropOp43
 70
     1
102
RTVSPost2010Prop44ColorIndex
 90
        5
102
RTVSPost2010Prop44ColorRGB
 90
      255
102
RTVSPost2010PropOp44
 70
     1
102
RTVSPost2010Prop45
280
     0
102
RTVSPost2010PropOp45
 70
     1
102
RTVSPost2010Prop46
 90
       50
102
RTVSPost2010PropOp46
 70
     1
102
RTVSPost2010Prop47
 90
       50
102
RTVSPost2010PropOp47
 70
     1
102
RTVSPost2010Prop48
 90
       50
102
RTVSPost2010PropOp48
 70
     1
102
RTVSPost2010Prop49
280
     0
102
RTVSPost2010PropOp49
 70
     1
102
RTVSPost2010Prop50
 90
       50
102
RTVSPost2010PropOp50
 70
     1
102
RTVSPost2010Prop51ColorIndex
 90
      256
102
RTVSPost2010Prop51ColorRGB
 90
-16777216
102
RTVSPost2010PropOp51
 70
     0
102
RTVSPost2010Prop52
140
1.0
102
RTVSPost2010PropOp52
 70
     0
102
RTVSPost2010Prop53
 90
        2
102
RTVSPost2010PropOp53
 70
     1
102
RTVSPost2010Prop54
  1
strokes_ogs.tif
102
RTVSPost2010PropOp54
 70
     1
102
RTVSPost2010Prop55
280
     0
102
RTVSPost2010PropOp55
 70
     1
102
RTVSPost2010Prop56
140
1.0
102
RTVSPost2010PropOp56
 70
     1
102
RTVSPost2010Prop57
140
1.0
102
RTVSPost2010PropOp57
 70
     1
  0
XRECORD
  5
4B4
102
{ACAD_REACTORS
330
4B3
102
}
330
4B3
100
AcDbXrecord
280
     1
102
RTVSPropertyOp0
 70
     0
102
RTVSPropertyOp1
 70
     0
102
RTVSPropertyOp2
 70
     0
102
RTVSPropertyOp3
 70
     0
102
RTVSPropertyOp4
 70
     0
102
RTVSPropertyOp5
 70
     0
102
RTVSPropertyOp6
 70
     0
102
RTVSPropertyOp7
 70
     0
102
RTVSPropertyOp8
 70
     0
102
RTVSPropertyOp9
 70
     0
102
RTVSPropertyOp10
 70
     0
102
RTVSPropertyOp11
 70
     0
102
RTVSPropertyOp12
 70
     0
102
RTVSPropertyOp13
 70
     0
102
RTVSPropertyOp14
 70
     2
102
RTVSPropertyOp15
 70
     0
102
RTVSPropertyOp16
 70
     0
102
RTVSPropertyOp17
 70
     0
102
RTVSPropertyOp18
 70
     0
102
RTVSPropertyOp19
 70
     0
102
RTVSPropertyOp20
 70
     0
102
RTVSPropertyOp21
 70
     0
102
RTVSPropertyOp22
 70
     0
102
RTVSPropertyOp23
 70
     0
102
RTVSPropertyOp24
 70
     0
102
RTVSPropertyOp25
 70
     0
102
RTVSPropertyOp26
 70
     0
102
RTVSPropertyOp27
 70
     0
102
RTVSPropertyOp28
 70
     0
102
RTVSPropertyOp29
 70
     0
102
RTVSPropertyOp30
 70
     0
102
RTVSPropertyOp31
 70
     0
102
RTVSPropertyOp32
 70
     0
102
RTVSPropertyOp33
 70
     0
102
RTVSPropertyOp34
 70
     0
102
RTVSPropertyOp35
 70
     0
102
RTVSPropertyOp36
 70
     0
102
RTVSPropertyOp37
 70
     0
102
RTVSPropertyOp38
 70
     0
102
RTVSPropertyOp39
 70
     0
102
RTVSPropertyOp40
 70
     0
102
RTVSPropertyOp41
 70
     0
102
RTVSPropertyOp42
 70
     0
102
RTVSPropertyOp43
 70
     0
102
RTVSPropertyOp44
 70
     0
102
RTVSPropertyOp45
 70
     0
102
RTVSPropertyOp46
 70
     0
102
RTVSPropertyOp47
 70
     0
102
RTVSPropertyOp48
 70
     0
102
RTVSPropertyOp49
 70
     0
102
RTVSPropertyOp50
 70
     0
102
RTVSPropertyOp51
 70
     0
102
RTVSPropertyOp52
 70
     0
102
RTVSPropertyOp53
 70
     0
102
RTVSPropertyOp54
 70
     0
102
RTVSPropertyOp55
 70
     0
102
RTVSPropertyOp56
 70
     0
102
RTVSPropertyOp57
 70
     0
102
RTVSPost2010Prop28
280
     0
102
RTVSPost2010PropOp28
 70
     0
102
RTVSPost2010Prop29
280
     1
102
RTVSPost2010PropOp29
 70
     0
102
RTVSPost2010Prop30
280
     1
102
RTVSPost2010PropOp30
 70
     0
102
RTVSPost2010Prop31
280
     0
102
RTVSPost2010PropOp31
 70
     0
102
RTVSPost2010Prop32
280
     0
102
RTVSPost2010PropOp32
 70
     0
102
RTVSPost2010Prop33
280
     0
102
RTVSPost2010PropOp33
 70
     0
102
RTVSPost2010Prop34
280
     0
102
RTVSPost2010PropOp34
 70
     0
102
RTVSPost2010Prop35
280
     0
102
RTVSPost2010PropOp35
 70
     0
102
RTVSPost2010Prop36
280
     0
102
RTVSPost2010PropOp36
 70
     0
102
RTVSPost2010Prop37
 90
       50
102
RTVSPost2010PropOp37
 70
     0
102
RTVSPost2010Prop38
140
0.0
102
RTVSPost2010PropOp38
 70
     0
102
RTVSPost2010Prop39
140
1.0
102
RTVSPost2010PropOp39
 70
     0
102
RTVSPost2010Prop40
 90
        0
102
RTVSPost2010PropOp40
 70
     0
102
RTVSPost2010Prop41ColorIndex
 90
       18
102
RTVSPost2010Prop41ColorRGB
 90
        0
102
RTVSPost2010PropOp41
 70
     0
102
RTVSPost2010Prop42
 90
       50
102
RTVSPost2010PropOp42
 70
     0
102
RTVSPost2010Prop43
 90
        3
102
RTVSPost2010PropOp43
 70
     0
102
RTVSPost2010Prop44ColorIndex
 90
        5
102
RTVSPost2010Prop44ColorRGB
 90
      255
102
RTVSPost2010PropOp44
 70
     0
102
RTVSPost2010Prop45
280
     0
102
RTVSPost2010PropOp45
 70
     0
102
RTVSPost2010Prop46
 90
       50
102
RTVSPost2010PropOp46
 70
     0
102
RTVSPost2010Prop47
 90
       50
102
RTVSPost2010PropOp47
 70
     0
102
RTVSPost2010Prop48
 90
       50
102
RTVSPost2010PropOp48
 70
     0
102
RTVSPost2010Prop49
280
     0
102
RTVSPost2010PropOp49
 70
     0
102
RTVSPost2010Prop50
 90
       50
102
RTVSPost2010PropOp50
 70
     0
102
RTVSPost2010Prop51ColorIndex
 90
      256
102
RTVSPost2010Prop51ColorRGB
 90
-16777216
102
RTVSPost2010PropOp51
 70
     0
102
RTVSPost2010Prop52
140
1.0
102
RTVSPost2010PropOp52
 70
     0
102
RTVSPost2010Prop53
 90
        2
102
RTVSPost2010PropOp53
 70
     0
102
RTVSPost2010Prop54
  1
strokes_ogs.tif
102
RTVSPost2010PropOp54
 70
     0
102
RTVSPost2010Prop55
280
     0
102
RTVSPost2010PropOp55
 70
     0
102
RTVSPost2010Prop56
140
1.0
102
RTVSPost2010PropOp56
 70
     0
102
RTVSPost2010Prop57
140
1.0
102
RTVSPost2010PropOp57
 70
     0
  0
XRECORD
  5
4AE
102
{ACAD_REACTORS
330
4AD
102
}
330
4AD
100
AcDbXrecord
280
     1
102
RTVSPropertyOp0
 70
     1
102
RTVSPropertyOp1
 70
     1
102
RTVSPropertyOp2
 70
     1
102
RTVSPropertyOp3
 70
     1
102
RTVSPropertyOp4
 70
     1
102
RTVSPropertyOp5
 70
     1
102
RTVSPropertyOp6
 70
     1
102
RTVSPropertyOp7
 70
     1
102
RTVSPropertyOp8
 70
     1
102
RTVSPropertyOp9
 70
     1
102
RTVSPropertyOp10
 70
     1
102
RTVSPropertyOp11
 70
     1
102
RTVSPropertyOp12
 70
     1
102
RTVSPropertyOp13
 70
     1
102
RTVSPropertyOp14
 70
     1
102
RTVSPropertyOp15
 70
     1
102
RTVSPropertyOp16
 70
     1
102
RTVSPropertyOp17
 70
     1
102
RTVSPropertyOp18
 70
     1
102
RTVSPropertyOp19
 70
     1
102
RTVSPropertyOp20
 70
     1
102
RTVSPropertyOp21
 70
     1
102
RTVSPropertyOp22
 70
     1
102
RTVSPropertyOp23
 70
     1
102
RTVSPropertyOp24
 70
     1
102
RTVSPropertyOp25
 70
     1
102
RTVSPropertyOp26
 70
     1
102
RTVSPropertyOp27
 70
     1
102
RTVSPropertyOp28
 70
     1
102
RTVSPropertyOp29
 70
     1
102
RTVSPropertyOp30
 70
     1
102
RTVSPropertyOp31
 70
     1
102
RTVSPropertyOp32
 70
     1
102
RTVSPropertyOp33
 70
     1
102
RTVSPropertyOp34
 70
     1
102
RTVSPropertyOp35
 70
     1
102
RTVSPropertyOp36
 70
     1
102
RTVSPropertyOp37
 70
     1
102
RTVSPropertyOp38
 70
     1
102
RTVSPropertyOp39
 70
     1
102
RTVSPropertyOp40
 70
     1
102
RTVSPropertyOp41
 70
     1
102
RTVSPropertyOp42
 70
     1
102
RTVSPropertyOp43
 70
     1
102
RTVSPropertyOp44
 70
     1
102
RTVSPropertyOp45
 70
     1
102
RTVSPropertyOp46
 70
     1
102
RTVSPropertyOp47
 70
     1
102
RTVSPropertyOp48
 70
     1
102
RTVSPropertyOp49
 70
     1
102
RTVSPropertyOp50
 70
     1
102
RTVSPropertyOp51
 70
     0
102
RTVSPropertyOp52
 70
     0
102
RTVSPropertyOp53
 70
     1
102
RTVSPropertyOp54
 70
     1
102
RTVSPropertyOp55
 70
     1
102
RTVSPropertyOp56
 70
     1
102
RTVSPropertyOp57
 70
     1
102
RTVSPost2010Prop28
280
     0
102
RTVSPost2010PropOp28
 70
     1
102
RTVSPost2010Prop29
280
     1
102
RTVSPost2010PropOp29
 70
     1
102
RTVSPost2010Prop30
280
     1
102
RTVSPost2010PropOp30
 70
     1
102
RTVSPost2010Prop31
280
     0
102
RTVSPost2010PropOp31
 70
     1
102
RTVSPost2010Prop32
280
     0
102
RTVSPost2010PropOp32
 70
     1
102
RTVSPost2010Prop33
280
     0
102
RTVSPost2010PropOp33
 70
     1
102
RTVSPost2010Prop34
280
     0
102
RTVSPost2010PropOp34
 70
     1
102
RTVSPost2010Prop35
280
     0
102
RTVSPost2010PropOp35
 70
     1
102
RTVSPost2010Prop36
280
     0
102
RTVSPost2010PropOp36
 70
     1
102
RTVSPost2010Prop37
 90
       50
102
RTVSPost2010PropOp37
 70
     1
102
RTVSPost2010Prop38
140
0.0
102
RTVSPost2010PropOp38
 70
     1
102
RTVSPost2010Prop39
140
1.0
102
RTVSPost2010PropOp39
 70
     1
102
RTVSPost2010Prop40
 90
        0
102
RTVSPost2010PropOp40
 70
     1
102
RTVSPost2010Prop41ColorIndex
 90
       18
102
RTVSPost2010Prop41ColorRGB
 90
        0
102
RTVSPost2010PropOp41
 70
     1
102
RTVSPost2010Prop42
 90
       50
102
RTVSPost2010PropOp42
 70
     1
102
RTVSPost2010Prop43
 90
        3
102
RTVSPost2010PropOp43
 70
     1
102
RTVSPost2010Prop44ColorIndex
 90
        5
102
RTVSPost2010Prop44ColorRGB
 90
      255
102
RTVSPost2010PropOp44
 70
     1
102
RTVSPost2010Prop45
280
     0
102
RTVSPost2010PropOp45
 70
     1
102
RTVSPost2010Prop46
 90
       50
102
RTVSPost2010PropOp46
 70
     1
102
RTVSPost2010Prop47
 90
       50
102
RTVSPost2010PropOp47
 70
     1
102
RTVSPost2010Prop48
 90
       50
102
RTVSPost2010PropOp48
 70
     1
102
RTVSPost2010Prop49
280
     0
102
RTVSPost2010PropOp49
 70
     1
102
RTVSPost2010Prop50
 90
       50
102
RTVSPost2010PropOp50
 70
     1
102
RTVSPost2010Prop51ColorIndex
 90
      256
102
RTVSPost2010Prop51ColorRGB
 90
-16777216
102
RTVSPost2010PropOp51
 70
     0
102
RTVSPost2010Prop52
140
1.0
102
RTVSPost2010PropOp52
 70
     0
102
RTVSPost2010Prop53
 90
        2
102
RTVSPost2010PropOp53
 70
     1
102
RTVSPost2010Prop54
  1
strokes_ogs.tif
102
RTVSPost2010PropOp54
 70
     1
102
RTVSPost2010Prop55
280
     0
102
RTVSPost2010PropOp55
 70
     1
102
RTVSPost2010Prop56
140
1.0
102
RTVSPost2010PropOp56
 70
     1
102
RTVSPost2010Prop57
140
1.0
102
RTVSPost2010PropOp57
 70
     1
  0
XRECORD
  5
4B6
102
{ACAD_REACTORS
330
4B5
102
}
330
4B5
100
AcDbXrecord
280
     1
102
RTVSPropertyOp0
 70
     0
102
RTVSPropertyOp1
 70
     0
102
RTVSPropertyOp2
 70
     0
102
RTVSPropertyOp3
 70
     0
102
RTVSPropertyOp4
 70
     0
102
RTVSPropertyOp5
 70
     0
102
RTVSPropertyOp6
 70
     0
102
RTVSPropertyOp7
 70
     0
102
RTVSPropertyOp8
 70
     0
102
RTVSPropertyOp9
 70
     0
102
RTVSPropertyOp10
 70
     0
102
RTVSPropertyOp11
 70
     0
102
RTVSPropertyOp12
 70
     0
102
RTVSPropertyOp13
 70
     0
102
RTVSPropertyOp14
 70
     2
102
RTVSPropertyOp15
 70
     0
102
RTVSPropertyOp16
 70
     0
102
RTVSPropertyOp17
 70
     0
102
RTVSPropertyOp18
 70
     0
102
RTVSPropertyOp19
 70
     0
102
RTVSPropertyOp20
 70
     0
102
RTVSPropertyOp21
 70
     0
102
RTVSPropertyOp22
 70
     0
102
RTVSPropertyOp23
 70
     0
102
RTVSPropertyOp24
 70
     0
102
RTVSPropertyOp25
 70
     0
102
RTVSPropertyOp26
 70
     0
102
RTVSPropertyOp27
 70
     0
102
RTVSPropertyOp28
 70
     0
102
RTVSPropertyOp29
 70
     0
102
RTVSPropertyOp30
 70
     0
102
RTVSPropertyOp31
 70
     0
102
RTVSPropertyOp32
 70
     0
102
RTVSPropertyOp33
 70
     0
102
RTVSPropertyOp34
 70
     0
102
RTVSPropertyOp35
 70
     0
102
RTVSPropertyOp36
 70
     0
102
RTVSPropertyOp37
 70
     0
102
RTVSPropertyOp38
 70
     0
102
RTVSPropertyOp39
 70
     0
102
RTVSPropertyOp40
 70
     0
102
RTVSPropertyOp41
 70
     0
102
RTVSPropertyOp42
 70
     0
102
RTVSPropertyOp43
 70
     0
102
RTVSPropertyOp44
 70
     0
102
RTVSPropertyOp45
 70
     0
102
RTVSPropertyOp46
 70
     0
102
RTVSPropertyOp47
 70
     0
102
RTVSPropertyOp48
 70
     0
102
RTVSPropertyOp49
 70
     0
102
RTVSPropertyOp50
 70
     0
102
RTVSPropertyOp51
 70
     0
102
RTVSPropertyOp52
 70
     0
102
RTVSPropertyOp53
 70
     0
102
RTVSPropertyOp54
 70
     0
102
RTVSPropertyOp55
 70
     0
102
RTVSPropertyOp56
 70
     0
102
RTVSPropertyOp57
 70
     0
102
RTVSPost2010Prop28
280
     0
102
RTVSPost2010PropOp28
 70
     0
102
RTVSPost2010Prop29
280
     1
102
RTVSPost2010PropOp29
 70
     0
102
RTVSPost2010Prop30
280
     1
102
RTVSPost2010PropOp30
 70
     0
102
RTVSPost2010Prop31
280
     0
102
RTVSPost2010PropOp31
 70
     0
102
RTVSPost2010Prop32
280
     0
102
RTVSPost2010PropOp32
 70
     0
102
RTVSPost2010Prop33
280
     0
102
RTVSPost2010PropOp33
 70
     0
102
RTVSPost2010Prop34
280
     0
102
RTVSPost2010PropOp34
 70
     0
102
RTVSPost2010Prop35
280
     0
102
RTVSPost2010PropOp35
 70
     0
102
RTVSPost2010Prop36
280
     0
102
RTVSPost2010PropOp36
 70
     0
102
RTVSPost2010Prop37
 90
       50
102
RTVSPost2010PropOp37
 70
     0
102
RTVSPost2010Prop38
140
0.0
102
RTVSPost2010PropOp38
 70
     0
102
RTVSPost2010Prop39
140
1.0
102
RTVSPost2010PropOp39
 70
     0
102
RTVSPost2010Prop40
 90
        0
102
RTVSPost2010PropOp40
 70
     0
102
RTVSPost2010Prop41ColorIndex
 90
       18
102
RTVSPost2010Prop41ColorRGB
 90
        0
102
RTVSPost2010PropOp41
 70
     0
102
RTVSPost2010Prop42
 90
       50
102
RTVSPost2010PropOp42
 70
     0
102
RTVSPost2010Prop43
 90
        3
102
RTVSPost2010PropOp43
 70
     0
102
RTVSPost2010Prop44ColorIndex
 90
        5
102
RTVSPost2010Prop44ColorRGB
 90
      255
102
RTVSPost2010PropOp44
 70
     0
102
RTVSPost2010Prop45
280
     0
102
RTVSPost2010PropOp45
 70
     0
102
RTVSPost2010Prop46
 90
       50
102
RTVSPost2010PropOp46
 70
     0
102
RTVSPost2010Prop47
 90
       50
102
RTVSPost2010PropOp47
 70
     0
102
RTVSPost2010Prop48
 90
       50
102
RTVSPost2010PropOp48
 70
     0
102
RTVSPost2010Prop49
280
     0
102
RTVSPost2010PropOp49
 70
     0
102
RTVSPost2010Prop50
 90
       50
102
RTVSPost2010PropOp50
 70
     0
102
RTVSPost2010Prop51ColorIndex
 90
      256
102
RTVSPost2010Prop51ColorRGB
 90
-16777216
102
RTVSPost2010PropOp51
 70
     0
102
RTVSPost2010Prop52
140
1.0
102
RTVSPost2010PropOp52
 70
     0
102
RTVSPost2010Prop53
 90
        2
102
RTVSPost2010PropOp53
 70
     0
102
RTVSPost2010Prop54
  1
strokes_ogs.tif
102
RTVSPost2010PropOp54
 70
     0
102
RTVSPost2010Prop55
280
     0
102
RTVSPost2010PropOp55
 70
     0
102
RTVSPost2010Prop56
140
1.0
102
RTVSPost2010PropOp56
 70
     0
102
RTVSPost2010Prop57
140
1.0
102
RTVSPost2010PropOp57
 70
     0
  0
XRECORD
  5
4A4
102
{ACAD_REACTORS
330
4A3
102
}
330
4A3
100
AcDbXrecord
280
     1
102
RTVSPropertyOp0
 70
     1
102
RTVSPropertyOp1
 70
     1
102
RTVSPropertyOp2
 70
     1
102
RTVSPropertyOp3
 70
     1
102
RTVSPropertyOp4
 70
     1
102
RTVSPropertyOp5
 70
     1
102
RTVSPropertyOp6
 70
     1
102
RTVSPropertyOp7
 70
     1
102
RTVSPropertyOp8
 70
     1
102
RTVSPropertyOp9
 70
     1
102
RTVSPropertyOp10
 70
     1
102
RTVSPropertyOp11
 70
     1
102
RTVSPropertyOp12
 70
     1
102
RTVSPropertyOp13
 70
     1
102
RTVSPropertyOp14
 70
     1
102
RTVSPropertyOp15
 70
     1
102
RTVSPropertyOp16
 70
     1
102
RTVSPropertyOp17
 70
     1
102
RTVSPropertyOp18
 70
     1
102
RTVSPropertyOp19
 70
     1
102
RTVSPropertyOp20
 70
     1
102
RTVSPropertyOp21
 70
     1
102
RTVSPropertyOp22
 70
     1
102
RTVSPropertyOp23
 70
     1
102
RTVSPropertyOp24
 70
     1
102
RTVSPropertyOp25
 70
     1
102
RTVSPropertyOp26
 70
     1
102
RTVSPropertyOp27
 70
     1
102
RTVSPropertyOp28
 70
     1
102
RTVSPropertyOp29
 70
     1
102
RTVSPropertyOp30
 70
     1
102
RTVSPropertyOp31
 70
     1
102
RTVSPropertyOp32
 70
     1
102
RTVSPropertyOp33
 70
     1
102
RTVSPropertyOp34
 70
     1
102
RTVSPropertyOp35
 70
     1
102
RTVSPropertyOp36
 70
     1
102
RTVSPropertyOp37
 70
     1
102
RTVSPropertyOp38
 70
     1
102
RTVSPropertyOp39
 70
     1
102
RTVSPropertyOp40
 70
     1
102
RTVSPropertyOp41
 70
     1
102
RTVSPropertyOp42
 70
     1
102
RTVSPropertyOp43
 70
     1
102
RTVSPropertyOp44
 70
     1
102
RTVSPropertyOp45
 70
     1
102
RTVSPropertyOp46
 70
     1
102
RTVSPropertyOp47
 70
     1
102
RTVSPropertyOp48
 70
     1
102
RTVSPropertyOp49
 70
     1
102
RTVSPropertyOp50
 70
     1
102
RTVSPropertyOp51
 70
     0
102
RTVSPropertyOp52
 70
     0
102
RTVSPropertyOp53
 70
     1
102
RTVSPropertyOp54
 70
     1
102
RTVSPropertyOp55
 70
     1
102
RTVSPropertyOp56
 70
     1
102
RTVSPropertyOp57
 70
     1
102
RTVSPost2010Prop28
280
     0
102
RTVSPost2010PropOp28
 70
     1
102
RTVSPost2010Prop29
280
     1
102
RTVSPost2010PropOp29
 70
     1
102
RTVSPost2010Prop30
280
     1
102
RTVSPost2010PropOp30
 70
     1
102
RTVSPost2010Prop31
280
     0
102
RTVSPost2010PropOp31
 70
     1
102
RTVSPost2010Prop32
280
     0
102
RTVSPost2010PropOp32
 70
     1
102
RTVSPost2010Prop33
280
     0
102
RTVSPost2010PropOp33
 70
     1
102
RTVSPost2010Prop34
280
     0
102
RTVSPost2010PropOp34
 70
     1
102
RTVSPost2010Prop35
280
     0
102
RTVSPost2010PropOp35
 70
     1
102
RTVSPost2010Prop36
280
     0
102
RTVSPost2010PropOp36
 70
     1
102
RTVSPost2010Prop37
 90
       50
102
RTVSPost2010PropOp37
 70
     1
102
RTVSPost2010Prop38
140
0.0
102
RTVSPost2010PropOp38
 70
     1
102
RTVSPost2010Prop39
140
1.0
102
RTVSPost2010PropOp39
 70
     1
102
RTVSPost2010Prop40
 90
        0
102
RTVSPost2010PropOp40
 70
     1
102
RTVSPost2010Prop41ColorIndex
 90
       18
102
RTVSPost2010Prop41ColorRGB
 90
        0
102
RTVSPost2010PropOp41
 70
     1
102
RTVSPost2010Prop42
 90
       50
102
RTVSPost2010PropOp42
 70
     1
102
RTVSPost2010Prop43
 90
        3
102
RTVSPost2010PropOp43
 70
     1
102
RTVSPost2010Prop44ColorIndex
 90
        5
102
RTVSPost2010Prop44ColorRGB
 90
      255
102
RTVSPost2010PropOp44
 70
     1
102
RTVSPost2010Prop45
280
     0
102
RTVSPost2010PropOp45
 70
     1
102
RTVSPost2010Prop46
 90
       50
102
RTVSPost2010PropOp46
 70
     1
102
RTVSPost2010Prop47
 90
       50
102
RTVSPost2010PropOp47
 70
     1
102
RTVSPost2010Prop48
 90
       50
102
RTVSPost2010PropOp48
 70
     1
102
RTVSPost2010Prop49
280
     0
102
RTVSPost2010PropOp49
 70
     1
102
RTVSPost2010Prop50
 90
       50
102
RTVSPost2010PropOp50
 70
     1
102
RTVSPost2010Prop51ColorIndex
 90
      256
102
RTVSPost2010Prop51ColorRGB
 90
-16777216
102
RTVSPost2010PropOp51
 70
     0
102
RTVSPost2010Prop52
140
1.0
102
RTVSPost2010PropOp52
 70
     0
102
RTVSPost2010Prop53
 90
        2
102
RTVSPost2010PropOp53
 70
     1
102
RTVSPost2010Prop54
  1
strokes_ogs.tif
102
RTVSPost2010PropOp54
 70
     1
102
RTVSPost2010Prop55
280
     0
102
RTVSPost2010PropOp55
 70
     1
102
RTVSPost2010Prop56
140
1.0
102
RTVSPost2010PropOp56
 70
     1
102
RTVSPost2010Prop57
140
1.0
102
RTVSPost2010PropOp57
 70
     1
  0
XRECORD
  5
4C2
102
{ACAD_REACTORS
330
4C1
102
}
330
4C1
100
AcDbXrecord
280
     1
102
RTVSPropertyOp0
 70
     1
102
RTVSPropertyOp1
 70
     1
102
RTVSPropertyOp2
 70
     1
102
RTVSPropertyOp3
 70
     1
102
RTVSPropertyOp4
 70
     1
102
RTVSPropertyOp5
 70
     1
102
RTVSPropertyOp6
 70
     1
102
RTVSPropertyOp7
 70
     1
102
RTVSPropertyOp8
 70
     1
102
RTVSPropertyOp9
 70
     1
102
RTVSPropertyOp10
 70
     1
102
RTVSPropertyOp11
 70
     1
102
RTVSPropertyOp12
 70
     1
102
RTVSPropertyOp13
 70
     1
102
RTVSPropertyOp14
 70
     1
102
RTVSPropertyOp15
 70
     1
102
RTVSPropertyOp16
 70
     1
102
RTVSPropertyOp17
 70
     1
102
RTVSPropertyOp18
 70
     1
102
RTVSPropertyOp19
 70
     1
102
RTVSPropertyOp20
 70
     1
102
RTVSPropertyOp21
 70
     1
102
RTVSPropertyOp22
 70
     1
102
RTVSPropertyOp23
 70
     1
102
RTVSPropertyOp24
 70
     1
102
RTVSPropertyOp25
 70
     1
102
RTVSPropertyOp26
 70
     1
102
RTVSPropertyOp27
 70
     1
102
RTVSPropertyOp28
 70
     1
102
RTVSPropertyOp29
 70
     1
102
RTVSPropertyOp30
 70
     1
102
RTVSPropertyOp31
 70
     1
102
RTVSPropertyOp32
 70
     1
102
RTVSPropertyOp33
 70
     1
102
RTVSPropertyOp34
 70
     1
102
RTVSPropertyOp35
 70
     1
102
RTVSPropertyOp36
 70
     1
102
RTVSPropertyOp37
 70
     1
102
RTVSPropertyOp38
 70
     1
102
RTVSPropertyOp39
 70
     1
102
RTVSPropertyOp40
 70
     1
102
RTVSPropertyOp41
 70
     1
102
RTVSPropertyOp42
 70
     1
102
RTVSPropertyOp43
 70
     1
102
RTVSPropertyOp44
 70
     1
102
RTVSPropertyOp45
 70
     1
102
RTVSPropertyOp46
 70
     1
102
RTVSPropertyOp47
 70
     1
102
RTVSPropertyOp48
 70
     1
102
RTVSPropertyOp49
 70
     1
102
RTVSPropertyOp50
 70
     1
102
RTVSPropertyOp51
 70
     0
102
RTVSPropertyOp52
 70
     0
102
RTVSPropertyOp53
 70
     1
102
RTVSPropertyOp54
 70
     1
102
RTVSPropertyOp55
 70
     1
102
RTVSPropertyOp56
 70
     1
102
RTVSPropertyOp57
 70
     1
102
RTVSPost2010Prop28
280
     0
102
RTVSPost2010PropOp28
 70
     1
102
RTVSPost2010Prop29
280
     1
102
RTVSPost2010PropOp29
 70
     1
102
RTVSPost2010Prop30
280
     1
102
RTVSPost2010PropOp30
 70
     1
102
RTVSPost2010Prop31
280
     0
102
RTVSPost2010PropOp31
 70
     1
102
RTVSPost2010Prop32
280
     0
102
RTVSPost2010PropOp32
 70
     1
102
RTVSPost2010Prop33
280
     0
102
RTVSPost2010PropOp33
 70
     1
102
RTVSPost2010Prop34
280
     0
102
RTVSPost2010PropOp34
 70
     1
102
RTVSPost2010Prop35
280
     0
102
RTVSPost2010PropOp35
 70
     1
102
RTVSPost2010Prop36
280
     0
102
RTVSPost2010PropOp36
 70
     1
102
RTVSPost2010Prop37
 90
       50
102
RTVSPost2010PropOp37
 70
     1
102
RTVSPost2010Prop38
140
0.0
102
RTVSPost2010PropOp38
 70
     1
102
RTVSPost2010Prop39
140
1.0
102
RTVSPost2010PropOp39
 70
     1
102
RTVSPost2010Prop40
 90
        0
102
RTVSPost2010PropOp40
 70
     1
102
RTVSPost2010Prop41ColorIndex
 90
       18
102
RTVSPost2010Prop41ColorRGB
 90
        0
102
RTVSPost2010PropOp41
 70
     1
102
RTVSPost2010Prop42
 90
       50
102
RTVSPost2010PropOp42
 70
     1
102
RTVSPost2010Prop43
 90
        3
102
RTVSPost2010PropOp43
 70
     1
102
RTVSPost2010Prop44ColorIndex
 90
        5
102
RTVSPost2010Prop44ColorRGB
 90
      255
102
RTVSPost2010PropOp44
 70
     1
102
RTVSPost2010Prop45
280
     0
102
RTVSPost2010PropOp45
 70
     1
102
RTVSPost2010Prop46
 90
       50
102
RTVSPost2010PropOp46
 70
     1
102
RTVSPost2010Prop47
 90
       50
102
RTVSPost2010PropOp47
 70
     1
102
RTVSPost2010Prop48
 90
       50
102
RTVSPost2010PropOp48
 70
     1
102
RTVSPost2010Prop49
280
     0
102
RTVSPost2010PropOp49
 70
     1
102
RTVSPost2010Prop50
 90
       50
102
RTVSPost2010PropOp50
 70
     1
102
RTVSPost2010Prop51ColorIndex
 90
      256
102
RTVSPost2010Prop51ColorRGB
 90
-16777216
102
RTVSPost2010PropOp51
 70
     0
102
RTVSPost2010Prop52
140
1.0
102
RTVSPost2010PropOp52
 70
     0
102
RTVSPost2010Prop53
 90
        2
102
RTVSPost2010PropOp53
 70
     1
102
RTVSPost2010Prop54
  1
strokes_ogs.tif
102
RTVSPost2010PropOp54
 70
     1
102
RTVSPost2010Prop55
280
     0
102
RTVSPost2010PropOp55
 70
     1
102
RTVSPost2010Prop56
140
1.0
102
RTVSPost2010PropOp56
 70
     1
102
RTVSPost2010Prop57
140
1.0
102
RTVSPost2010PropOp57
 70
     1
  0
XRECORD
  5
4C0
102
{ACAD_REACTORS
330
4BF
102
}
330
4BF
100
AcDbXrecord
280
     1
102
RTVSPropertyOp0
 70
     1
102
RTVSPropertyOp1
 70
     1
102
RTVSPropertyOp2
 70
     1
102
RTVSPropertyOp3
 70
     1
102
RTVSPropertyOp4
 70
     1
102
RTVSPropertyOp5
 70
     1
102
RTVSPropertyOp6
 70
     1
102
RTVSPropertyOp7
 70
     1
102
RTVSPropertyOp8
 70
     1
102
RTVSPropertyOp9
 70
     1
102
RTVSPropertyOp10
 70
     1
102
RTVSPropertyOp11
 70
     1
102
RTVSPropertyOp12
 70
     1
102
RTVSPropertyOp13
 70
     1
102
RTVSPropertyOp14
 70
     1
102
RTVSPropertyOp15
 70
     1
102
RTVSPropertyOp16
 70
     1
102
RTVSPropertyOp17
 70
     1
102
RTVSPropertyOp18
 70
     1
102
RTVSPropertyOp19
 70
     1
102
RTVSPropertyOp20
 70
     1
102
RTVSPropertyOp21
 70
     1
102
RTVSPropertyOp22
 70
     1
102
RTVSPropertyOp23
 70
     1
102
RTVSPropertyOp24
 70
     1
102
RTVSPropertyOp25
 70
     1
102
RTVSPropertyOp26
 70
     1
102
RTVSPropertyOp27
 70
     1
102
RTVSPropertyOp28
 70
     1
102
RTVSPropertyOp29
 70
     1
102
RTVSPropertyOp30
 70
     1
102
RTVSPropertyOp31
 70
     1
102
RTVSPropertyOp32
 70
     1
102
RTVSPropertyOp33
 70
     1
102
RTVSPropertyOp34
 70
     1
102
RTVSPropertyOp35
 70
     1
102
RTVSPropertyOp36
 70
     1
102
RTVSPropertyOp37
 70
     1
102
RTVSPropertyOp38
 70
     1
102
RTVSPropertyOp39
 70
     1
102
RTVSPropertyOp40
 70
     1
102
RTVSPropertyOp41
 70
     1
102
RTVSPropertyOp42
 70
     1
102
RTVSPropertyOp43
 70
     1
102
RTVSPropertyOp44
 70
     1
102
RTVSPropertyOp45
 70
     1
102
RTVSPropertyOp46
 70
     1
102
RTVSPropertyOp47
 70
     1
102
RTVSPropertyOp48
 70
     1
102
RTVSPropertyOp49
 70
     1
102
RTVSPropertyOp50
 70
     1
102
RTVSPropertyOp51
 70
     0
102
RTVSPropertyOp52
 70
     0
102
RTVSPropertyOp53
 70
     1
102
RTVSPropertyOp54
 70
     1
102
RTVSPropertyOp55
 70
     1
102
RTVSPropertyOp56
 70
     1
102
RTVSPropertyOp57
 70
     1
102
RTVSPost2010Prop28
280
     0
102
RTVSPost2010PropOp28
 70
     1
102
RTVSPost2010Prop29
280
     1
102
RTVSPost2010PropOp29
 70
     1
102
RTVSPost2010Prop30
280
     1
102
RTVSPost2010PropOp30
 70
     1
102
RTVSPost2010Prop31
280
     0
102
RTVSPost2010PropOp31
 70
     1
102
RTVSPost2010Prop32
280
     0
102
RTVSPost2010PropOp32
 70
     1
102
RTVSPost2010Prop33
280
     0
102
RTVSPost2010PropOp33
 70
     1
102
RTVSPost2010Prop34
280
     0
102
RTVSPost2010PropOp34
 70
     1
102
RTVSPost2010Prop35
280
     0
102
RTVSPost2010PropOp35
 70
     1
102
RTVSPost2010Prop36
280
     0
102
RTVSPost2010PropOp36
 70
     1
102
RTVSPost2010Prop37
 90
       50
102
RTVSPost2010PropOp37
 70
     1
102
RTVSPost2010Prop38
140
0.0
102
RTVSPost2010PropOp38
 70
     1
102
RTVSPost2010Prop39
140
1.0
102
RTVSPost2010PropOp39
 70
     1
102
RTVSPost2010Prop40
 90
        0
102
RTVSPost2010PropOp40
 70
     1
102
RTVSPost2010Prop41ColorIndex
 90
       18
102
RTVSPost2010Prop41ColorRGB
 90
        0
102
RTVSPost2010PropOp41
 70
     1
102
RTVSPost2010Prop42
 90
       50
102
RTVSPost2010PropOp42
 70
     1
102
RTVSPost2010Prop43
 90
        3
102
RTVSPost2010PropOp43
 70
     1
102
RTVSPost2010Prop44ColorIndex
 90
        5
102
RTVSPost2010Prop44ColorRGB
 90
      255
102
RTVSPost2010PropOp44
 70
     1
102
RTVSPost2010Prop45
280
     0
102
RTVSPost2010PropOp45
 70
     1
102
RTVSPost2010Prop46
 90
       50
102
RTVSPost2010PropOp46
 70
     1
102
RTVSPost2010Prop47
 90
       50
102
RTVSPost2010PropOp47
 70
     1
102
RTVSPost2010Prop48
 90
       50
102
RTVSPost2010PropOp48
 70
     1
102
RTVSPost2010Prop49
280
     0
102
RTVSPost2010PropOp49
 70
     1
102
RTVSPost2010Prop50
 90
       50
102
RTVSPost2010PropOp50
 70
     1
102
RTVSPost2010Prop51ColorIndex
 90
      256
102
RTVSPost2010Prop51ColorRGB
 90
-16777216
102
RTVSPost2010PropOp51
 70
     0
102
RTVSPost2010Prop52
140
1.0
102
RTVSPost2010PropOp52
 70
     0
102
RTVSPost2010Prop53
 90
        2
102
RTVSPost2010PropOp53
 70
     1
102
RTVSPost2010Prop54
  1
strokes_ogs.tif
102
RTVSPost2010PropOp54
 70
     1
102
RTVSPost2010Prop55
280
     0
102
RTVSPost2010PropOp55
 70
     1
102
RTVSPost2010Prop56
140
1.0
102
RTVSPost2010PropOp56
 70
     1
102
RTVSPost2010Prop57
140
1.0
102
RTVSPost2010PropOp57
 70
     1
  0
XRECORD
  5
4BA
102
{ACAD_REACTORS
330
4B9
102
}
330
4B9
100
AcDbXrecord
280
     1
102
RTVSPropertyOp0
 70
     1
102
RTVSPropertyOp1
 70
     1
102
RTVSPropertyOp2
 70
     1
102
RTVSPropertyOp3
 70
     1
102
RTVSPropertyOp4
 70
     1
102
RTVSPropertyOp5
 70
     1
102
RTVSPropertyOp6
 70
     1
102
RTVSPropertyOp7
 70
     1
102
RTVSPropertyOp8
 70
     1
102
RTVSPropertyOp9
 70
     1
102
RTVSPropertyOp10
 70
     1
102
RTVSPropertyOp11
 70
     1
102
RTVSPropertyOp12
 70
     1
102
RTVSPropertyOp13
 70
     1
102
RTVSPropertyOp14
 70
     1
102
RTVSPropertyOp15
 70
     1
102
RTVSPropertyOp16
 70
     1
102
RTVSPropertyOp17
 70
     1
102
RTVSPropertyOp18
 70
     1
102
RTVSPropertyOp19
 70
     1
102
RTVSPropertyOp20
 70
     1
102
RTVSPropertyOp21
 70
     1
102
RTVSPropertyOp22
 70
     1
102
RTVSPropertyOp23
 70
     1
102
RTVSPropertyOp24
 70
     1
102
RTVSPropertyOp25
 70
     1
102
RTVSPropertyOp26
 70
     1
102
RTVSPropertyOp27
 70
     1
102
RTVSPropertyOp28
 70
     1
102
RTVSPropertyOp29
 70
     1
102
RTVSPropertyOp30
 70
     1
102
RTVSPropertyOp31
 70
     1
102
RTVSPropertyOp32
 70
     1
102
RTVSPropertyOp33
 70
     1
102
RTVSPropertyOp34
 70
     1
102
RTVSPropertyOp35
 70
     1
102
RTVSPropertyOp36
 70
     1
102
RTVSPropertyOp37
 70
     1
102
RTVSPropertyOp38
 70
     1
102
RTVSPropertyOp39
 70
     1
102
RTVSPropertyOp40
 70
     1
102
RTVSPropertyOp41
 70
     1
102
RTVSPropertyOp42
 70
     1
102
RTVSPropertyOp43
 70
     1
102
RTVSPropertyOp44
 70
     1
102
RTVSPropertyOp45
 70
     1
102
RTVSPropertyOp46
 70
     1
102
RTVSPropertyOp47
 70
     1
102
RTVSPropertyOp48
 70
     1
102
RTVSPropertyOp49
 70
     1
102
RTVSPropertyOp50
 70
     1
102
RTVSPropertyOp51
 70
     0
102
RTVSPropertyOp52
 70
     0
102
RTVSPropertyOp53
 70
     1
102
RTVSPropertyOp54
 70
     1
102
RTVSPropertyOp55
 70
     1
102
RTVSPropertyOp56
 70
     1
102
RTVSPropertyOp57
 70
     1
102
RTVSPost2010Prop28
280
     0
102
RTVSPost2010PropOp28
 70
     1
102
RTVSPost2010Prop29
280
     1
102
RTVSPost2010PropOp29
 70
     1
102
RTVSPost2010Prop30
280
     1
102
RTVSPost2010PropOp30
 70
     1
102
RTVSPost2010Prop31
280
     0
102
RTVSPost2010PropOp31
 70
     1
102
RTVSPost2010Prop32
280
     0
102
RTVSPost2010PropOp32
 70
     1
102
RTVSPost2010Prop33
280
     0
102
RTVSPost2010PropOp33
 70
     1
102
RTVSPost2010Prop34
280
     0
102
RTVSPost2010PropOp34
 70
     1
102
RTVSPost2010Prop35
280
     0
102
RTVSPost2010PropOp35
 70
     1
102
RTVSPost2010Prop36
280
     0
102
RTVSPost2010PropOp36
 70
     1
102
RTVSPost2010Prop37
 90
       50
102
RTVSPost2010PropOp37
 70
     1
102
RTVSPost2010Prop38
140
0.0
102
RTVSPost2010PropOp38
 70
     1
102
RTVSPost2010Prop39
140
1.0
102
RTVSPost2010PropOp39
 70
     1
102
RTVSPost2010Prop40
 90
        0
102
RTVSPost2010PropOp40
 70
     1
102
RTVSPost2010Prop41ColorIndex
 90
       18
102
RTVSPost2010Prop41ColorRGB
 90
        0
102
RTVSPost2010PropOp41
 70
     1
102
RTVSPost2010Prop42
 90
       50
102
RTVSPost2010PropOp42
 70
     1
102
RTVSPost2010Prop43
 90
        3
102
RTVSPost2010PropOp43
 70
     1
102
RTVSPost2010Prop44ColorIndex
 90
        5
102
RTVSPost2010Prop44ColorRGB
 90
      255
102
RTVSPost2010PropOp44
 70
     1
102
RTVSPost2010Prop45
280
     0
102
RTVSPost2010PropOp45
 70
     1
102
RTVSPost2010Prop46
 90
       50
102
RTVSPost2010PropOp46
 70
     1
102
RTVSPost2010Prop47
 90
       50
102
RTVSPost2010PropOp47
 70
     1
102
RTVSPost2010Prop48
 90
       50
102
RTVSPost2010PropOp48
 70
     1
102
RTVSPost2010Prop49
280
     0
102
RTVSPost2010PropOp49
 70
     1
102
RTVSPost2010Prop50
 90
       50
102
RTVSPost2010PropOp50
 70
     1
102
RTVSPost2010Prop51ColorIndex
 90
      256
102
RTVSPost2010Prop51ColorRGB
 90
-16777216
102
RTVSPost2010PropOp51
 70
     0
102
RTVSPost2010Prop52
140
1.0
102
RTVSPost2010PropOp52
 70
     0
102
RTVSPost2010Prop53
 90
        2
102
RTVSPost2010PropOp53
 70
     1
102
RTVSPost2010Prop54
  1
strokes_ogs.tif
102
RTVSPost2010PropOp54
 70
     1
102
RTVSPost2010Prop55
280
     0
102
RTVSPost2010PropOp55
 70
     1
102
RTVSPost2010Prop56
140
1.0
102
RTVSPost2010PropOp56
 70
     1
102
RTVSPost2010Prop57
140
1.0
102
RTVSPost2010PropOp57
 70
     1
  0
XRECORD
  5
4BC
102
{ACAD_REACTORS
330
4BB
102
}
330
4BB
100
AcDbXrecord
280
     1
102
RTVSPropertyOp0
 70
     1
102
RTVSPropertyOp1
 70
     1
102
RTVSPropertyOp2
 70
     1
102
RTVSPropertyOp3
 70
     1
102
RTVSPropertyOp4
 70
     1
102
RTVSPropertyOp5
 70
     1
102
RTVSPropertyOp6
 70
     1
102
RTVSPropertyOp7
 70
     1
102
RTVSPropertyOp8
 70
     1
102
RTVSPropertyOp9
 70
     1
102
RTVSPropertyOp10
 70
     1
102
RTVSPropertyOp11
 70
     1
102
RTVSPropertyOp12
 70
     1
102
RTVSPropertyOp13
 70
     1
102
RTVSPropertyOp14
 70
     1
102
RTVSPropertyOp15
 70
     1
102
RTVSPropertyOp16
 70
     1
102
RTVSPropertyOp17
 70
     1
102
RTVSPropertyOp18
 70
     1
102
RTVSPropertyOp19
 70
     1
102
RTVSPropertyOp20
 70
     1
102
RTVSPropertyOp21
 70
     1
102
RTVSPropertyOp22
 70
     1
102
RTVSPropertyOp23
 70
     1
102
RTVSPropertyOp24
 70
     1
102
RTVSPropertyOp25
 70
     1
102
RTVSPropertyOp26
 70
     1
102
RTVSPropertyOp27
 70
     1
102
RTVSPropertyOp28
 70
     1
102
RTVSPropertyOp29
 70
     1
102
RTVSPropertyOp30
 70
     1
102
RTVSPropertyOp31
 70
     1
102
RTVSPropertyOp32
 70
     1
102
RTVSPropertyOp33
 70
     1
102
RTVSPropertyOp34
 70
     1
102
RTVSPropertyOp35
 70
     1
102
RTVSPropertyOp36
 70
     1
102
RTVSPropertyOp37
 70
     1
102
RTVSPropertyOp38
 70
     1
102
RTVSPropertyOp39
 70
     1
102
RTVSPropertyOp40
 70
     1
102
RTVSPropertyOp41
 70
     1
102
RTVSPropertyOp42
 70
     1
102
RTVSPropertyOp43
 70
     1
102
RTVSPropertyOp44
 70
     1
102
RTVSPropertyOp45
 70
     1
102
RTVSPropertyOp46
 70
     1
102
RTVSPropertyOp47
 70
     1
102
RTVSPropertyOp48
 70
     1
102
RTVSPropertyOp49
 70
     1
102
RTVSPropertyOp50
 70
     1
102
RTVSPropertyOp51
 70
     0
102
RTVSPropertyOp52
 70
     0
102
RTVSPropertyOp53
 70
     1
102
RTVSPropertyOp54
 70
     1
102
RTVSPropertyOp55
 70
     1
102
RTVSPropertyOp56
 70
     1
102
RTVSPropertyOp57
 70
     1
102
RTVSPost2010Prop28
280
     0
102
RTVSPost2010PropOp28
 70
     1
102
RTVSPost2010Prop29
280
     1
102
RTVSPost2010PropOp29
 70
     1
102
RTVSPost2010Prop30
280
     1
102
RTVSPost2010PropOp30
 70
     1
102
RTVSPost2010Prop31
280
     0
102
RTVSPost2010PropOp31
 70
     1
102
RTVSPost2010Prop32
280
     0
102
RTVSPost2010PropOp32
 70
     1
102
RTVSPost2010Prop33
280
     0
102
RTVSPost2010PropOp33
 70
     1
102
RTVSPost2010Prop34
280
     0
102
RTVSPost2010PropOp34
 70
     1
102
RTVSPost2010Prop35
280
     0
102
RTVSPost2010PropOp35
 70
     1
102
RTVSPost2010Prop36
280
     0
102
RTVSPost2010PropOp36
 70
     1
102
RTVSPost2010Prop37
 90
       50
102
RTVSPost2010PropOp37
 70
     1
102
RTVSPost2010Prop38
140
0.0
102
RTVSPost2010PropOp38
 70
     1
102
RTVSPost2010Prop39
140
1.0
102
RTVSPost2010PropOp39
 70
     1
102
RTVSPost2010Prop40
 90
        0
102
RTVSPost2010PropOp40
 70
     1
102
RTVSPost2010Prop41ColorIndex
 90
       18
102
RTVSPost2010Prop41ColorRGB
 90
        0
102
RTVSPost2010PropOp41
 70
     1
102
RTVSPost2010Prop42
 90
       50
102
RTVSPost2010PropOp42
 70
     1
102
RTVSPost2010Prop43
 90
        3
102
RTVSPost2010PropOp43
 70
     1
102
RTVSPost2010Prop44ColorIndex
 90
        5
102
RTVSPost2010Prop44ColorRGB
 90
      255
102
RTVSPost2010PropOp44
 70
     1
102
RTVSPost2010Prop45
280
     0
102
RTVSPost2010PropOp45
 70
     1
102
RTVSPost2010Prop46
 90
       50
102
RTVSPost2010PropOp46
 70
     1
102
RTVSPost2010Prop47
 90
       50
102
RTVSPost2010PropOp47
 70
     1
102
RTVSPost2010Prop48
 90
       50
102
RTVSPost2010PropOp48
 70
     1
102
RTVSPost2010Prop49
280
     0
102
RTVSPost2010PropOp49
 70
     1
102
RTVSPost2010Prop50
 90
       50
102
RTVSPost2010PropOp50
 70
     1
102
RTVSPost2010Prop51ColorIndex
 90
      256
102
RTVSPost2010Prop51ColorRGB
 90
-16777216
102
RTVSPost2010PropOp51
 70
     0
102
RTVSPost2010Prop52
140
1.0
102
RTVSPost2010PropOp52
 70
     0
102
RTVSPost2010Prop53
 90
        2
102
RTVSPost2010PropOp53
 70
     1
102
RTVSPost2010Prop54
  1
strokes_ogs.tif
102
RTVSPost2010PropOp54
 70
     1
102
RTVSPost2010Prop55
280
     0
102
RTVSPost2010PropOp55
 70
     1
102
RTVSPost2010Prop56
140
1.0
102
RTVSPost2010PropOp56
 70
     1
102
RTVSPost2010Prop57
140
1.0
102
RTVSPost2010PropOp57
 70
     1
  0
XRECORD
  5
4AC
102
{ACAD_REACTORS
330
4AB
102
}
330
4AB
100
AcDbXrecord
280
     1
102
RTVSPropertyOp0
 70
     1
102
RTVSPropertyOp1
 70
     1
102
RTVSPropertyOp2
 70
     1
102
RTVSPropertyOp3
 70
     1
102
RTVSPropertyOp4
 70
     1
102
RTVSPropertyOp5
 70
     1
102
RTVSPropertyOp6
 70
     1
102
RTVSPropertyOp7
 70
     1
102
RTVSPropertyOp8
 70
     1
102
RTVSPropertyOp9
 70
     1
102
RTVSPropertyOp10
 70
     1
102
RTVSPropertyOp11
 70
     1
102
RTVSPropertyOp12
 70
     1
102
RTVSPropertyOp13
 70
     1
102
RTVSPropertyOp14
 70
     1
102
RTVSPropertyOp15
 70
     1
102
RTVSPropertyOp16
 70
     1
102
RTVSPropertyOp17
 70
     1
102
RTVSPropertyOp18
 70
     1
102
RTVSPropertyOp19
 70
     1
102
RTVSPropertyOp20
 70
     1
102
RTVSPropertyOp21
 70
     1
102
RTVSPropertyOp22
 70
     1
102
RTVSPropertyOp23
 70
     1
102
RTVSPropertyOp24
 70
     1
102
RTVSPropertyOp25
 70
     1
102
RTVSPropertyOp26
 70
     1
102
RTVSPropertyOp27
 70
     1
102
RTVSPropertyOp28
 70
     1
102
RTVSPropertyOp29
 70
     1
102
RTVSPropertyOp30
 70
     1
102
RTVSPropertyOp31
 70
     1
102
RTVSPropertyOp32
 70
     1
102
RTVSPropertyOp33
 70
     1
102
RTVSPropertyOp34
 70
     1
102
RTVSPropertyOp35
 70
     1
102
RTVSPropertyOp36
 70
     1
102
RTVSPropertyOp37
 70
     1
102
RTVSPropertyOp38
 70
     1
102
RTVSPropertyOp39
 70
     1
102
RTVSPropertyOp40
 70
     1
102
RTVSPropertyOp41
 70
     1
102
RTVSPropertyOp42
 70
     1
102
RTVSPropertyOp43
 70
     1
102
RTVSPropertyOp44
 70
     1
102
RTVSPropertyOp45
 70
     1
102
RTVSPropertyOp46
 70
     1
102
RTVSPropertyOp47
 70
     1
102
RTVSPropertyOp48
 70
     1
102
RTVSPropertyOp49
 70
     1
102
RTVSPropertyOp50
 70
     1
102
RTVSPropertyOp51
 70
     0
102
RTVSPropertyOp52
 70
     0
102
RTVSPropertyOp53
 70
     1
102
RTVSPropertyOp54
 70
     1
102
RTVSPropertyOp55
 70
     1
102
RTVSPropertyOp56
 70
     1
102
RTVSPropertyOp57
 70
     1
102
RTVSPost2010Prop28
280
     0
102
RTVSPost2010PropOp28
 70
     1
102
RTVSPost2010Prop29
280
     1
102
RTVSPost2010PropOp29
 70
     1
102
RTVSPost2010Prop30
280
     1
102
RTVSPost2010PropOp30
 70
     1
102
RTVSPost2010Prop31
280
     0
102
RTVSPost2010PropOp31
 70
     1
102
RTVSPost2010Prop32
280
     0
102
RTVSPost2010PropOp32
 70
     1
102
RTVSPost2010Prop33
280
     0
102
RTVSPost2010PropOp33
 70
     1
102
RTVSPost2010Prop34
280
     0
102
RTVSPost2010PropOp34
 70
     1
102
RTVSPost2010Prop35
280
     0
102
RTVSPost2010PropOp35
 70
     1
102
RTVSPost2010Prop36
280
     0
102
RTVSPost2010PropOp36
 70
     1
102
RTVSPost2010Prop37
 90
       50
102
RTVSPost2010PropOp37
 70
     1
102
RTVSPost2010Prop38
140
0.0
102
RTVSPost2010PropOp38
 70
     1
102
RTVSPost2010Prop39
140
1.0
102
RTVSPost2010PropOp39
 70
     1
102
RTVSPost2010Prop40
 90
        0
102
RTVSPost2010PropOp40
 70
     1
102
RTVSPost2010Prop41ColorIndex
 90
       18
102
RTVSPost2010Prop41ColorRGB
 90
        0
102
RTVSPost2010PropOp41
 70
     1
102
RTVSPost2010Prop42
 90
       50
102
RTVSPost2010PropOp42
 70
     1
102
RTVSPost2010Prop43
 90
        3
102
RTVSPost2010PropOp43
 70
     1
102
RTVSPost2010Prop44ColorIndex
 90
        5
102
RTVSPost2010Prop44ColorRGB
 90
      255
102
RTVSPost2010PropOp44
 70
     1
102
RTVSPost2010Prop45
280
     0
102
RTVSPost2010PropOp45
 70
     1
102
RTVSPost2010Prop46
 90
       50
102
RTVSPost2010PropOp46
 70
     1
102
RTVSPost2010Prop47
 90
       50
102
RTVSPost2010PropOp47
 70
     1
102
RTVSPost2010Prop48
 90
       50
102
RTVSPost2010PropOp48
 70
     1
102
RTVSPost2010Prop49
280
     0
102
RTVSPost2010PropOp49
 70
     1
102
RTVSPost2010Prop50
 90
       50
102
RTVSPost2010PropOp50
 70
     1
102
RTVSPost2010Prop51ColorIndex
 90
      256
102
RTVSPost2010Prop51ColorRGB
 90
-16777216
102
RTVSPost2010PropOp51
 70
     0
102
RTVSPost2010Prop52
140
1.0
102
RTVSPost2010PropOp52
 70
     0
102
RTVSPost2010Prop53
 90
        2
102
RTVSPost2010PropOp53
 70
     1
102
RTVSPost2010Prop54
  1
strokes_ogs.tif
102
RTVSPost2010PropOp54
 70
     1
102
RTVSPost2010Prop55
280
     0
102
RTVSPost2010PropOp55
 70
     1
102
RTVSPost2010Prop56
140
1.0
102
RTVSPost2010PropOp56
 70
     1
102
RTVSPost2010Prop57
140
1.0
102
RTVSPost2010PropOp57
 70
     1
  0
XRECORD
  5
49E
102
{ACAD_REACTORS
330
49D
102
}
330
49D
100
AcDbXrecord
280
     1
102
RTVSPropertyOp0
 70
     1
102
RTVSPropertyOp1
 70
     1
102
RTVSPropertyOp2
 70
     1
102
RTVSPropertyOp3
 70
     1
102
RTVSPropertyOp4
 70
     1
102
RTVSPropertyOp5
 70
     1
102
RTVSPropertyOp6
 70
     1
102
RTVSPropertyOp7
 70
     1
102
RTVSPropertyOp8
 70
     1
102
RTVSPropertyOp9
 70
     1
102
RTVSPropertyOp10
 70
     1
102
RTVSPropertyOp11
 70
     1
102
RTVSPropertyOp12
 70
     1
102
RTVSPropertyOp13
 70
     1
102
RTVSPropertyOp14
 70
     1
102
RTVSPropertyOp15
 70
     1
102
RTVSPropertyOp16
 70
     1
102
RTVSPropertyOp17
 70
     1
102
RTVSPropertyOp18
 70
     1
102
RTVSPropertyOp19
 70
     1
102
RTVSPropertyOp20
 70
     1
102
RTVSPropertyOp21
 70
     1
102
RTVSPropertyOp22
 70
     1
102
RTVSPropertyOp23
 70
     1
102
RTVSPropertyOp24
 70
     1
102
RTVSPropertyOp25
 70
     1
102
RTVSPropertyOp26
 70
     1
102
RTVSPropertyOp27
 70
     1
102
RTVSPropertyOp28
 70
     1
102
RTVSPropertyOp29
 70
     1
102
RTVSPropertyOp30
 70
     1
102
RTVSPropertyOp31
 70
     1
102
RTVSPropertyOp32
 70
     1
102
RTVSPropertyOp33
 70
     1
102
RTVSPropertyOp34
 70
     1
102
RTVSPropertyOp35
 70
     1
102
RTVSPropertyOp36
 70
     1
102
RTVSPropertyOp37
 70
     1
102
RTVSPropertyOp38
 70
     1
102
RTVSPropertyOp39
 70
     1
102
RTVSPropertyOp40
 70
     1
102
RTVSPropertyOp41
 70
     1
102
RTVSPropertyOp42
 70
     1
102
RTVSPropertyOp43
 70
     1
102
RTVSPropertyOp44
 70
     1
102
RTVSPropertyOp45
 70
     1
102
RTVSPropertyOp46
 70
     1
102
RTVSPropertyOp47
 70
     1
102
RTVSPropertyOp48
 70
     1
102
RTVSPropertyOp49
 70
     1
102
RTVSPropertyOp50
 70
     1
102
RTVSPropertyOp51
 70
     0
102
RTVSPropertyOp52
 70
     0
102
RTVSPropertyOp53
 70
     1
102
RTVSPropertyOp54
 70
     1
102
RTVSPropertyOp55
 70
     1
102
RTVSPropertyOp56
 70
     1
102
RTVSPropertyOp57
 70
     1
102
RTVSPost2010Prop28
280
     0
102
RTVSPost2010PropOp28
 70
     1
102
RTVSPost2010Prop29
280
     1
102
RTVSPost2010PropOp29
 70
     1
102
RTVSPost2010Prop30
280
     1
102
RTVSPost2010PropOp30
 70
     1
102
RTVSPost2010Prop31
280
     0
102
RTVSPost2010PropOp31
 70
     1
102
RTVSPost2010Prop32
280
     0
102
RTVSPost2010PropOp32
 70
     1
102
RTVSPost2010Prop33
280
     0
102
RTVSPost2010PropOp33
 70
     1
102
RTVSPost2010Prop34
280
     0
102
RTVSPost2010PropOp34
 70
     1
102
RTVSPost2010Prop35
280
     0
102
RTVSPost2010PropOp35
 70
     1
102
RTVSPost2010Prop36
280
     0
102
RTVSPost2010PropOp36
 70
     1
102
RTVSPost2010Prop37
 90
       50
102
RTVSPost2010PropOp37
 70
     1
102
RTVSPost2010Prop38
140
0.0
102
RTVSPost2010PropOp38
 70
     1
102
RTVSPost2010Prop39
140
1.0
102
RTVSPost2010PropOp39
 70
     1
102
RTVSPost2010Prop40
 90
        0
102
RTVSPost2010PropOp40
 70
     1
102
RTVSPost2010Prop41ColorIndex
 90
       18
102
RTVSPost2010Prop41ColorRGB
 90
        0
102
RTVSPost2010PropOp41
 70
     1
102
RTVSPost2010Prop42
 90
       50
102
RTVSPost2010PropOp42
 70
     1
102
RTVSPost2010Prop43
 90
        3
102
RTVSPost2010PropOp43
 70
     1
102
RTVSPost2010Prop44ColorIndex
 90
        5
102
RTVSPost2010Prop44ColorRGB
 90
      255
102
RTVSPost2010PropOp44
 70
     1
102
RTVSPost2010Prop45
280
     0
102
RTVSPost2010PropOp45
 70
     1
102
RTVSPost2010Prop46
 90
       50
102
RTVSPost2010PropOp46
 70
     1
102
RTVSPost2010Prop47
 90
       50
102
RTVSPost2010PropOp47
 70
     1
102
RTVSPost2010Prop48
 90
       50
102
RTVSPost2010PropOp48
 70
     1
102
RTVSPost2010Prop49
280
     0
102
RTVSPost2010PropOp49
 70
     1
102
RTVSPost2010Prop50
 90
       50
102
RTVSPost2010PropOp50
 70
     1
102
RTVSPost2010Prop51ColorIndex
 90
      256
102
RTVSPost2010Prop51ColorRGB
 90
-16777216
102
RTVSPost2010PropOp51
 70
     0
102
RTVSPost2010Prop52
140
1.0
102
RTVSPost2010PropOp52
 70
     0
102
RTVSPost2010Prop53
 90
        2
102
RTVSPost2010PropOp53
 70
     1
102
RTVSPost2010Prop54
  1
strokes_ogs.tif
102
RTVSPost2010PropOp54
 70
     1
102
RTVSPost2010Prop55
280
     0
102
RTVSPost2010PropOp55
 70
     1
102
RTVSPost2010Prop56
140
1.0
102
RTVSPost2010PropOp56
 70
     1
102
RTVSPost2010Prop57
140
1.0
102
RTVSPost2010PropOp57
 70
     1
  0
XRECORD
  5
4BE
102
{ACAD_REACTORS
330
4BD
102
}
330
4BD
100
AcDbXrecord
280
     1
102
RTVSPropertyOp0
 70
     1
102
RTVSPropertyOp1
 70
     1
102
RTVSPropertyOp2
 70
     1
102
RTVSPropertyOp3
 70
     1
102
RTVSPropertyOp4
 70
     1
102
RTVSPropertyOp5
 70
     1
102
RTVSPropertyOp6
 70
     1
102
RTVSPropertyOp7
 70
     1
102
RTVSPropertyOp8
 70
     1
102
RTVSPropertyOp9
 70
     1
102
RTVSPropertyOp10
 70
     1
102
RTVSPropertyOp11
 70
     1
102
RTVSPropertyOp12
 70
     1
102
RTVSPropertyOp13
 70
     1
102
RTVSPropertyOp14
 70
     1
102
RTVSPropertyOp15
 70
     1
102
RTVSPropertyOp16
 70
     1
102
RTVSPropertyOp17
 70
     1
102
RTVSPropertyOp18
 70
     1
102
RTVSPropertyOp19
 70
     1
102
RTVSPropertyOp20
 70
     1
102
RTVSPropertyOp21
 70
     1
102
RTVSPropertyOp22
 70
     1
102
RTVSPropertyOp23
 70
     1
102
RTVSPropertyOp24
 70
     1
102
RTVSPropertyOp25
 70
     1
102
RTVSPropertyOp26
 70
     1
102
RTVSPropertyOp27
 70
     1
102
RTVSPropertyOp28
 70
     1
102
RTVSPropertyOp29
 70
     1
102
RTVSPropertyOp30
 70
     1
102
RTVSPropertyOp31
 70
     1
102
RTVSPropertyOp32
 70
     1
102
RTVSPropertyOp33
 70
     1
102
RTVSPropertyOp34
 70
     1
102
RTVSPropertyOp35
 70
     1
102
RTVSPropertyOp36
 70
     1
102
RTVSPropertyOp37
 70
     1
102
RTVSPropertyOp38
 70
     1
102
RTVSPropertyOp39
 70
     1
102
RTVSPropertyOp40
 70
     1
102
RTVSPropertyOp41
 70
     1
102
RTVSPropertyOp42
 70
     1
102
RTVSPropertyOp43
 70
     1
102
RTVSPropertyOp44
 70
     1
102
RTVSPropertyOp45
 70
     1
102
RTVSPropertyOp46
 70
     1
102
RTVSPropertyOp47
 70
     1
102
RTVSPropertyOp48
 70
     1
102
RTVSPropertyOp49
 70
     1
102
RTVSPropertyOp50
 70
     1
102
RTVSPropertyOp51
 70
     0
102
RTVSPropertyOp52
 70
     0
102
RTVSPropertyOp53
 70
     1
102
RTVSPropertyOp54
 70
     1
102
RTVSPropertyOp55
 70
     1
102
RTVSPropertyOp56
 70
     1
102
RTVSPropertyOp57
 70
     1
102
RTVSPost2010Prop28
280
     0
102
RTVSPost2010PropOp28
 70
     1
102
RTVSPost2010Prop29
280
     1
102
RTVSPost2010PropOp29
 70
     1
102
RTVSPost2010Prop30
280
     1
102
RTVSPost2010PropOp30
 70
     1
102
RTVSPost2010Prop31
280
     0
102
RTVSPost2010PropOp31
 70
     1
102
RTVSPost2010Prop32
280
     0
102
RTVSPost2010PropOp32
 70
     1
102
RTVSPost2010Prop33
280
     0
102
RTVSPost2010PropOp33
 70
     1
102
RTVSPost2010Prop34
280
     0
102
RTVSPost2010PropOp34
 70
     1
102
RTVSPost2010Prop35
280
     0
102
RTVSPost2010PropOp35
 70
     1
102
RTVSPost2010Prop36
280
     0
102
RTVSPost2010PropOp36
 70
     1
102
RTVSPost2010Prop37
 90
       50
102
RTVSPost2010PropOp37
 70
     1
102
RTVSPost2010Prop38
140
0.0
102
RTVSPost2010PropOp38
 70
     1
102
RTVSPost2010Prop39
140
1.0
102
RTVSPost2010PropOp39
 70
     1
102
RTVSPost2010Prop40
 90
        0
102
RTVSPost2010PropOp40
 70
     1
102
RTVSPost2010Prop41ColorIndex
 90
       18
102
RTVSPost2010Prop41ColorRGB
 90
        0
102
RTVSPost2010PropOp41
 70
     1
102
RTVSPost2010Prop42
 90
       50
102
RTVSPost2010PropOp42
 70
     1
102
RTVSPost2010Prop43
 90
        3
102
RTVSPost2010PropOp43
 70
     1
102
RTVSPost2010Prop44ColorIndex
 90
        5
102
RTVSPost2010Prop44ColorRGB
 90
      255
102
RTVSPost2010PropOp44
 70
     1
102
RTVSPost2010Prop45
280
     0
102
RTVSPost2010PropOp45
 70
     1
102
RTVSPost2010Prop46
 90
       50
102
RTVSPost2010PropOp46
 70
     1
102
RTVSPost2010Prop47
 90
       50
102
RTVSPost2010PropOp47
 70
     1
102
RTVSPost2010Prop48
 90
       50
102
RTVSPost2010PropOp48
 70
     1
102
RTVSPost2010Prop49
280
     0
102
RTVSPost2010PropOp49
 70
     1
102
RTVSPost2010Prop50
 90
       50
102
RTVSPost2010PropOp50
 70
     1
102
RTVSPost2010Prop51ColorIndex
 90
      256
102
RTVSPost2010Prop51ColorRGB
 90
-16777216
102
RTVSPost2010PropOp51
 70
     0
102
RTVSPost2010Prop52
140
1.0
102
RTVSPost2010PropOp52
 70
     0
102
RTVSPost2010Prop53
 90
        2
102
RTVSPost2010PropOp53
 70
     1
102
RTVSPost2010Prop54
  1
strokes_ogs.tif
102
RTVSPost2010PropOp54
 70
     1
102
RTVSPost2010Prop55
280
     0
102
RTVSPost2010PropOp55
 70
     1
102
RTVSPost2010Prop56
140
1.0
102
RTVSPost2010PropOp56
 70
     1
102
RTVSPost2010Prop57
140
1.0
102
RTVSPost2010PropOp57
 70
     1
  0
ENDSEC
  0
EOF
