  0
SECTION
  2
HEADER
  9
$ACADVER
  1
AC1014
  9
$HANDSEED
  5
FFFF
  9
$MEASUREMENT
 70
     1
  0
ENDSEC
  0
SECTION
  2
TABLES
  0
TABLE
  2
VPORT
  5
8
330
0
100
AcDbSymbolTable
 70
     4
  0
VPORT
  5
2E
330
8
100
AcDbSymbolTableRecord
100
AcDbViewportTableRecord
  2
*ACTIVE
 70
     0
 10
0.0
 20
0.0
 11
1.0
 21
1.0
 12
210.0
 22
148.5
 13
0.0
 23
0.0
 14
10.0
 24
10.0
 15
10.0
 25
10.0
 16
0.0
 26
0.0
 36
1.0
 17
0.0
 27
0.0
 37
0.0
 40
341.0
 41
1.24
 42
50.0
 43
0.0
 44
0.0
 50
0.0
 51
0.0
 71
     0
 72
   100
 73
     1
 74
     3
 75
     0
 76
     0
 77
     0
 78
     0
  0
ENDTAB
  0
TABLE
  2
LTYPE
  5
5
330
0
100
AcDbSymbolTable
 70
     1
  0
LTYPE
  5
14
330
5
100
AcDbSymbolTableRecord
100
AcDbLinetypeTableRecord
  2
BYBLOCK
 70
     0
  3

 72
    65
 73
     0
 40
0.0
  0
LTYPE
  5
15
330
5
100
AcDbSymbolTableRecord
100
AcDbLinetypeTableRecord
  2
BYLAYER
 70
     0
  3

 72
    65
 73
     0
 40
0.0
  0
LTYPE
  5
16
330
5
100
AcDbSymbolTableRecord
100
AcDbLinetypeTableRecord
  2
CONTINUOUS
 70
     0
  3
Solid line
 72
    65
 73
     0
 40
0.0
  0
ENDTAB
  0
TABLE
  2
LAYER
  5
2
100
AcDbSymbolTable
 70
2
  0
LAYER
  5
50
100
AcDbSymbolTableRecord
100
AcDbLayerTableRecord
  2
0
 70
0
  6
CONTINUOUS
  0
LAYER
  5
51
100
AcDbSymbolTableRecord
100
AcDbLayerTableRecord
  2
ribs
 70
0
  6
CONTINUOUS
  0
ENDTAB
  0
TABLE
  2
STYLE
  5
3
330
0
100
AcDbSymbolTable
 70
     1
  0
STYLE
  5
11
330
3
100
AcDbSymbolTableRecord
100
AcDbTextStyleTableRecord
  2
STANDARD
 70
     0
 40
0.0
 41
1.0
 50
0.0
 71
     0
 42
2.5
  3
txt
  4

  0
ENDTAB
  0
TABLE
  2
VIEW
  5
6
330
0
100
AcDbSymbolTable
 70
     0
  0
ENDTAB
  0
TABLE
  2
UCS
  5
7
330
0
100
AcDbSymbolTable
 70
     0
  0
ENDTAB
  0
TABLE
  2
APPID
  5
9
330
0
100
AcDbSymbolTable
 70
     2
  0
APPID
  5
12
330
9
100
AcDbSymbolTableRecord
100
AcDbRegAppTableRecord
  2
ACAD
 70
     0
  0
ENDTAB
  0
TABLE
  2
DIMSTYLE
  5
A
330
0
100
AcDbSymbolTable
 70
     1
  0
DIMSTYLE
105
27
330
A
100
AcDbSymbolTableRecord
100
AcDbDimStyleTableRecord
  2
ISO-25
 70
     0
  3

  4

  5

  6

  7

 40
1.0
 41
2.5
 42
0.625
 43
3.75
 44
1.25
 45
0.0
 46
0.0
 47
0.0
 48
0.0
140
2.5
141
2.5
142
0.0
143
0.03937007874016
144
1.0
145
0.0
146
1.0
147
0.625
 71
     0
 72
     0
 73
     0
 74
     0
 75
     0
 76
     0
 77
     1
 78
     8
170
     0
171
     3
172
     1
173
     0
174
     0
175
     0
176
     0
177
     0
178
     0
270
     2
271
     2
272
     2
273
     2
274
     3
340
11
275
     0
280
     0
281
     0
282
     0
283
     0
284
     8
285
     0
286
     0
287
     3
288
     0
  0
ENDTAB
  0
TABLE
  2
BLOCK_RECORD
  5
1
330
0
100
AcDbSymbolTable
 70
     1
  0
BLOCK_RECORD
  5
1F
330
1
100
AcDbSymbolTableRecord
100
AcDbBlockTableRecord
  2
*MODEL_SPACE
  0
BLOCK_RECORD
  5
1B
330
1
100
AcDbSymbolTableRecord
100
AcDbBlockTableRecord
  2
*PAPER_SPACE
  0
ENDTAB
  0
ENDSEC
  0
SECTION
  2
BLOCKS
  0
BLOCK
  5
20
330
1F
100
AcDbEntity
  8
0
100
AcDbBlockBegin
  2
*MODEL_SPACE
 70
     0
 10
0.0
 20
0.0
 30
0.0
  3
*MODEL_SPACE
  1

  0
ENDBLK
  5
21
330
1F
100
AcDbEntity
  8
0
100
AcDbBlockEnd
  0
BLOCK
  5
1C
330
1B
100
AcDbEntity
 67
     1
  8
0
100
AcDbBlockBegin
  2
*PAPER_SPACE
  1

  0
ENDBLK
  5
1D
330
1B
100
AcDbEntity
 67
     1
  8
0
100
AcDbBlockEnd
  0
ENDSEC
  0
SECTION
  2
ENTITIES
  0
LWPOLYLINE
  5
100
100
AcDbEntity
  8
ribs
 62
7
100
AcDbPolyline
 90
2
 70
0
 10
284.890940
 20
132.373202
 30
0.0
 10
279.250940
 20
132.373202
 30
0.0
  0
LWPOLYLINE
  5
101
100
AcDbEntity
  8
ribs
 62
7
100
AcDbPolyline
 90
2
 70
0
 10
284.890940
 20
699.253202
 30
0.0
 10
279.250940
 20
699.253202
 30
0.0
  0
LWPOLYLINE
  5
102
100
AcDbEntity
  8
ribs
 62
7
100
AcDbPolyline
 90
2
 70
0
 10
137.410940
 20
444.013202
 30
0.0
 10
137.410940
 20
444.133202
 30
0.0
  0
LWPOLYLINE
  5
103
100
AcDbEntity
  8
ribs
 62
7
100
AcDbPolyline
 90
2
 70
0
 10
137.410940
 20
387.493202
 30
0.0
 10
137.410940
 20
387.613202
 30
0.0
  0
LWPOLYLINE
  5
104
100
AcDbEntity
  8
ribs
 62
7
100
AcDbPolyline
 90
2
 70
0
 10
265.570940
 20
699.253202
 30
0.0
 10
265.570940
 20
699.253202
 30
0.0
  0
LWPOLYLINE
  5
105
100
AcDbEntity
  8
ribs
 62
7
100
AcDbPolyline
 90
2
 70
0
 10
265.570940
 20
132.373202
 30
0.0
 10
265.570940
 20
132.373202
 30
0.0
  0
LWPOLYLINE
  5
106
100
AcDbEntity
  8
ribs
 62
7
100
AcDbPolyline
 90
2
 70
0
 10
309.850940
 20
728.413202
 30
0.0
 10
309.850940
 20
728.413202
 30
0.0
  0
LWPOLYLINE
  5
107
100
AcDbEntity
  8
ribs
 62
7
100
AcDbPolyline
 90
2
 70
0
 10
309.850940
 20
103.213202
 30
0.0
 10
309.850940
 20
103.213202
 30
0.0
  0
LWPOLYLINE
  5
108
100
AcDbEntity
  8
ribs
 62
7
100
AcDbPolyline
 90
2
 70
0
 10
318.970940
 20
727.573202
 30
0.0
 10
318.970940
 20
727.573202
 30
0.0
  0
LWPOLYLINE
  5
109
100
AcDbEntity
  8
ribs
 62
7
100
AcDbPolyline
 90
2
 70
0
 10
318.970940
 20
104.053202
 30
0.0
 10
318.970940
 20
104.053202
 30
0.0
  0
LWPOLYLINE
  5
10a
100
AcDbEntity
  8
ribs
 62
7
100
AcDbPolyline
 90
2
 70
0
 10
265.570940
 20
699.253202
 30
0.0
 10
265.570940
 20
699.253202
 30
0.0
  0
LWPOLYLINE
  5
10b
100
AcDbEntity
  8
ribs
 62
7
100
AcDbPolyline
 90
2
 70
0
 10
279.250940
 20
132.373202
 30
0.0
 10
279.250940
 20
132.373202
 30
0.0
  0
LWPOLYLINE
  5
10c
100
AcDbEntity
  8
ribs
 62
7
100
AcDbPolyline
 90
2
 70
0
 10
265.570940
 20
132.373202
 30
0.0
 10
265.570940
 20
132.373202
 30
0.0
  0
LWPOLYLINE
  5
10d
100
AcDbEntity
  8
ribs
 62
7
100
AcDbPolyline
 90
2
 70
0
 10
279.250940
 20
699.253202
 30
0.0
 10
279.250940
 20
699.253202
 30
0.0
  0
LWPOLYLINE
  5
10e
100
AcDbEntity
  8
ribs
 62
7
100
AcDbPolyline
 90
2
 70
0
 10
265.570940
 20
699.253202
 30
0.0
 10
265.570940
 20
699.253202
 30
0.0
  0
SPLINE
  5
10f
100
AcDbEntity
  8
ribs
 62
7
100
AcDbSpline
 70
8
 71
3
 72
8
 73
4
 74
0
 40
0
 40
0
 40
0
 40
0
 40
1
 40
1
 40
1
 40
1
 10
279.250940
 20
699.253202
 30
0.0
 10
276.652676
 20
699.376970
 30
0.0
 10
275.149568
 20
700.462094
 30
0.0
 10
271.791704
 20
700.741346
 30
0.0
  0
SPLINE
  5
110
100
AcDbEntity
  8
ribs
 62
7
100
AcDbSpline
 70
8
 71
3
 72
8
 73
4
 74
0
 40
0
 40
0
 40
0
 40
0
 40
1
 40
1
 40
1
 40
1
 10
271.791704
 20
700.741346
 30
0.0
 10
269.809628
 20
700.637258
 30
0.0
 10
267.855008
 20
700.690226
 30
0.0
 10
265.570940
 20
699.253202
 30
0.0
  0
LWPOLYLINE
  5
111
100
AcDbEntity
  8
ribs
 62
7
100
AcDbPolyline
 90
2
 70
0
 10
265.570940
 20
132.373202
 30
0.0
 10
265.570940
 20
132.373202
 30
0.0
  0
SPLINE
  5
112
100
AcDbEntity
  8
ribs
 62
7
100
AcDbSpline
 70
8
 71
3
 72
8
 73
4
 74
0
 40
0
 40
0
 40
0
 40
0
 40
1
 40
1
 40
1
 40
1
 10
318.970940
 20
727.573202
 30
0.0
 10
319.088024
 20
732.759950
 30
0.0
 10
313.498280
 20
730.632278
 30
0.0
 10
309.829460
 20
728.391722
 30
0.0
  0
LWPOLYLINE
  5
113
100
AcDbEntity
  8
ribs
 62
7
100
AcDbPolyline
 90
3
 70
0
 10
279.250940
 20
699.253202
 30
0.0
 10
284.890940
 20
699.253202
 30
0.0
 10
284.890940
 20
713.173202
 30
0.0
  0
LWPOLYLINE
  5
114
100
AcDbEntity
  8
ribs
 62
7
100
AcDbPolyline
 90
3
 70
0
 10
309.829460
 20
728.391722
 30
0.0
 10
297.250940
 20
720.973202
 30
0.0
 10
284.890940
 20
713.173202
 30
0.0
  0
SPLINE
  5
115
100
AcDbEntity
  8
ribs
 62
7
100
AcDbSpline
 70
8
 71
3
 72
8
 73
4
 74
0
 40
0
 40
0
 40
0
 40
0
 40
1
 40
1
 40
1
 40
1
 10
309.904640
 20
103.180981
 30
0.0
 10
312.077852
 20
101.985439
 30
0.0
 10
314.206940
 20
100.627842
 30
0.0
 10
316.690940
 20
100.573202
 30
0.0
  0
SPLINE
  5
116
100
AcDbEntity
  8
ribs
 62
7
100
AcDbSpline
 70
8
 71
3
 72
8
 73
4
 74
0
 40
0
 40
0
 40
0
 40
0
 40
1
 40
1
 40
1
 40
1
 10
316.690940
 20
100.573202
 30
0.0
 10
318.547004
 20
100.727464
 30
0.0
 10
318.971024
 20
102.507246
 30
0.0
 10
318.970940
 20
104.053202
 30
0.0
  0
SPLINE
  5
117
100
AcDbEntity
  8
ribs
 62
7
100
AcDbSpline
 70
8
 71
3
 72
8
 73
4
 74
0
 40
0
 40
0
 40
0
 40
0
 40
1
 40
1
 40
1
 40
1
 10
265.570940
 20
132.373202
 30
0.0
 10
268.856996
 20
130.591814
 30
0.0
 10
274.688624
 20
130.126658
 30
0.0
 10
279.190184
 20
132.373202
 30
0.0
  0
LWPOLYLINE
  5
118
100
AcDbEntity
  8
ribs
 62
7
100
AcDbPolyline
 90
3
 70
0
 10
284.890940
 20
118.453202
 30
0.0
 10
297.250940
 20
110.653202
 30
0.0
 10
309.904640
 20
103.180981
 30
0.0
  0
LWPOLYLINE
  5
119
100
AcDbEntity
  8
ribs
 62
7
100
AcDbPolyline
 90
3
 70
0
 10
284.890940
 20
118.453202
 30
0.0
 10
284.890940
 20
132.373202
 30
0.0
 10
279.250940
 20
132.373202
 30
0.0
  0
LWPOLYLINE
  5
11a
100
AcDbEntity
  8
ribs
 62
7
100
AcDbPolyline
 90
2
 70
0
 10
143.050940
 20
412.933202
 30
0.0
 10
126.010940
 20
412.933202
 30
0.0
  0
LWPOLYLINE
  5
11b
100
AcDbEntity
  8
ribs
 62
7
100
AcDbPolyline
 90
37
 70
0
 10
137.410940
 20
429.733202
 30
0.0
 10
137.410940
 20
444.013202
 30
0.0
 10
160.439084
 20
443.998970
 30
0.0
 10
161.507228
 20
452.264750
 30
0.0
 10
162.827228
 20
460.664750
 30
0.0
 10
164.387228
 20
468.944750
 30
0.0
 10
166.187228
 20
477.224750
 30
0.0
 10
168.347228
 20
485.504750
 30
0.0
 10
170.747228
 20
493.784750
 30
0.0
 10
173.387228
 20
501.944750
 30
0.0
 10
176.387228
 20
510.104750
 30
0.0
 10
179.507228
 20
518.264750
 30
0.0
 10
182.867228
 20
526.304750
 30
0.0
 10
186.587228
 20
534.344750
 30
0.0
 10
190.427228
 20
542.264750
 30
0.0
 10
194.507228
 20
550.184750
 30
0.0
 10
198.827228
 20
558.104750
 30
0.0
 10
203.387228
 20
565.904750
 30
0.0
 10
208.187228
 20
573.704750
 30
0.0
 10
213.107228
 20
581.384750
 30
0.0
 10
218.267228
 20
589.064750
 30
0.0
 10
223.547228
 20
596.624750
 30
0.0
 10
229.187228
 20
604.184750
 30
0.0
 10
234.827228
 20
611.744750
 30
0.0
 10
240.707228
 20
619.184750
 30
0.0
 10
246.827228
 20
626.624750
 30
0.0
 10
253.067228
 20
633.944750
 30
0.0
 10
259.547228
 20
641.144750
 30
0.0
 10
266.027228
 20
648.464750
 30
0.0
 10
272.867228
 20
655.664750
 30
0.0
 10
279.707228
 20
662.744750
 30
0.0
 10
286.787228
 20
669.824750
 30
0.0
 10
293.987228
 20
676.904750
 30
0.0
 10
301.307228
 20
683.864750
 30
0.0
 10
308.819084
 20
690.838982
 30
0.0
 10
319.031696
 20
700.314830
 30
0.0
 10
318.970892
 20
727.573202
 30
0.0
  0
LWPOLYLINE
  5
11c
100
AcDbEntity
  8
ribs
 62
7
100
AcDbPolyline
 90
26
 70
0
 10
265.570940
 20
699.253202
 30
0.0
 10
255.370940
 20
691.213202
 30
0.0
 10
245.650940
 20
682.693202
 30
0.0
 10
236.050940
 20
673.933202
 30
0.0
 10
226.810940
 20
664.693202
 30
0.0
 10
218.050940
 20
655.213202
 30
0.0
 10
209.530940
 20
645.493202
 30
0.0
 10
201.370940
 20
635.293202
 30
0.0
 10
193.570940
 20
624.973202
 30
0.0
 10
186.130940
 20
614.293202
 30
0.0
 10
179.170940
 20
603.373202
 30
0.0
 10
172.570940
 20
592.213202
 30
0.0
 10
166.330940
 20
580.813202
 30
0.0
 10
160.570940
 20
569.173202
 30
0.0
 10
155.290940
 20
557.413202
 30
0.0
 10
150.370940
 20
545.413202
 30
0.0
 10
145.810940
 20
533.173202
 30
0.0
 10
141.850940
 20
520.813202
 30
0.0
 10
138.250940
 20
508.453202
 30
0.0
 10
135.130940
 20
495.853202
 30
0.0
 10
132.370940
 20
483.133202
 30
0.0
 10
130.210940
 20
470.293202
 30
0.0
 10
128.530940
 20
457.453202
 30
0.0
 10
127.210940
 20
444.613202
 30
0.0
 10
126.370940
 20
431.653202
 30
0.0
 10
126.010940
 20
418.693202
 30
0.0
  0
LWPOLYLINE
  5
11d
100
AcDbEntity
  8
ribs
 62
7
100
AcDbPolyline
 90
2
 70
0
 10
159.250940
 20
429.733202
 30
0.0
 10
137.410940
 20
429.733202
 30
0.0
  0
LWPOLYLINE
  5
11e
100
AcDbEntity
  8
ribs
 62
7
100
AcDbPolyline
 90
2
 70
0
 10
137.410940
 20
401.893202
 30
0.0
 10
159.250940
 20
401.893202
 30
0.0
  0
LWPOLYLINE
  5
11f
100
AcDbEntity
  8
ribs
 62
7
100
AcDbPolyline
 90
26
 70
0
 10
126.010940
 20
412.933202
 30
0.0
 10
126.370940
 20
399.973202
 30
0.0
 10
127.210940
 20
387.013202
 30
0.0
 10
128.530940
 20
374.173202
 30
0.0
 10
130.210940
 20
361.333202
 30
0.0
 10
132.370940
 20
348.493202
 30
0.0
 10
135.130940
 20
335.773202
 30
0.0
 10
138.250940
 20
323.293202
 30
0.0
 10
141.850940
 20
310.813202
 30
0.0
 10
145.810940
 20
298.453202
 30
0.0
 10
150.370940
 20
286.213202
 30
0.0
 10
155.290940
 20
274.213202
 30
0.0
 10
160.570940
 20
262.453202
 30
0.0
 10
166.330940
 20
250.813202
 30
0.0
 10
172.570940
 20
239.413202
 30
0.0
 10
179.170940
 20
228.253202
 30
0.0
 10
186.130940
 20
217.333202
 30
0.0
 10
193.570940
 20
206.653202
 30
0.0
 10
201.370940
 20
196.333202
 30
0.0
 10
209.530940
 20
186.133202
 30
0.0
 10
218.050940
 20
176.413202
 30
0.0
 10
226.810940
 20
166.933202
 30
0.0
 10
236.050940
 20
157.693202
 30
0.0
 10
245.650940
 20
148.933202
 30
0.0
 10
255.370940
 20
140.413202
 30
0.0
 10
265.570940
 20
132.373202
 30
0.0
  0
SPLINE
  5
120
100
AcDbEntity
  8
ribs
 62
7
100
AcDbSpline
 70
8
 71
3
 72
8
 73
4
 74
0
 40
0
 40
0
 40
0
 40
0
 40
1
 40
1
 40
1
 40
1
 10
159.250940
 20
401.893202
 30
0.0
 10
159.015548
 20
406.531358
 30
0.0
 10
158.922044
 20
411.130742
 30
0.0
 10
158.890940
 20
415.813202
 30
0.0
  0
SPLINE
  5
121
100
AcDbEntity
  8
ribs
 62
7
100
AcDbSpline
 70
8
 71
3
 72
8
 73
4
 74
0
 40
0
 40
0
 40
0
 40
0
 40
1
 40
1
 40
1
 40
1
 10
158.890940
 20
415.813202
 30
0.0
 10
158.784116
 20
420.583382
 30
0.0
 10
159.090908
 20
425.092442
 30
0.0
 10
159.250940
 20
429.733202
 30
0.0
  0
LWPOLYLINE
  5
122
100
AcDbEntity
  8
ribs
 62
7
100
AcDbPolyline
 90
37
 70
0
 10
318.970940
 20
104.053202
 30
0.0
 10
318.970940
 20
131.250818
 30
0.0
 10
308.819084
 20
140.698982
 30
0.0
 10
301.307228
 20
147.584762
 30
0.0
 10
293.987228
 20
154.544762
 30
0.0
 10
286.787228
 20
161.624762
 30
0.0
 10
279.707228
 20
168.704762
 30
0.0
 10
272.867228
 20
175.784762
 30
0.0
 10
266.027228
 20
182.984762
 30
0.0
 10
259.547228
 20
190.304762
 30
0.0
 10
253.067228
 20
197.504750
 30
0.0
 10
246.827228
 20
204.824750
 30
0.0
 10
240.707228
 20
212.264750
 30
0.0
 10
234.827228
 20
219.704750
 30
0.0
 10
229.187228
 20
227.264750
 30
0.0
 10
223.547228
 20
234.824750
 30
0.0
 10
218.267228
 20
242.384750
 30
0.0
 10
213.107228
 20
250.064750
 30
0.0
 10
208.187228
 20
257.744750
 30
0.0
 10
203.387228
 20
265.544750
 30
0.0
 10
198.827228
 20
273.344750
 30
0.0
 10
194.507228
 20
281.264750
 30
0.0
 10
190.427228
 20
289.184750
 30
0.0
 10
186.587228
 20
297.104750
 30
0.0
 10
182.867228
 20
305.144750
 30
0.0
 10
179.507228
 20
313.184750
 30
0.0
 10
176.387228
 20
321.344750
 30
0.0
 10
173.387228
 20
329.504750
 30
0.0
 10
170.747228
 20
337.664750
 30
0.0
 10
168.347228
 20
345.944750
 30
0.0
 10
166.187228
 20
354.224750
 30
0.0
 10
164.387228
 20
362.504750
 30
0.0
 10
162.827228
 20
370.784750
 30
0.0
 10
161.507228
 20
379.184750
 30
0.0
 10
160.439084
 20
387.538970
 30
0.0
 10
137.410940
 20
387.613202
 30
0.0
 10
137.410940
 20
401.893202
 30
0.0
  0
LWPOLYLINE
  5
123
100
AcDbEntity
  8
ribs
 62
7
100
AcDbPolyline
 90
3
 70
0
 10
126.010940
 20
418.693202
 30
0.0
 10
143.050940
 20
418.693202
 30
0.0
 10
143.050940
 20
412.933202
 30
0.0
  0
LWPOLYLINE
  5
124
100
AcDbEntity
  8
ribs
 62
7
100
AcDbPolyline
 90
2
 70
0
 10
1034.664200
 20
430.976244
 30
0.0
 10
1012.824200
 20
430.976244
 30
0.0
  0
LWPOLYLINE
  5
125
100
AcDbEntity
  8
ribs
 62
7
100
AcDbPolyline
 90
2
 70
0
 10
1013.184200
 20
419.936294
 30
0.0
 10
1029.024200
 20
419.936294
 30
0.0
  0
LWPOLYLINE
  5
126
100
AcDbEntity
  8
ribs
 62
7
100
AcDbPolyline
 90
3
 70
0
 10
1013.184200
 20
414.296294
 30
0.0
 10
1013.064200
 20
408.776294
 30
0.0
 10
1012.824200
 20
403.256294
 30
0.0
  0
LWPOLYLINE
  5
127
100
AcDbEntity
  8
ribs
 62
7
100
AcDbPolyline
 90
33
 70
0
 10
1011.624200
 20
388.856314
 30
0.0
 10
1010.544200
 20
380.576314
 30
0.0
 10
1009.224200
 20
372.176314
 30
0.0
 10
1007.664200
 20
363.896314
 30
0.0
 10
1005.864200
 20
355.616314
 30
0.0
 10
1003.704200
 20
347.336314
 30
0.0
 10
1001.304200
 20
339.056314
 30
0.0
 10
998.664200
 20
330.896314
 30
0.0
 10
995.664200
 20
322.736314
 30
0.0
 10
992.544200
 20
314.576314
 30
0.0
 10
989.184200
 20
306.536314
 30
0.0
 10
985.464200
 20
298.496314
 30
0.0
 10
981.624210
 20
290.576314
 30
0.0
 10
977.544210
 20
282.656314
 30
0.0
 10
973.224210
 20
274.736314
 30
0.0
 10
968.664210
 20
266.936314
 30
0.0
 10
963.864210
 20
259.136314
 30
0.0
 10
958.944210
 20
251.456314
 30
0.0
 10
953.784210
 20
243.776314
 30
0.0
 10
948.504210
 20
236.216314
 30
0.0
 10
942.864210
 20
228.656314
 30
0.0
 10
937.224210
 20
221.096314
 30
0.0
 10
931.344210
 20
213.656314
 30
0.0
 10
925.224210
 20
206.216314
 30
0.0
 10
918.984210
 20
198.896314
 30
0.0
 10
912.504260
 20
191.696314
 30
0.0
 10
906.024260
 20
184.376314
 30
0.0
 10
899.184260
 20
177.176314
 30
0.0
 10
892.344260
 20
170.096314
 30
0.0
 10
885.264260
 20
163.016314
 30
0.0
 10
878.064260
 20
155.936314
 30
0.0
 10
870.744260
 20
148.976314
 30
0.0
 10
863.304280
 20
142.016314
 30
0.0
  0
LWPOLYLINE
  5
128
100
AcDbEntity
  8
ribs
 62
7
100
AcDbPolyline
 90
33
 70
0
 10
863.304280
 20
692.216224
 30
0.0
 10
870.744260
 20
685.256254
 30
0.0
 10
878.064260
 20
678.296254
 30
0.0
 10
885.264260
 20
671.216254
 30
0.0
 10
892.344260
 20
664.136254
 30
0.0
 10
899.184260
 20
657.056254
 30
0.0
 10
906.024260
 20
649.856254
 30
0.0
 10
912.504260
 20
642.536244
 30
0.0
 10
918.984210
 20
635.336244
 30
0.0
 10
925.224210
 20
628.016244
 30
0.0
 10
931.344210
 20
620.576244
 30
0.0
 10
937.224210
 20
613.136244
 30
0.0
 10
942.864210
 20
605.576244
 30
0.0
 10
948.504210
 20
598.016244
 30
0.0
 10
953.784210
 20
590.456244
 30
0.0
 10
958.944210
 20
582.776244
 30
0.0
 10
963.864210
 20
575.096244
 30
0.0
 10
968.664210
 20
567.296244
 30
0.0
 10
973.224210
 20
559.496244
 30
0.0
 10
977.544210
 20
551.576244
 30
0.0
 10
981.624210
 20
543.656244
 30
0.0
 10
985.464200
 20
535.736244
 30
0.0
 10
989.184200
 20
527.696244
 30
0.0
 10
992.544200
 20
519.656244
 30
0.0
 10
995.664200
 20
511.496244
 30
0.0
 10
998.664200
 20
503.336244
 30
0.0
 10
1001.304200
 20
495.176244
 30
0.0
 10
1003.704200
 20
486.896244
 30
0.0
 10
1005.864200
 20
478.616244
 30
0.0
 10
1007.664200
 20
470.336244
 30
0.0
 10
1009.224200
 20
462.056244
 30
0.0
 10
1010.544200
 20
453.656244
 30
0.0
 10
1011.624200
 20
445.376244
 30
0.0
  0
LWPOLYLINE
  5
129
100
AcDbEntity
  8
ribs
 62
7
100
AcDbPolyline
 90
3
 70
0
 10
887.310260
 20
714.636424
 30
0.0
 10
887.310260
 20
700.716424
 30
0.0
 10
892.950260
 20
700.716424
 30
0.0
  0
SPLINE
  5
12a
100
AcDbEntity
  8
ribs
 62
7
100
AcDbSpline
 70
8
 71
3
 72
8
 73
4
 74
0
 40
0
 40
0
 40
0
 40
0
 40
1
 40
1
 40
1
 40
1
 10
862.296580
 20
729.908624
 30
0.0
 10
860.123370
 20
731.104224
 30
0.0
 10
857.994280
 20
732.461824
 30
0.0
 10
855.510280
 20
732.516424
 30
0.0
  0
SPLINE
  5
12b
100
AcDbEntity
  8
ribs
 62
7
100
AcDbSpline
 70
8
 71
3
 72
8
 73
4
 74
0
 40
0
 40
0
 40
0
 40
0
 40
1
 40
1
 40
1
 40
1
 10
855.510280
 20
732.516424
 30
0.0
 10
853.654220
 20
732.362224
 30
0.0
 10
853.230200
 20
730.582424
 30
0.0
 10
853.227280
 20
728.986324
 30
0.0
  0
LWPOLYLINE
  5
12c
100
AcDbEntity
  8
ribs
 62
7
100
AcDbPolyline
 90
3
 70
0
 10
887.310260
 20
714.636424
 30
0.0
 10
874.950260
 20
722.436424
 30
0.0
 10
862.296580
 20
729.908624
 30
0.0
  0
SPLINE
  5
12d
100
AcDbEntity
  8
ribs
 62
7
100
AcDbSpline
 70
8
 71
3
 72
8
 73
4
 74
0
 40
0
 40
0
 40
0
 40
0
 40
1
 40
1
 40
1
 40
1
 10
892.954160
 20
133.391414
 30
0.0
 10
895.552460
 20
133.267714
 30
0.0
 10
897.055560
 20
132.182514
 30
0.0
 10
900.413460
 20
131.903314
 30
0.0
  0
SPLINE
  5
12e
100
AcDbEntity
  8
ribs
 62
7
100
AcDbSpline
 70
8
 71
3
 72
8
 73
4
 74
0
 40
0
 40
0
 40
0
 40
0
 40
1
 40
1
 40
1
 40
1
 10
900.413460
 20
131.903314
 30
0.0
 10
902.395560
 20
132.007414
 30
0.0
 10
904.350160
 20
131.954314
 30
0.0
 10
906.389360
 20
133.323814
 30
0.0
  0
LWPOLYLINE
  5
12f
100
AcDbEntity
  8
ribs
 62
7
100
AcDbPolyline
 90
3
 70
0
 10
853.227280
 20
728.986324
 30
0.0
 10
853.224280
 20
701.009524
 30
0.0
 10
863.304280
 20
692.216224
 30
0.0
  0
SPLINE
  5
130
100
AcDbEntity
  8
ribs
 62
7
100
AcDbSpline
 70
8
 71
3
 72
8
 73
4
 74
0
 40
0
 40
0
 40
0
 40
0
 40
1
 40
1
 40
1
 40
1
 10
906.387460
 20
700.846324
 30
0.0
 10
903.344360
 20
702.497824
 30
0.0
 10
897.512760
 20
702.963024
 30
0.0
 10
893.011160
 20
700.716424
 30
0.0
  0
LWPOLYLINE
  5
131
100
AcDbEntity
  8
ribs
 62
7
100
AcDbPolyline
 90
51
 70
0
 10
906.389360
 20
133.323814
 30
0.0
 10
916.344410
 20
141.416314
 30
0.0
 10
926.304410
 20
149.936314
 30
0.0
 10
935.904410
 20
158.936314
 30
0.0
 10
945.264410
 20
168.176314
 30
0.0
 10
954.144410
 20
177.776314
 30
0.0
 10
962.784410
 20
187.616314
 30
0.0
 10
970.944410
 20
197.816314
 30
0.0
 10
978.864410
 20
208.376314
 30
0.0
 10
986.304400
 20
219.176314
 30
0.0
 10
993.384400
 20
230.216314
 30
0.0
 10
999.984400
 20
241.496314
 30
0.0
 10
1006.224400
 20
253.016314
 30
0.0
 10
1011.984400
 20
264.776314
 30
0.0
 10
1017.384400
 20
276.776314
 30
0.0
 10
1022.304400
 20
288.896314
 30
0.0
 10
1026.744400
 20
301.256314
 30
0.0
 10
1030.824400
 20
313.736314
 30
0.0
 10
1034.304400
 20
326.336314
 30
0.0
 10
1037.424500
 20
339.056314
 30
0.0
 10
1040.064500
 20
351.896314
 30
0.0
 10
1042.224500
 20
364.856314
 30
0.0
 10
1043.904500
 20
377.816314
 30
0.0
 10
1045.104500
 20
390.896314
 30
0.0
 10
1045.824500
 20
403.976294
 30
0.0
 10
1046.064500
 20
417.056294
 30
0.0
 10
1045.824500
 20
430.256244
 30
0.0
 10
1045.104500
 20
443.336244
 30
0.0
 10
1043.904500
 20
456.416244
 30
0.0
 10
1042.224500
 20
469.376244
 30
0.0
 10
1040.064500
 20
482.336244
 30
0.0
 10
1037.424500
 20
495.176244
 30
0.0
 10
1034.304400
 20
507.896244
 30
0.0
 10
1030.824400
 20
520.496244
 30
0.0
 10
1026.744400
 20
532.976244
 30
0.0
 10
1022.304400
 20
545.336244
 30
0.0
 10
1017.384400
 20
557.456244
 30
0.0
 10
1011.984400
 20
569.456244
 30
0.0
 10
1006.224400
 20
581.216244
 30
0.0
 10
999.984400
 20
592.736244
 30
0.0
 10
993.384400
 20
604.016244
 30
0.0
 10
986.304400
 20
615.056244
 30
0.0
 10
978.864410
 20
625.856244
 30
0.0
 10
970.944410
 20
636.416244
 30
0.0
 10
962.784410
 20
646.616254
 30
0.0
 10
954.144410
 20
656.456254
 30
0.0
 10
945.264410
 20
666.056254
 30
0.0
 10
935.904410
 20
675.296254
 30
0.0
 10
926.304410
 20
684.296254
 30
0.0
 10
916.344410
 20
692.816224
 30
0.0
 10
906.387460
 20
700.846324
 30
0.0
  0
SPLINE
  5
132
100
AcDbEntity
  8
ribs
 62
7
100
AcDbSpline
 70
8
 71
3
 72
8
 73
4
 74
0
 40
0
 40
0
 40
0
 40
0
 40
1
 40
1
 40
1
 40
1
 10
862.375660
 20
104.252914
 30
0.0
 10
858.706840
 20
102.012414
 30
0.0
 10
853.117090
 20
99.884714
 30
0.0
 10
853.229280
 20
105.183814
 30
0.0
  0
LWPOLYLINE
  5
133
100
AcDbEntity
  8
ribs
 62
7
100
AcDbPolyline
 90
5
 70
0
 10
892.954160
 20
133.391414
 30
0.0
 10
887.314160
 20
133.391414
 30
0.0
 10
887.314160
 20
119.471414
 30
0.0
 10
874.954160
 20
111.671414
 30
0.0
 10
862.375660
 20
104.252914
 30
0.0
  0
LWPOLYLINE
  5
134
100
AcDbEntity
  8
ribs
 62
7
100
AcDbPolyline
 90
3
 70
0
 10
853.229280
 20
105.183814
 30
0.0
 10
853.224280
 20
133.405214
 30
0.0
 10
863.304280
 20
142.016314
 30
0.0
  0
LWPOLYLINE
  5
135
100
AcDbEntity
  8
ribs
 62
7
100
AcDbPolyline
 90
3
 70
0
 10
1034.664200
 20
430.976244
 30
0.0
 10
1034.664200
 20
445.376244
 30
0.0
 10
1011.624200
 20
445.376244
 30
0.0
  0
LWPOLYLINE
  5
136
100
AcDbEntity
  8
ribs
 62
7
100
AcDbPolyline
 90
3
 70
0
 10
1012.824200
 20
430.976244
 30
0.0
 10
1013.064200
 20
425.456294
 30
0.0
 10
1013.184200
 20
419.936294
 30
0.0
  0
LWPOLYLINE
  5
137
100
AcDbEntity
  8
ribs
 62
7
100
AcDbPolyline
 90
3
 70
0
 10
1013.184200
 20
414.296294
 30
0.0
 10
1029.024200
 20
414.296294
 30
0.0
 10
1029.024200
 20
419.936294
 30
0.0
  0
LWPOLYLINE
  5
138
100
AcDbEntity
  8
ribs
 62
7
100
AcDbPolyline
 90
4
 70
0
 10
1011.624200
 20
388.856314
 30
0.0
 10
1034.664200
 20
388.856314
 30
0.0
 10
1034.664200
 20
403.256294
 30
0.0
 10
1012.824200
 20
403.256294
 30
0.0
  0
LWPOLYLINE
  5
139
100
AcDbEntity
  8
ribs
 62
7
100
AcDbPolyline
 90
2
 70
0
 10
638.859780
 20
253.000834
 30
0.0
 10
638.859780
 20
253.000834
 30
0.0
  0
SPLINE
  5
13a
100
AcDbEntity
  8
ribs
 62
7
100
AcDbSpline
 70
8
 71
3
 72
8
 73
4
 74
0
 40
0
 40
0
 40
0
 40
0
 40
1
 40
1
 40
1
 40
1
 10
299.450470
 20
660.768694
 30
0.0
 10
298.199260
 20
661.745784
 30
0.0
 10
298.992230
 20
662.804734
 30
0.0
 10
299.679390
 20
663.662754
 30
0.0
  0
LWPOLYLINE
  5
13b
100
AcDbEntity
  8
ribs
 62
7
100
AcDbPolyline
 90
2
 70
0
 10
299.450470
 20
655.128694
 30
0.0
 10
291.410470
 20
655.128694
 30
0.0
  0
SPLINE
  5
13c
100
AcDbEntity
  8
ribs
 62
7
100
AcDbSpline
 70
8
 71
3
 72
8
 73
4
 74
0
 40
0
 40
0
 40
0
 40
0
 40
1
 40
1
 40
1
 40
1
 10
582.890460
 20
809.328694
 30
0.0
 10
578.241150
 20
809.397694
 30
0.0
 10
573.112020
 20
809.283294
 30
0.0
 10
568.970580
 20
809.088694
 30
0.0
  0
LWPOLYLINE
  5
13d
100
AcDbEntity
  8
ribs
 62
7
100
AcDbPolyline
 90
51
 70
0
 10
299.679390
 20
663.662754
 30
0.0
 10
305.930590
 20
670.368694
 30
0.0
 10
313.010590
 20
677.448694
 30
0.0
 10
320.090590
 20
684.408694
 30
0.0
 10
327.290590
 20
691.248694
 30
0.0
 10
334.490590
 20
697.848694
 30
0.0
 10
341.690590
 20
704.448694
 30
0.0
 10
349.130590
 20
710.808694
 30
0.0
 10
356.450580
 20
717.048694
 30
0.0
 10
364.010580
 20
723.048694
 30
0.0
 10
371.450580
 20
729.048694
 30
0.0
 10
379.130580
 20
734.808694
 30
0.0
 10
386.810580
 20
740.328694
 30
0.0
 10
394.490580
 20
745.728694
 30
0.0
 10
402.290580
 20
751.008694
 30
0.0
 10
410.210580
 20
756.048694
 30
0.0
 10
418.130580
 20
760.848694
 30
0.0
 10
422.210580
 20
763.248694
 30
0.0
 10
426.170580
 20
765.528694
 30
0.0
 10
430.250580
 20
767.808694
 30
0.0
 10
434.330580
 20
770.088694
 30
0.0
 10
438.410580
 20
772.248694
 30
0.0
 10
442.490580
 20
774.288694
 30
0.0
 10
446.570580
 20
776.328694
 30
0.0
 10
450.770580
 20
778.368694
 30
0.0
 10
454.850580
 20
780.288694
 30
0.0
 10
459.050580
 20
782.208694
 30
0.0
 10
463.250580
 20
784.008694
 30
0.0
 10
467.450580
 20
785.808694
 30
0.0
 10
471.650580
 20
787.488694
 30
0.0
 10
475.970580
 20
789.168694
 30
0.0
 10
480.170580
 20
790.728694
 30
0.0
 10
484.490580
 20
792.288694
 30
0.0
 10
488.690580
 20
793.848694
 30
0.0
 10
493.010580
 20
795.168694
 30
0.0
 10
497.330580
 20
796.608694
 30
0.0
 10
501.650580
 20
797.808694
 30
0.0
 10
506.090580
 20
799.128694
 30
0.0
 10
510.410580
 20
800.208694
 30
0.0
 10
514.730580
 20
801.288694
 30
0.0
 10
519.170580
 20
802.368694
 30
0.0
 10
523.610580
 20
803.328694
 30
0.0
 10
527.930580
 20
804.168694
 30
0.0
 10
532.370580
 20
805.008694
 30
0.0
 10
536.810580
 20
805.728694
 30
0.0
 10
541.250580
 20
806.448694
 30
0.0
 10
545.690580
 20
807.048694
 30
0.0
 10
550.044660
 20
807.421294
 30
0.0
 10
554.609100
 20
807.682774
 30
0.0
 10
554.690600
 20
794.088694
 30
0.0
 10
568.816310
 20
794.088694
 30
0.0
  0
SPLINE
  5
13e
100
AcDbEntity
  8
ribs
 62
7
100
AcDbSpline
 70
8
 71
3
 72
8
 73
4
 74
0
 40
0
 40
0
 40
0
 40
0
 40
1
 40
1
 40
1
 40
1
 10
596.810580
 20
794.088694
 30
0.0
 10
596.803580
 20
799.088684
 30
0.0
 10
596.824980
 20
804.088744
 30
0.0
 10
596.801580
 20
809.088694
 30
0.0
  0
SPLINE
  5
13f
100
AcDbEntity
  8
ribs
 62
7
100
AcDbSpline
 70
8
 71
3
 72
8
 73
4
 74
0
 40
0
 40
0
 40
0
 40
0
 40
1
 40
1
 40
1
 40
1
 10
596.801580
 20
809.088694
 30
0.0
 10
592.170820
 20
809.417544
 30
0.0
 10
587.529040
 20
809.328694
 30
0.0
 10
582.890460
 20
809.328694
 30
0.0
  0
SPLINE
  5
140
100
AcDbEntity
  8
ribs
 62
7
100
AcDbSpline
 70
8
 71
3
 72
8
 73
4
 74
0
 40
0
 40
0
 40
0
 40
0
 40
1
 40
1
 40
1
 40
1
 10
894.650580
 20
621.048694
 30
0.0
 10
903.741730
 20
621.609464
 30
0.0
 10
890.640900
 20
637.142944
 30
0.0
 10
888.170460
 20
639.888694
 30
0.0
  0
LWPOLYLINE
  5
141
100
AcDbEntity
  8
ribs
 62
7
100
AcDbPolyline
 90
2
 70
0
 10
568.970580
 20
809.088694
 30
0.0
 10
568.970580
 20
794.088694
 30
0.0
  0
SPLINE
  5
142
100
AcDbEntity
  8
ribs
 62
7
100
AcDbSpline
 70
8
 71
3
 72
8
 73
4
 74
0
 40
0
 40
0
 40
0
 40
0
 40
1
 40
1
 40
1
 40
1
 10
866.330460
 20
660.682794
 30
0.0
 10
866.880460
 20
661.481844
 30
0.0
 10
867.705490
 20
661.521004
 30
0.0
 10
866.796590
 20
663.215424
 30
0.0
  0
LWPOLYLINE
  5
143
100
AcDbEntity
  8
ribs
 62
7
100
AcDbPolyline
 90
5
 70
0
 10
888.170460
 20
639.888694
 30
0.0
 10
881.330460
 20
647.568694
 30
0.0
 10
874.370460
 20
655.128694
 30
0.0
 10
866.330460
 20
655.150194
 30
0.0
 10
866.330460
 20
660.682794
 30
0.0
  0
SPLINE
  5
144
100
AcDbEntity
  8
ribs
 62
7
100
AcDbSpline
 70
8
 71
3
 72
8
 73
4
 74
0
 40
0
 40
0
 40
0
 40
0
 40
1
 40
1
 40
1
 40
1
 10
610.983370
 20
808.039094
 30
0.0
 10
610.973270
 20
802.355144
 30
0.0
 10
611.030170
 20
799.493544
 30
0.0
 10
611.090590
 20
794.088714
 30
0.0
  0
LWPOLYLINE
  5
145
100
AcDbEntity
  8
ribs
 62
7
100
AcDbPolyline
 90
49
 70
0
 10
866.796590
 20
663.215424
 30
0.0
 10
860.574990
 20
669.704934
 30
0.0
 10
853.490450
 20
676.728714
 30
0.0
 10
846.770450
 20
683.328714
 30
0.0
 10
839.930450
 20
689.928714
 30
0.0
 10
832.970450
 20
696.408714
 30
0.0
 10
825.890450
 20
702.768714
 30
0.0
 10
818.810450
 20
709.008714
 30
0.0
 10
811.490450
 20
715.128714
 30
0.0
 10
804.290450
 20
721.128714
 30
0.0
 10
796.850450
 20
727.008714
 30
0.0
 10
789.410450
 20
732.648714
 30
0.0
 10
781.970450
 20
738.168714
 30
0.0
 10
774.290450
 20
743.688714
 30
0.0
 10
766.610450
 20
748.848714
 30
0.0
 10
758.690450
 20
754.008714
 30
0.0
 10
750.770450
 20
758.928714
 30
0.0
 10
746.810450
 20
761.328714
 30
0.0
 10
742.730450
 20
763.728714
 30
0.0
 10
738.770450
 20
766.008714
 30
0.0
 10
734.690450
 20
768.288714
 30
0.0
 10
730.490450
 20
770.568714
 30
0.0
 10
726.410450
 20
772.728714
 30
0.0
 10
722.210450
 20
774.768714
 30
0.0
 10
718.010450
 20
776.928714
 30
0.0
 10
713.810450
 20
778.848714
 30
0.0
 10
709.610450
 20
780.888714
 30
0.0
 10
705.410450
 20
782.808714
 30
0.0
 10
701.090450
 20
784.608714
 30
0.0
 10
696.770450
 20
786.408714
 30
0.0
 10
692.450450
 20
788.088714
 30
0.0
 10
688.130450
 20
789.768714
 30
0.0
 10
683.810450
 20
791.448714
 30
0.0
 10
679.370450
 20
793.008714
 30
0.0
 10
674.930450
 20
794.448714
 30
0.0
 10
670.490450
 20
795.888714
 30
0.0
 10
666.050450
 20
797.208714
 30
0.0
 10
661.610450
 20
798.528714
 30
0.0
 10
657.050450
 20
799.728714
 30
0.0
 10
652.610450
 20
800.928714
 30
0.0
 10
648.050450
 20
802.008714
 30
0.0
 10
643.490450
 20
802.968714
 30
0.0
 10
638.930450
 20
803.928714
 30
0.0
 10
634.370450
 20
804.768714
 30
0.0
 10
629.690450
 20
805.608714
 30
0.0
 10
625.130450
 20
806.328714
 30
0.0
 10
620.450450
 20
806.928714
 30
0.0
 10
615.770450
 20
807.528714
 30
0.0
 10
610.983370
 20
808.039094
 30
0.0
  0
LWPOLYLINE
  5
146
100
AcDbEntity
  8
ribs
 62
7
100
AcDbPolyline
 90
2
 70
0
 10
611.090590
 20
794.088714
 30
0.0
 10
596.793050
 20
794.088714
 30
0.0
  0
SPLINE
  5
147
100
AcDbEntity
  8
ribs
 62
7
100
AcDbSpline
 70
8
 71
3
 72
8
 73
4
 74
0
 40
0
 40
0
 40
0
 40
0
 40
1
 40
1
 40
1
 40
1
 10
546.075710
 20
778.542594
 30
0.0
 10
556.634850
 20
780.220184
 30
0.0
 10
566.521230
 20
780.656064
 30
0.0
 10
576.614710
 20
780.937104
 30
0.0
  0
SPLINE
  5
148
100
AcDbEntity
  8
ribs
 62
7
100
AcDbSpline
 70
8
 71
3
 72
8
 73
4
 74
0
 40
0
 40
0
 40
0
 40
0
 40
1
 40
1
 40
1
 40
1
 10
576.614710
 20
780.937104
 30
0.0
 10
580.721890
 20
780.866804
 30
0.0
 10
584.828580
 20
780.904204
 30
0.0
 10
588.935780
 20
780.937104
 30
0.0
  0
SPLINE
  5
149
100
AcDbEntity
  8
ribs
 62
7
100
AcDbSpline
 70
8
 71
3
 72
8
 73
4
 74
0
 40
0
 40
0
 40
0
 40
0
 40
1
 40
1
 40
1
 40
1
 10
588.935780
 20
780.937104
 30
0.0
 10
599.009100
 20
780.635674
 30
0.0
 10
608.900160
 20
780.004564
 30
0.0
 10
619.155750
 20
778.542594
 30
0.0
  0
LWPOLYLINE
  5
14a
100
AcDbEntity
  8
ribs
 62
7
100
AcDbPolyline
 90
34
 70
0
 10
270.944180
 20
621.078884
 30
0.0
 10
298.141790
 20
621.078884
 30
0.0
 10
307.589960
 20
631.230744
 30
0.0
 10
314.475740
 20
638.742594
 30
0.0
 10
321.435740
 20
646.062594
 30
0.0
 10
328.515740
 20
653.262594
 30
0.0
 10
335.595740
 20
660.342594
 30
0.0
 10
342.675740
 20
667.182594
 30
0.0
 10
349.875740
 20
674.022594
 30
0.0
 10
357.195730
 20
680.502594
 30
0.0
 10
364.395710
 20
686.982594
 30
0.0
 10
371.715710
 20
693.222594
 30
0.0
 10
379.155710
 20
699.342594
 30
0.0
 10
386.595710
 20
705.222594
 30
0.0
 10
394.155710
 20
710.862594
 30
0.0
 10
401.715710
 20
716.502594
 30
0.0
 10
409.275710
 20
721.782594
 30
0.0
 10
416.955710
 20
726.942594
 30
0.0
 10
424.635710
 20
731.862594
 30
0.0
 10
432.435710
 20
736.662594
 30
0.0
 10
440.235710
 20
741.222594
 30
0.0
 10
448.155710
 20
745.542594
 30
0.0
 10
456.075710
 20
749.622594
 30
0.0
 10
463.995710
 20
753.462594
 30
0.0
 10
472.035710
 20
757.182594
 30
0.0
 10
480.075710
 20
760.542594
 30
0.0
 10
488.235710
 20
763.662594
 30
0.0
 10
496.395710
 20
766.662594
 30
0.0
 10
504.555710
 20
769.302594
 30
0.0
 10
512.835710
 20
771.702594
 30
0.0
 10
521.115710
 20
773.862594
 30
0.0
 10
529.395710
 20
775.662594
 30
0.0
 10
537.675710
 20
777.222594
 30
0.0
 10
546.075710
 20
778.542594
 30
0.0
  0
LWPOLYLINE
  5
14b
100
AcDbEntity
  8
ribs
 62
7
100
AcDbPolyline
 90
34
 70
0
 10
619.155750
 20
778.542594
 30
0.0
 10
627.555760
 20
777.222594
 30
0.0
 10
635.835750
 20
775.662594
 30
0.0
 10
644.115750
 20
773.862594
 30
0.0
 10
652.395750
 20
771.702594
 30
0.0
 10
660.675750
 20
769.302594
 30
0.0
 10
668.835750
 20
766.662594
 30
0.0
 10
676.995760
 20
763.662594
 30
0.0
 10
685.155750
 20
760.542594
 30
0.0
 10
693.195760
 20
757.182594
 30
0.0
 10
701.235760
 20
753.462594
 30
0.0
 10
709.155750
 20
749.622594
 30
0.0
 10
717.075750
 20
745.542594
 30
0.0
 10
724.995760
 20
741.222594
 30
0.0
 10
732.795760
 20
736.662594
 30
0.0
 10
740.595760
 20
731.862594
 30
0.0
 10
748.275750
 20
726.942594
 30
0.0
 10
755.955750
 20
721.782594
 30
0.0
 10
763.515760
 20
716.502594
 30
0.0
 10
771.075750
 20
710.862594
 30
0.0
 10
778.635760
 20
705.222594
 30
0.0
 10
786.075750
 20
699.342594
 30
0.0
 10
793.515760
 20
693.222594
 30
0.0
 10
800.835750
 20
686.982594
 30
0.0
 10
808.035760
 20
680.502594
 30
0.0
 10
815.355750
 20
674.022594
 30
0.0
 10
822.555760
 20
667.182594
 30
0.0
 10
829.635760
 20
660.342594
 30
0.0
 10
836.715750
 20
653.262594
 30
0.0
 10
843.795760
 20
646.062594
 30
0.0
 10
850.755750
 20
638.742594
 30
0.0
 10
857.729980
 20
631.230744
 30
0.0
 10
867.205840
 20
621.018144
 30
0.0
 10
894.464200
 20
621.078944
 30
0.0
  0
SPLINE
  5
14c
100
AcDbEntity
  8
ribs
 62
7
100
AcDbSpline
 70
8
 71
3
 72
8
 73
4
 74
0
 40
0
 40
0
 40
0
 40
0
 40
1
 40
1
 40
1
 40
1
 10
269.887510
 20
629.482774
 30
0.0
 10
268.925700
 20
627.781314
 30
0.0
 10
267.646510
 20
625.714274
 30
0.0
 10
267.753430
 20
624.084964
 30
0.0
  0
SPLINE
  5
14d
100
AcDbEntity
  8
ribs
 62
7
100
AcDbSpline
 70
8
 71
3
 72
8
 73
4
 74
0
 40
0
 40
0
 40
0
 40
0
 40
1
 40
1
 40
1
 40
1
 10
267.753430
 20
624.084964
 30
0.0
 10
268.131740
 20
621.757594
 30
0.0
 10
269.445920
 20
621.184084
 30
0.0
 10
271.130470
 20
621.048694
 30
0.0
  0
LWPOLYLINE
  5
14e
100
AcDbEntity
  8
ribs
 62
7
100
AcDbPolyline
 90
2
 70
0
 10
299.450470
 20
660.768694
 30
0.0
 10
299.450470
 20
655.128694
 30
0.0
  0
SPLINE
  5
14f
100
AcDbEntity
  8
ribs
 62
7
100
AcDbSpline
 70
8
 71
3
 72
8
 73
4
 74
0
 40
0
 40
0
 40
0
 40
0
 40
1
 40
1
 40
1
 40
1
 10
277.610470
 20
639.888694
 30
0.0
 10
274.973590
 20
636.794944
 30
0.0
 10
272.543450
 20
633.548164
 30
0.0
 10
270.290470
 20
630.168694
 30
0.0
  0
LWPOLYLINE
  5
150
100
AcDbEntity
  8
ribs
 62
7
100
AcDbPolyline
 90
3
 70
0
 10
291.410470
 20
655.128694
 30
0.0
 10
284.450470
 20
647.568694
 30
0.0
 10
277.610470
 20
639.888694
 30
0.0
  0
SPLINE
  5
151
100
AcDbEntity
  8
ribs
 62
7
100
AcDbSpline
 70
8
 71
3
 72
8
 73
4
 74
0
 40
0
 40
0
 40
0
 40
0
 40
1
 40
1
 40
1
 40
1
 10
544.004800
 20
64.625012
 30
0.0
 10
543.872540
 20
63.043002
 30
0.0
 10
542.552250
 20
63.126492
 30
0.0
 10
541.457990
 20
63.231532
 30
0.0
  0
LWPOLYLINE
  5
152
100
AcDbEntity
  8
ribs
 62
7
100
AcDbPolyline
 90
2
 70
0
 10
548.723740
 20
67.713852
 30
0.0
 10
553.127040
 20
60.986858
 30
0.0
  0
SPLINE
  5
153
100
AcDbEntity
  8
ribs
 62
7
100
AcDbSpline
 70
8
 71
3
 72
8
 73
4
 74
0
 40
0
 40
0
 40
0
 40
0
 40
1
 40
1
 40
1
 40
1
 10
264.473570
 20
220.415464
 30
0.0
 10
266.962120
 20
216.487614
 30
0.0
 10
269.866940
 20
212.258774
 30
0.0
 10
272.297900
 20
208.900224
 30
0.0
  0
LWPOLYLINE
  5
154
100
AcDbEntity
  8
ribs
 62
7
100
AcDbPolyline
 90
51
 70
0
 10
541.457990
 20
63.231532
 30
0.0
 10
532.423580
 20
64.789222
 30
0.0
 10
522.622270
 20
66.835512
 30
0.0
 10
512.921370
 20
68.947502
 30
0.0
 10
503.255150
 20
71.225632
 30
0.0
 10
493.789740
 20
73.635182
 30
0.0
 10
484.324330
 20
76.044742
 30
0.0
 10
474.928280
 20
78.786552
 30
0.0
 10
465.698370
 20
81.493682
 30
0.0
 10
456.537820
 20
84.533062
 30
0.0
 10
447.442960
 20
87.472032
 30
0.0
 10
438.417480
 20
90.743242
 30
0.0
 10
429.592830
 20
94.145902
 30
0.0
 10
420.868570
 20
97.614272
 30
0.0
 10
412.178980
 20
101.248794
 30
0.0
 10
403.624500
 20
105.115144
 30
0.0
 10
395.270800
 20
109.112924
 30
0.0
 10
391.028250
 20
111.212214
 30
0.0
 10
386.951800
 20
113.276844
 30
0.0
 10
382.809640
 20
115.441864
 30
0.0
 10
378.667490
 20
117.606874
 30
0.0
 10
374.625730
 20
119.837624
 30
0.0
 10
370.684370
 20
122.134084
 30
0.0
 10
366.743030
 20
124.430524
 30
0.0
 10
362.735940
 20
126.827394
 30
0.0
 10
358.894980
 20
129.189584
 30
0.0
 10
354.988330
 20
131.652154
 30
0.0
 10
351.182040
 20
134.180474
 30
0.0
 10
347.375780
 20
136.708774
 30
0.0
 10
343.669920
 20
139.302794
 30
0.0
 10
339.898320
 20
141.997214
 30
0.0
 10
336.292870
 20
144.656964
 30
0.0
 10
332.621680
 20
147.417104
 30
0.0
 10
329.016230
 20
150.076854
 30
0.0
 10
325.545860
 20
152.968444
 30
0.0
 10
321.975060
 20
155.794324
 30
0.0
 10
318.605080
 20
158.751594
 30
0.0
 10
315.068970
 20
161.743584
 30
0.0
 10
311.799410
 20
164.766654
 30
0.0
 10
308.529870
 20
167.789704
 30
0.0
 10
305.194590
 20
170.913144
 30
0.0
 10
301.959700
 20
174.102294
 30
0.0
 10
298.890940
 20
177.256754
 30
0.0
 10
295.756460
 20
180.511644
 30
0.0
 10
292.722370
 20
183.832234
 30
0.0
 10
289.688300
 20
187.152814
 30
0.0
 10
286.754610
 20
190.539134
 30
0.0
 10
284.058260
 20
193.978114
 30
0.0
 10
281.339660
 20
197.653934
 30
0.0
 10
292.669040
 20
205.167324
 30
0.0
 10
284.932790
 20
216.986214
 30
0.0
  0
SPLINE
  5
155
100
AcDbEntity
  8
ribs
 62
7
100
AcDbSpline
 70
8
 71
3
 72
8
 73
4
 74
0
 40
0
 40
0
 40
0
 40
0
 40
1
 40
1
 40
1
 40
1
 10
269.601110
 20
240.408894
 30
0.0
 10
265.421500
 20
237.664664
 30
0.0
 10
261.226260
 20
234.944164
 30
0.0
 10
257.055600
 20
232.186334
 30
0.0
  0
SPLINE
  5
156
100
AcDbEntity
  8
ribs
 62
7
100
AcDbSpline
 70
8
 71
3
 72
8
 73
4
 74
0
 40
0
 40
0
 40
0
 40
0
 40
1
 40
1
 40
1
 40
1
 10
257.055600
 20
232.186334
 30
0.0
 10
259.316590
 20
228.131694
 30
0.0
 10
261.933110
 20
224.296614
 30
0.0
 10
264.473520
 20
220.415544
 30
0.0
  0
SPLINE
  5
157
100
AcDbEntity
  8
ribs
 62
7
100
AcDbSpline
 70
8
 71
3
 72
8
 73
4
 74
0
 40
0
 40
0
 40
0
 40
0
 40
1
 40
1
 40
1
 40
1
 10
251.264150
 20
584.378574
 30
0.0
 10
245.815980
 20
591.677954
 30
0.0
 10
239.994180
 20
572.209334
 30
0.0
 10
239.049820
 20
568.638574
 30
0.0
  0
LWPOLYLINE
  5
158
100
AcDbEntity
  8
ribs
 62
7
100
AcDbPolyline
 90
2
 70
0
 10
272.297900
 20
208.900224
 30
0.0
 10
284.848280
 20
217.115334
 30
0.0
  0
SPLINE
  5
159
100
AcDbEntity
  8
ribs
 62
7
100
AcDbSpline
 70
8
 71
3
 72
8
 73
4
 74
0
 40
0
 40
0
 40
0
 40
0
 40
1
 40
1
 40
1
 40
1
 10
233.612690
 20
538.976874
 30
0.0
 10
232.642910
 20
538.999374
 30
0.0
 10
232.158320
 20
539.668324
 30
0.0
 10
231.238360
 20
537.979824
 30
0.0
  0
LWPOLYLINE
  5
15a
100
AcDbEntity
  8
ribs
 62
7
100
AcDbPolyline
 90
5
 70
0
 10
239.049820
 20
568.638574
 30
0.0
 10
236.370080
 20
558.709464
 30
0.0
 10
233.856480
 20
548.745694
 30
0.0
 10
238.241790
 20
542.006914
 30
0.0
 10
233.612690
 20
538.976874
 30
0.0
  0
SPLINE
  5
15b
100
AcDbEntity
  8
ribs
 62
7
100
AcDbSpline
 70
8
 71
3
 72
8
 73
4
 74
0
 40
0
 40
0
 40
0
 40
0
 40
1
 40
1
 40
1
 40
1
 10
250.166550
 20
244.626764
 30
0.0
 10
254.927790
 20
247.731264
 30
0.0
 10
257.290920
 20
249.346074
 30
0.0
 10
261.780030
 20
252.356684
 30
0.0
  0
LWPOLYLINE
  5
15c
100
AcDbEntity
  8
ribs
 62
7
100
AcDbPolyline
 90
49
 70
0
 10
231.238360
 20
537.979824
 30
0.0
 10
229.216020
 20
529.220144
 30
0.0
 10
227.219270
 20
519.445834
 30
0.0
 10
225.377460
 20
510.208604
 30
0.0
 10
223.601350
 20
500.871004
 30
0.0
 10
221.991380
 20
491.498724
 30
0.0
 10
220.547510
 20
482.091724
 30
0.0
 10
219.204060
 20
472.750464
 30
0.0
 10
218.092460
 20
463.274134
 30
0.0
 10
217.015510
 20
453.963914
 30
0.0
 10
216.170440
 20
444.518594
 30
0.0
 10
215.526170
 20
435.204724
 30
0.0
 10
214.982290
 20
425.956594
 30
0.0
 10
214.569860
 20
416.507624
 30
0.0
 10
214.458640
 20
407.255834
 30
0.0
 10
214.478840
 20
397.803244
 30
0.0
 10
214.699860
 20
388.482094
 30
0.0
 10
214.860600
 20
383.854364
 30
0.0
 10
215.087030
 20
379.126244
 30
0.0
 10
215.348090
 20
374.564244
 30
0.0
 10
215.674650
 20
369.901814
 30
0.0
 10
216.067210
 20
365.139024
 30
0.0
 10
216.494400
 20
360.542344
 30
0.0
 10
217.087760
 20
355.910964
 30
0.0
 10
217.580720
 20
351.213894
 30
0.0
 10
218.274490
 20
346.648234
 30
0.0
 10
218.867870
 20
342.016884
 30
0.0
 10
219.561630
 20
337.451244
 30
0.0
 10
220.421520
 20
332.850904
 30
0.0
 10
221.281410
 20
328.250594
 30
0.0
 10
222.241710
 20
323.715984
 30
0.0
 10
223.202010
 20
319.181374
 30
0.0
 10
224.162300
 20
314.646784
 30
0.0
 10
225.288730
 20
310.077494
 30
0.0
 10
226.515540
 20
305.573934
 30
0.0
 10
227.742370
 20
301.070354
 30
0.0
 10
229.069590
 20
296.632524
 30
0.0
 10
230.396820
 20
292.194674
 30
0.0
 10
231.890160
 20
287.722154
 30
0.0
 10
233.317800
 20
283.350014
 30
0.0
 10
234.911550
 20
278.943214
 30
0.0
 10
236.605710
 20
274.602124
 30
0.0
 10
238.299860
 20
270.261034
 30
0.0
 10
240.094420
 20
265.985674
 30
0.0
 10
241.954700
 20
261.609894
 30
0.0
 10
243.849660
 20
257.400244
 30
0.0
 10
245.910750
 20
253.155924
 30
0.0
 10
247.971840
 20
248.911594
 30
0.0
 10
250.166550
 20
244.626764
 30
0.0
  0
LWPOLYLINE
  5
15d
100
AcDbEntity
  8
ribs
 62
7
100
AcDbPolyline
 90
2
 70
0
 10
261.780030
 20
252.356684
 30
0.0
 10
269.610420
 20
240.394054
 30
0.0
  0
SPLINE
  5
15e
100
AcDbEntity
  8
ribs
 62
7
100
AcDbSpline
 70
8
 71
3
 72
8
 73
4
 74
0
 40
0
 40
0
 40
0
 40
0
 40
1
 40
1
 40
1
 40
1
 10
310.394190
 20
206.473324
 30
0.0
 10
303.207630
 20
214.389324
 30
0.0
 10
297.428430
 20
222.422484
 30
0.0
 10
291.665370
 20
230.713694
 30
0.0
  0
SPLINE
  5
15f
100
AcDbEntity
  8
ribs
 62
7
100
AcDbSpline
 70
8
 71
3
 72
8
 73
4
 74
0
 40
0
 40
0
 40
0
 40
0
 40
1
 40
1
 40
1
 40
1
 10
291.665370
 20
230.713694
 30
0.0
 10
289.474760
 20
234.188634
 30
0.0
 10
287.194390
 20
237.604224
 30
0.0
 10
284.917430
 20
241.022634
 30
0.0
  0
SPLINE
  5
160
100
AcDbEntity
  8
ribs
 62
7
100
AcDbSpline
 70
8
 71
3
 72
8
 73
4
 74
0
 40
0
 40
0
 40
0
 40
0
 40
1
 40
1
 40
1
 40
1
 10
284.917430
 20
241.022634
 30
0.0
 10
279.652770
 20
249.616004
 30
0.0
 10
274.763750
 20
258.237434
 30
0.0
 10
270.370290
 20
267.618884
 30
0.0
  0
LWPOLYLINE
  5
161
100
AcDbEntity
  8
ribs
 62
7
100
AcDbPolyline
 90
34
 70
0
 10
592.824720
 20
62.510929
 30
0.0
 10
577.929370
 20
85.267002
 30
0.0
 10
564.260870
 20
87.612312
 30
0.0
 10
554.204620
 20
89.259582
 30
0.0
 10
544.268240
 20
91.074012
 30
0.0
 10
534.366520
 20
93.054562
 30
0.0
 10
524.565210
 20
95.100852
 30
0.0
 10
514.964710
 20
97.278572
 30
0.0
 10
505.298510
 20
99.556682
 30
0.0
 10
495.867770
 20
102.132374
 30
0.0
 10
486.502780
 20
104.607644
 30
0.0
 10
477.272860
 20
107.314754
 30
0.0
 10
468.077620
 20
110.188004
 30
0.0
 10
459.083180
 20
113.192704
 30
0.0
 10
450.223840
 20
116.429234
 30
0.0
 10
441.364490
 20
119.665774
 30
0.0
 10
432.806360
 20
123.099474
 30
0.0
 10
424.282890
 20
126.699294
 30
0.0
 10
415.960240
 20
130.430554
 30
0.0
 10
407.672280
 20
134.327944
 30
0.0
 10
399.585130
 20
138.356784
 30
0.0
 10
391.633050
 20
142.617464
 30
0.0
 10
383.881800
 20
147.009564
 30
0.0
 10
376.331340
 20
151.533114
 30
0.0
 10
368.815540
 20
156.222814
 30
0.0
 10
361.600990
 20
161.109634
 30
0.0
 10
354.521490
 20
166.228334
 30
0.0
 10
347.542420
 20
171.412734
 30
0.0
 10
340.864560
 20
176.794304
 30
0.0
 10
334.321770
 20
182.407714
 30
0.0
 10
327.979790
 20
188.152554
 30
0.0
 10
321.939010
 20
194.094584
 30
0.0
 10
316.099060
 20
200.168034
 30
0.0
 10
310.394190
 20
206.473324
 30
0.0
  0
LWPOLYLINE
  5
162
100
AcDbEntity
  8
ribs
 62
7
100
AcDbPolyline
 90
34
 70
0
 10
270.370290
 20
267.618884
 30
0.0
 10
266.874280
 20
275.370054
 30
0.0
 10
263.644820
 20
283.152244
 30
0.0
 10
260.616130
 20
291.065864
 30
0.0
 10
257.888680
 20
299.176664
 30
0.0
 10
255.362010
 20
307.418884
 30
0.0
 10
253.101900
 20
315.692164
 30
0.0
 10
251.142970
 20
324.162594
 30
0.0
 10
249.284460
 20
332.698744
 30
0.0
 10
247.692470
 20
341.265964
 30
0.0
 10
246.401690
 20
350.030304
 30
0.0
 10
245.277040
 20
358.759964
 30
0.0
 10
244.353200
 20
367.621084
 30
0.0
 10
243.630120
 20
376.613634
 30
0.0
 10
243.173610
 20
385.637234
 30
0.0
 10
242.917910
 20
394.792254
 30
0.0
 10
242.828310
 20
403.912614
 30
0.0
 10
242.939550
 20
413.164384
 30
0.0
 10
243.216890
 20
422.381504
 30
0.0
 10
243.795430
 20
431.795774
 30
0.0
 10
244.374000
 20
441.210044
 30
0.0
 10
245.219080
 20
450.655354
 30
0.0
 10
246.264960
 20
460.232114
 30
0.0
 10
247.476980
 20
469.774164
 30
0.0
 10
248.955510
 20
479.347284
 30
0.0
 10
250.368330
 20
489.020774
 30
0.0
 10
252.148070
 20
498.791044
 30
0.0
 10
253.993550
 20
508.460914
 30
0.0
 10
256.039840
 20
518.262214
 30
0.0
 10
258.186500
 20
528.129244
 30
0.0
 10
260.499320
 20
537.961584
 30
0.0
 10
262.964840
 20
547.910894
 30
0.0
 10
266.320010
 20
561.432424
 30
0.0
 10
251.340460
 20
584.206004
 30
0.0
  0
SPLINE
  5
163
100
AcDbEntity
  8
ribs
 62
7
100
AcDbSpline
 70
8
 71
3
 72
8
 73
4
 74
0
 40
0
 40
0
 40
0
 40
0
 40
1
 40
1
 40
1
 40
1
 10
586.371920
 20
57.024220
 30
0.0
 10
588.322260
 20
57.151382
 30
0.0
 10
590.752310
 20
57.213096
 30
0.0
 10
592.057010
 20
58.194878
 30
0.0
  0
SPLINE
  5
164
100
AcDbEntity
  8
ribs
 62
7
100
AcDbSpline
 70
8
 71
3
 72
8
 73
4
 74
0
 40
0
 40
0
 40
0
 40
0
 40
1
 40
1
 40
1
 40
1
 10
592.057010
 20
58.194878
 30
0.0
 10
593.797100
 20
59.786032
 30
0.0
 10
593.556880
 20
61.199875
 30
0.0
 10
592.747920
 20
62.683308
 30
0.0
  0
LWPOLYLINE
  5
165
100
AcDbEntity
  8
ribs
 62
7
100
AcDbPolyline
 90
2
 70
0
 10
544.004390
 20
64.624962
 30
0.0
 10
548.723350
 20
67.713812
 30
0.0
  0
SPLINE
  5
166
100
AcDbEntity
  8
ribs
 62
7
100
AcDbSpline
 70
8
 71
3
 72
8
 73
4
 74
0
 40
0
 40
0
 40
0
 40
0
 40
1
 40
1
 40
1
 40
1
 10
573.435690
 20
57.786948
 30
0.0
 10
577.468350
 20
57.275037
 30
0.0
 10
581.515840
 20
57.019931
 30
0.0
 10
585.577310
 20
56.985715
 30
0.0
  0
LWPOLYLINE
  5
167
100
AcDbEntity
  8
ribs
 62
7
100
AcDbPolyline
 90
3
 70
0
 10
553.126630
 20
60.986797
 30
0.0
 10
563.263830
 20
59.303819
 30
0.0
 10
573.435690
 20
57.786948
 30
0.0
  0
SPLINE
  5
168
100
AcDbEntity
  8
ribs
 62
7
100
AcDbSpline
 70
8
 71
3
 72
8
 73
4
 74
0
 40
0
 40
0
 40
0
 40
0
 40
1
 40
1
 40
1
 40
1
 10
925.174290
 20
564.542624
 30
0.0
 10
926.627420
 20
565.181504
 30
0.0
 10
927.184460
 20
563.981594
 30
0.0
 10
927.614510
 20
562.969914
 30
0.0
  0
LWPOLYLINE
  5
169
100
AcDbEntity
  8
ribs
 62
7
100
AcDbPolyline
 90
2
 70
0
 10
920.207350
 20
567.214544
 30
0.0
 10
924.016330
 20
574.294994
 30
0.0
  0
SPLINE
  5
16a
100
AcDbEntity
  8
ribs
 62
7
100
AcDbSpline
 70
8
 71
3
 72
8
 73
4
 74
0
 40
0
 40
0
 40
0
 40
0
 40
1
 40
1
 40
1
 40
1
 10
921.721410
 20
244.544534
 30
0.0
 10
923.984820
 20
248.606234
 30
0.0
 10
926.313980
 20
253.177454
 30
0.0
 10
928.104590
 20
256.916794
 30
0.0
  0
LWPOLYLINE
  5
16b
100
AcDbEntity
  8
ribs
 62
7
100
AcDbPolyline
 90
51
 70
0
 10
927.614510
 20
562.969914
 30
0.0
 10
930.558540
 20
554.287734
 30
0.0
 10
933.439360
 20
544.698534
 30
0.0
 10
936.214230
 20
535.166074
 30
0.0
 10
938.826850
 20
525.584814
 30
0.0
 10
941.228240
 20
516.117334
 30
0.0
 10
943.629530
 20
506.649834
 30
0.0
 10
945.705650
 20
497.084564
 30
0.0
 10
947.733170
 20
487.681974
 30
0.0
 10
949.435510
 20
478.181704
 30
0.0
 10
951.194740
 20
468.787054
 30
0.0
 10
952.628880
 20
459.294804
 30
0.0
 10
953.851690
 20
449.916274
 30
0.0
 10
954.968840
 20
440.594544
 30
0.0
 10
955.923360
 20
431.223954
 30
0.0
 10
956.609470
 20
421.861474
 30
0.0
 10
957.084450
 20
412.612574
 30
0.0
 10
957.265170
 20
407.882514
 30
0.0
 10
957.396990
 20
403.314994
 30
0.0
 10
957.471890
 20
398.641704
 30
0.0
 10
957.547090
 20
393.968504
 30
0.0
 10
957.516290
 20
389.352064
 30
0.0
 10
957.379920
 20
384.792534
 30
0.0
 10
957.243540
 20
380.232944
 30
0.0
 10
957.050290
 20
375.567764
 30
0.0
 10
956.808250
 20
371.065054
 30
0.0
 10
956.509340
 20
366.456674
 30
0.0
 10
956.104860
 20
361.905234
 30
0.0
 10
955.700280
 20
357.353694
 30
0.0
 10
955.189940
 20
352.858994
 30
0.0
 10
954.622920
 20
348.258724
 30
0.0
 10
954.006920
 20
343.820814
 30
0.0
 10
953.334130
 20
339.277324
 30
0.0
 10
952.718230
 20
334.839514
 30
0.0
 10
951.834020
 20
330.409714
 30
0.0
 10
951.055670
 20
325.923134
 30
0.0
 10
950.065690
 20
321.550174
 30
0.0
 10
949.124710
 20
317.014684
 30
0.0
 10
948.029370
 20
312.698644
 30
0.0
 10
946.933730
 20
308.382474
 30
0.0
 10
945.781420
 20
303.960734
 30
0.0
 10
944.523340
 20
299.595804
 30
0.0
 10
943.216470
 20
295.393414
 30
0.0
 10
941.852830
 20
291.085364
 30
0.0
 10
940.383420
 20
286.834174
 30
0.0
 10
938.914110
 20
282.582974
 30
0.0
 10
937.338940
 20
278.388574
 30
0.0
 10
935.604350
 20
274.377684
 30
0.0
 10
933.672250
 20
270.234024
 30
0.0
 10
921.659930
 20
276.598854
 30
0.0
 10
914.967800
 20
264.158944
 30
0.0
  0
SPLINE
  5
16c
100
AcDbEntity
  8
ribs
 62
7
100
AcDbSpline
 70
8
 71
3
 72
8
 73
4
 74
0
 40
0
 40
0
 40
0
 40
0
 40
1
 40
1
 40
1
 40
1
 10
901.705630
 20
239.505414
 30
0.0
 10
906.113560
 20
237.145284
 30
0.0
 10
910.505450
 20
234.755194
 30
0.0
 10
914.920440
 20
232.408304
 30
0.0
  0
SPLINE
  5
16d
100
AcDbEntity
  8
ribs
 62
7
100
AcDbSpline
 70
8
 71
3
 72
8
 73
4
 74
0
 40
0
 40
0
 40
0
 40
0
 40
1
 40
1
 40
1
 40
1
 10
914.920440
 20
232.408304
 30
0.0
 10
917.403910
 20
236.330654
 30
0.0
 10
919.524720
 20
240.460564
 30
0.0
 10
921.722310
 20
244.545654
 30
0.0
  0
SPLINE
  5
16e
100
AcDbEntity
  8
ribs
 62
7
100
AcDbSpline
 70
8
 71
3
 72
8
 73
4
 74
0
 40
0
 40
0
 40
0
 40
0
 40
1
 40
1
 40
1
 40
1
 10
608.216420
 20
59.192640
 30
0.0
 10
604.403330
 20
50.920806
 30
0.0
 10
624.289560
 20
55.099105
 30
0.0
 10
627.878040
 20
55.973968
 30
0.0
  0
LWPOLYLINE
  5
16f
100
AcDbEntity
  8
ribs
 62
7
100
AcDbPolyline
 90
2
 70
0
 10
928.104590
 20
256.916794
 30
0.0
 10
914.895000
 20
264.022844
 30
0.0
  0
SPLINE
  5
170
100
AcDbEntity
  8
ribs
 62
7
100
AcDbSpline
 70
8
 71
3
 72
8
 73
4
 74
0
 40
0
 40
0
 40
0
 40
0
 40
1
 40
1
 40
1
 40
1
 10
656.537150
 20
65.356027
 30
0.0
 10
656.980280
 20
64.493137
 30
0.0
 10
656.623850
 20
63.747959
 30
0.0
 10
658.546700
 20
63.745690
 30
0.0
  0
LWPOLYLINE
  5
171
100
AcDbEntity
  8
ribs
 62
7
100
AcDbPolyline
 90
5
 70
0
 10
627.878040
 20
55.973968
 30
0.0
 10
637.881930
 20
58.359186
 30
0.0
 10
647.837070
 20
60.907046
 30
0.0
 10
651.664920
 20
67.977303
 30
0.0
 10
656.537150
 20
65.356027
 30
0.0
  0
SPLINE
  5
172
100
AcDbEntity
  8
ribs
 62
7
100
AcDbSpline
 70
8
 71
3
 72
8
 73
4
 74
0
 40
0
 40
0
 40
0
 40
0
 40
1
 40
1
 40
1
 40
1
 10
907.279200
 20
220.418754
 30
0.0
 10
902.278500
 20
223.120694
 30
0.0
 10
899.731220
 20
224.425814
 30
0.0
 10
894.942720
 20
226.933024
 30
0.0
  0
LWPOLYLINE
  5
173
100
AcDbEntity
  8
ribs
 62
7
100
AcDbPolyline
 90
49
 70
0
 10
658.546700
 20
63.745690
 30
0.0
 10
667.209240
 20
66.150362
 30
0.0
 10
676.751140
 20
69.061921
 30
0.0
 10
685.747060
 20
71.853101
 30
0.0
 10
694.799870
 20
74.750043
 30
0.0
 10
703.803880
 20
77.809550
 30
0.0
 10
712.759040
 20
81.031525
 30
0.0
 10
721.608490
 20
84.310291
 30
0.0
 10
730.466020
 20
87.857389
 30
0.0
 10
739.160990
 20
91.355586
 30
0.0
 10
747.864000
 20
95.122040
 30
0.0
 10
756.355630
 20
99.002157
 30
0.0
 10
764.741540
 20
102.939064
 30
0.0
 10
773.241210
 20
107.087424
 30
0.0
 10
781.423840
 20
111.406314
 30
0.0
 10
789.720180
 20
115.936584
 30
0.0
 10
797.805150
 20
120.580524
 30
0.0
 10
801.794740
 20
122.930834
 30
0.0
 10
805.841240
 20
125.386924
 30
0.0
 10
809.725230
 20
127.794214
 30
0.0
 10
813.666020
 20
130.307084
 30
0.0
 10
817.663710
 20
132.925734
 30
0.0
 10
821.498830
 20
135.495504
 30
0.0
 10
825.285150
 20
138.227814
 30
0.0
 10
829.177110
 20
140.903244
 30
0.0
 10
832.857770
 20
143.692444
 30
0.0
 10
836.644030
 20
146.424674
 30
0.0
 10
840.324690
 20
149.213884
 30
0.0
 10
843.956470
 20
152.165544
 30
0.0
 10
847.588260
 20
155.117214
 30
0.0
 10
851.114390
 20
158.125754
 30
0.0
 10
854.640520
 20
161.134304
 30
0.0
 10
858.166640
 20
164.142844
 30
0.0
 10
861.643950
 20
167.313954
 30
0.0
 10
865.015560
 20
170.541844
 30
0.0
 10
868.387160
 20
173.769744
 30
0.0
 10
871.653100
 20
177.054514
 30
0.0
 10
874.919040
 20
180.339294
 30
0.0
 10
878.136160
 20
183.786514
 30
0.0
 10
881.296430
 20
187.128164
 30
0.0
 10
884.407840
 20
190.632284
 30
0.0
 10
887.413610
 20
194.193294
 30
0.0
 10
890.419350
 20
197.754284
 30
0.0
 10
893.319410
 20
201.372084
 30
0.0
 10
896.276340
 20
205.095664
 30
0.0
 10
899.070710
 20
208.770334
 30
0.0
 10
901.816310
 20
212.607594
 30
0.0
 10
904.561860
 20
216.444834
 30
0.0
 10
907.279200
 20
220.418754
 30
0.0
  0
LWPOLYLINE
  5
174
100
AcDbEntity
  8
ribs
 62
7
100
AcDbPolyline
 90
2
 70
0
 10
894.942720
 20
226.933024
 30
0.0
 10
901.716220
 20
239.524354
 30
0.0
  0
SPLINE
  5
175
100
AcDbEntity
  8
ribs
 62
7
100
AcDbSpline
 70
8
 71
3
 72
8
 73
4
 74
0
 40
0
 40
0
 40
0
 40
0
 40
1
 40
1
 40
1
 40
1
 10
912.057610
 20
291.554804
 30
0.0
 10
908.532570
 20
281.461074
 30
0.0
 10
904.232700
 20
272.548014
 30
0.0
 10
899.698360
 20
263.525964
 30
0.0
  0
SPLINE
  5
176
100
AcDbEntity
  8
ribs
 62
7
100
AcDbSpline
 70
8
 71
3
 72
8
 73
4
 74
0
 40
0
 40
0
 40
0
 40
0
 40
1
 40
1
 40
1
 40
1
 10
899.698360
 20
263.525964
 30
0.0
 10
897.690640
 20
259.942284
 30
0.0
 10
895.778020
 20
256.307904
 30
0.0
 10
893.861250
 20
252.675284
 30
0.0
  0
SPLINE
  5
177
100
AcDbEntity
  8
ribs
 62
7
100
AcDbSpline
 70
8
 71
3
 72
8
 73
4
 74
0
 40
0
 40
0
 40
0
 40
0
 40
1
 40
1
 40
1
 40
1
 10
893.861250
 20
252.675284
 30
0.0
 10
888.823520
 20
243.946924
 30
0.0
 10
883.581850
 20
235.535374
 30
0.0
 10
877.435740
 20
227.196324
 30
0.0
  0
LWPOLYLINE
  5
178
100
AcDbEntity
  8
ribs
 62
7
100
AcDbPolyline
 90
34
 70
0
 10
903.726160
 20
608.450004
 30
0.0
 10
890.841140
 20
584.498254
 30
0.0
 10
895.305290
 20
571.368074
 30
0.0
 10
898.658570
 20
561.745364
 30
0.0
 10
901.807690
 20
552.148164
 30
0.0
 10
904.794400
 20
542.502094
 30
0.0
 10
907.675200
 20
532.912824
 30
0.0
 10
910.344660
 20
523.437284
 30
0.0
 10
912.957380
 20
513.856144
 30
0.0
 10
915.196190
 20
504.339764
 30
0.0
 10
917.491760
 20
494.929114
 30
0.0
 10
919.519180
 20
485.526504
 30
0.0
 10
921.384160
 20
476.075074
 30
0.0
 10
923.037620
 20
466.737264
 30
0.0
 10
924.422980
 20
457.407504
 30
0.0
 10
925.808330
 20
448.077734
 30
0.0
 10
926.876590
 20
438.918624
 30
0.0
 10
927.782510
 20
429.710614
 30
0.0
 10
928.481090
 20
420.616574
 30
0.0
 10
929.012940
 20
411.473504
 30
0.0
 10
929.333470
 20
402.444004
 30
0.0
 10
929.385770
 20
393.422574
 30
0.0
 10
929.226670
 20
384.514804
 30
0.0
 10
928.856420
 20
375.720884
 30
0.0
 10
928.323360
 20
366.877944
 30
0.0
 10
927.473490
 20
358.205684
 30
0.0
 10
926.355290
 20
349.541404
 30
0.0
 10
925.131480
 20
340.934054
 30
0.0
 10
923.590540
 20
332.497134
 30
0.0
 10
921.781460
 20
324.068304
 30
0.0
 10
919.761000
 20
315.753144
 30
0.0
 10
917.423490
 20
307.608524
 30
0.0
 10
914.874620
 20
299.577584
 30
0.0
 10
912.057610
 20
291.554804
 30
0.0
  0
LWPOLYLINE
  5
179
100
AcDbEntity
  8
ribs
 62
7
100
AcDbPolyline
 90
34
 70
0
 10
877.435740
 20
227.196324
 30
0.0
 10
872.293730
 20
220.424134
 30
0.0
 10
866.997210
 20
213.871344
 30
0.0
 10
861.489330
 20
207.432214
 30
0.0
 10
855.664460
 20
201.163714
 30
0.0
 10
849.628220
 20
195.008914
 30
0.0
 10
843.437460
 20
189.073444
 30
0.0
 10
836.929630
 20
183.308514
 30
0.0
 10
830.316160
 20
177.600484
 30
0.0
 10
823.548160
 20
172.111784
 30
0.0
 10
816.463140
 20
166.793644
 30
0.0
 10
809.329290
 20
161.638064
 30
0.0
 10
801.984070
 20
156.596154
 30
0.0
 10
794.427520
 20
151.668004
 30
0.0
 10
786.716450
 20
146.959204
 30
0.0
 10
778.794000
 20
142.364054
 30
0.0
 10
770.822750
 20
137.931494
 30
0.0
 10
762.640120
 20
133.612574
 30
0.0
 10
754.408670
 20
129.456244
 30
0.0
 10
745.860190
 20
125.470434
 30
0.0
 10
737.311710
 20
121.484654
 30
0.0
 10
728.608690
 20
117.718194
 30
0.0
 10
719.694360
 20
114.065524
 30
0.0
 10
710.731170
 20
110.575294
 30
0.0
 10
701.613500
 20
107.304514
 30
0.0
 10
692.438940
 20
103.927974
 30
0.0
 10
683.004230
 20
100.827744
 30
0.0
 10
673.626370
 20
97.833205
 30
0.0
 10
664.037140
 20
94.952314
 30
0.0
 10
654.342210
 20
92.128224
 30
0.0
 10
644.598500
 20
89.466772
 30
0.0
 10
634.679020
 20
86.883570
 30
0.0
 10
621.196010
 20
83.376837
 30
0.0
 10
608.335840
 20
59.342713
 30
0.0
  0
SPLINE
  5
17a
100
AcDbEntity
  8
ribs
 62
7
100
AcDbSpline
 70
8
 71
3
 72
8
 73
4
 74
0
 40
0
 40
0
 40
0
 40
0
 40
1
 40
1
 40
1
 40
1
 10
911.631900
 20
605.399174
 30
0.0
 10
910.589120
 20
607.052264
 30
0.0
 10
909.374860
 20
609.158114
 30
0.0
 10
907.889290
 20
609.835814
 30
0.0
  0
SPLINE
  5
17b
100
AcDbEntity
  8
ribs
 62
7
100
AcDbSpline
 70
8
 71
3
 72
8
 73
4
 74
0
 40
0
 40
0
 40
0
 40
0
 40
1
 40
1
 40
1
 40
1
 10
907.889290
 20
609.835814
 30
0.0
 10
905.660460
 20
610.605264
 30
0.0
 10
904.532790
 20
609.719564
 30
0.0
 10
903.615470
 20
608.300234
 30
0.0
  0
LWPOLYLINE
  5
17c
100
AcDbEntity
  8
ribs
 62
7
100
AcDbPolyline
 90
2
 70
0
 10
925.178660
 20
564.542884
 30
0.0
 10
920.211640
 20
567.214514
 30
0.0
  0
SPLINE
  5
17d
100
AcDbEntity
  8
ribs
 62
7
100
AcDbSpline
 70
8
 71
3
 72
8
 73
4
 74
0
 40
0
 40
0
 40
0
 40
0
 40
1
 40
1
 40
1
 40
1
 10
917.137180
 20
593.668074
 30
0.0
 10
915.661830
 20
597.455914
 30
0.0
 10
913.953780
 20
601.134184
 30
0.0
 10
912.045080
 20
604.719404
 30
0.0
  0
SPLINE
  5
17e
100
AcDbEntity
  8
ribs
 62
7
100
AcDbSpline
 70
8
 71
3
 72
8
 73
4
 74
0
 40
0
 40
0
 40
0
 40
0
 40
1
 40
1
 40
1
 40
1
 10
587.026965
 20
122.737626
 30
0.0
 10
759.207285
 20
122.737626
 30
0.0
 10
898.786965
 20
262.317306
 30
0.0
 10
898.786965
 20
434.497626
 30
0.0
  0
SPLINE
  5
17f
100
AcDbEntity
  8
ribs
 62
7
100
AcDbSpline
 70
8
 71
3
 72
8
 73
4
 74
0
 40
0
 40
0
 40
0
 40
0
 40
1
 40
1
 40
1
 40
1
 10
898.786965
 20
434.497626
 30
0.0
 10
898.786965
 20
606.677946
 30
0.0
 10
759.207285
 20
746.257626
 30
0.0
 10
587.026965
 20
746.257626
 30
0.0
  0
SPLINE
  5
180
100
AcDbEntity
  8
ribs
 62
7
100
AcDbSpline
 70
8
 71
3
 72
8
 73
4
 74
0
 40
0
 40
0
 40
0
 40
0
 40
1
 40
1
 40
1
 40
1
 10
587.026965
 20
746.257626
 30
0.0
 10
414.846645
 20
746.257626
 30
0.0
 10
275.266965
 20
606.677946
 30
0.0
 10
275.266965
 20
434.497626
 30
0.0
  0
SPLINE
  5
181
100
AcDbEntity
  8
ribs
 62
7
100
AcDbSpline
 70
8
 71
3
 72
8
 73
4
 74
0
 40
0
 40
0
 40
0
 40
0
 40
1
 40
1
 40
1
 40
1
 10
275.266965
 20
434.497626
 30
0.0
 10
275.266965
 20
262.317306
 30
0.0
 10
414.846645
 20
122.737626
 30
0.0
 10
587.026965
 20
122.737626
 30
0.0
  0
LWPOLYLINE
  5
182
100
AcDbEntity
  8
ribs
 62
7
100
AcDbPolyline
 90
3
 70
0
 10
924.020530
 20
574.294884
 30
0.0
 10
920.660070
 20
584.005894
 30
0.0
 10
917.137180
 20
593.668074
 30
0.0
  0
SPLINE
  5
183
100
AcDbEntity
  8
ribs
 62
7
100
AcDbSpline
 70
8
 71
3
 72
8
 73
4
 74
0
 40
0
 40
0
 40
0
 40
0
 40
1
 40
1
 40
1
 40
1
 10
587.026965
 20
151.177626
 30
0.0
 10
743.500245
 20
151.177626
 30
0.0
 10
870.346965
 20
278.024346
 30
0.0
 10
870.346965
 20
434.497626
 30
0.0
  0
SPLINE
  5
184
100
AcDbEntity
  8
ribs
 62
7
100
AcDbSpline
 70
8
 71
3
 72
8
 73
4
 74
0
 40
0
 40
0
 40
0
 40
0
 40
1
 40
1
 40
1
 40
1
 10
870.346965
 20
434.497626
 30
0.0
 10
870.346965
 20
590.970906
 30
0.0
 10
743.500245
 20
717.817626
 30
0.0
 10
587.026965
 20
717.817626
 30
0.0
  0
SPLINE
  5
185
100
AcDbEntity
  8
ribs
 62
7
100
AcDbSpline
 70
8
 71
3
 72
8
 73
4
 74
0
 40
0
 40
0
 40
0
 40
0
 40
1
 40
1
 40
1
 40
1
 10
587.026965
 20
717.817626
 30
0.0
 10
430.553685
 20
717.817626
 30
0.0
 10
303.706965
 20
590.970906
 30
0.0
 10
303.706965
 20
434.497626
 30
0.0
  0
SPLINE
  5
186
100
AcDbEntity
  8
ribs
 62
7
100
AcDbSpline
 70
8
 71
3
 72
8
 73
4
 74
0
 40
0
 40
0
 40
0
 40
0
 40
1
 40
1
 40
1
 40
1
 10
303.706965
 20
434.497626
 30
0.0
 10
303.706965
 20
278.024346
 30
0.0
 10
430.553685
 20
151.177626
 30
0.0
 10
587.026965
 20
151.177626
 30
0.0
  0
LWPOLYLINE
  5
187
100
AcDbEntity
  8
ribs
 62
7
100
AcDbPolyline
 90
2
 70
1
 10
587.026965
 20
122.737626
 30
0.0
 10
587.026965
 20
122.737626
 30
0.0
  0
SPLINE
  5
188
100
AcDbEntity
  8
ribs
 62
7
100
AcDbSpline
 70
8
 71
3
 72
8
 73
4
 74
0
 40
0
 40
0
 40
0
 40
0
 40
1
 40
1
 40
1
 40
1
 10
356.065540
 20
766.709584
 30
0.0
 10
363.885890
 20
766.709584
 30
0.0
 10
370.225540
 20
773.049234
 30
0.0
 10
370.225540
 20
780.869584
 30
0.0
  0
SPLINE
  5
189
100
AcDbEntity
  8
ribs
 62
7
100
AcDbSpline
 70
8
 71
3
 72
8
 73
4
 74
0
 40
0
 40
0
 40
0
 40
0
 40
1
 40
1
 40
1
 40
1
 10
370.225540
 20
780.869584
 30
0.0
 10
370.225540
 20
788.689934
 30
0.0
 10
363.885890
 20
795.029584
 30
0.0
 10
356.065540
 20
795.029584
 30
0.0
  0
SPLINE
  5
18a
100
AcDbEntity
  8
ribs
 62
7
100
AcDbSpline
 70
8
 71
3
 72
8
 73
4
 74
0
 40
0
 40
0
 40
0
 40
0
 40
1
 40
1
 40
1
 40
1
 10
356.065540
 20
795.029584
 30
0.0
 10
348.245190
 20
795.029584
 30
0.0
 10
341.905540
 20
788.689934
 30
0.0
 10
341.905540
 20
780.869584
 30
0.0
  0
SPLINE
  5
18b
100
AcDbEntity
  8
ribs
 62
7
100
AcDbSpline
 70
8
 71
3
 72
8
 73
4
 74
0
 40
0
 40
0
 40
0
 40
0
 40
1
 40
1
 40
1
 40
1
 10
341.905540
 20
780.869584
 30
0.0
 10
341.905540
 20
773.049234
 30
0.0
 10
348.245190
 20
766.709584
 30
0.0
 10
356.065540
 20
766.709584
 30
0.0
  0
LWPOLYLINE
  5
18c
100
AcDbEntity
  8
ribs
 62
7
100
AcDbPolyline
 90
2
 70
1
 10
587.026965
 20
151.177626
 30
0.0
 10
587.026965
 20
151.177626
 30
0.0
  0
SPLINE
  5
18d
100
AcDbEntity
  8
ribs
 62
7
100
AcDbSpline
 70
8
 71
3
 72
8
 73
4
 74
0
 40
0
 40
0
 40
0
 40
0
 40
1
 40
1
 40
1
 40
1
 10
356.065540
 20
809.189584
 30
0.0
 10
340.424830
 20
809.189584
 30
0.0
 10
327.745540
 20
796.510284
 30
0.0
 10
327.745540
 20
780.869584
 30
0.0
  0
SPLINE
  5
18e
100
AcDbEntity
  8
ribs
 62
7
100
AcDbSpline
 70
8
 71
3
 72
8
 73
4
 74
0
 40
0
 40
0
 40
0
 40
0
 40
1
 40
1
 40
1
 40
1
 10
327.745540
 20
780.869584
 30
0.0
 10
327.745540
 20
765.228884
 30
0.0
 10
340.424830
 20
752.549584
 30
0.0
 10
356.065540
 20
752.549584
 30
0.0
  0
SPLINE
  5
18f
100
AcDbEntity
  8
ribs
 62
7
100
AcDbSpline
 70
8
 71
3
 72
8
 73
4
 74
0
 40
0
 40
0
 40
0
 40
0
 40
1
 40
1
 40
1
 40
1
 10
356.065540
 20
752.549584
 30
0.0
 10
371.706240
 20
752.549584
 30
0.0
 10
384.385540
 20
765.228884
 30
0.0
 10
384.385540
 20
780.869584
 30
0.0
  0
SPLINE
  5
190
100
AcDbEntity
  8
ribs
 62
7
100
AcDbSpline
 70
8
 71
3
 72
8
 73
4
 74
0
 40
0
 40
0
 40
0
 40
0
 40
1
 40
1
 40
1
 40
1
 10
384.385540
 20
780.869584
 30
0.0
 10
384.385540
 20
796.510284
 30
0.0
 10
371.706240
 20
809.189584
 30
0.0
 10
356.065540
 20
809.189584
 30
0.0
  0
LWPOLYLINE
  5
191
100
AcDbEntity
  8
ribs
 62
7
100
AcDbPolyline
 90
2
 70
1
 10
356.065540
 20
766.709584
 30
0.0
 10
356.065540
 20
766.709584
 30
0.0
  0
SPLINE
  5
192
100
AcDbEntity
  8
ribs
 62
7
100
AcDbSpline
 70
8
 71
3
 72
8
 73
4
 74
0
 40
0
 40
0
 40
0
 40
0
 40
1
 40
1
 40
1
 40
1
 10
354.070900
 20
771.205134
 30
0.0
 10
354.073900
 20
771.530344
 30
0.0
 10
353.958810
 20
771.973214
 30
0.0
 10
354.437740
 20
771.822284
 30
0.0
  0
SPLINE
  5
193
100
AcDbEntity
  8
ribs
 62
7
100
AcDbSpline
 70
8
 71
3
 72
8
 73
4
 74
0
 40
0
 40
0
 40
0
 40
0
 40
1
 40
1
 40
1
 40
1
 10
354.437740
 20
771.822284
 30
0.0
 10
354.681280
 20
771.885284
 30
0.0
 10
355.184760
 20
771.688414
 30
0.0
 10
355.252670
 20
771.927094
 30
0.0
  0
SPLINE
  5
194
100
AcDbEntity
  8
ribs
 62
7
100
AcDbSpline
 70
8
 71
3
 72
8
 73
4
 74
0
 40
0
 40
0
 40
0
 40
0
 40
1
 40
1
 40
1
 40
1
 10
355.252670
 20
771.927094
 30
0.0
 10
355.252670
 20
772.391134
 30
0.0
 10
355.252670
 20
772.855164
 30
0.0
 10
355.252670
 20
773.319204
 30
0.0
  0
SPLINE
  5
195
100
AcDbEntity
  8
ribs
 62
7
100
AcDbSpline
 70
8
 71
3
 72
8
 73
4
 74
0
 40
0
 40
0
 40
0
 40
0
 40
1
 40
1
 40
1
 40
1
 10
355.252670
 20
773.319204
 30
0.0
 10
355.699120
 20
773.319204
 30
0.0
 10
356.145570
 20
773.319204
 30
0.0
 10
356.592020
 20
773.319204
 30
0.0
  0
SPLINE
  5
196
100
AcDbEntity
  8
ribs
 62
7
100
AcDbSpline
 70
8
 71
3
 72
8
 73
4
 74
0
 40
0
 40
0
 40
0
 40
0
 40
1
 40
1
 40
1
 40
1
 10
356.592020
 20
773.319204
 30
0.0
 10
356.592020
 20
772.820234
 30
0.0
 10
356.592020
 20
772.321254
 30
0.0
 10
356.592020
 20
771.822284
 30
0.0
  0
SPLINE
  5
197
100
AcDbEntity
  8
ribs
 62
7
100
AcDbSpline
 70
8
 71
3
 72
8
 73
4
 74
0
 40
0
 40
0
 40
0
 40
0
 40
1
 40
1
 40
1
 40
1
 10
356.592020
 20
771.822284
 30
0.0
 10
356.985940
 20
771.822284
 30
0.0
 10
357.379870
 20
771.822284
 30
0.0
 10
357.773790
 20
771.822284
 30
0.0
  0
SPLINE
  5
198
100
AcDbEntity
  8
ribs
 62
7
100
AcDbSpline
 70
8
 71
3
 72
8
 73
4
 74
0
 40
0
 40
0
 40
0
 40
0
 40
1
 40
1
 40
1
 40
1
 10
357.773790
 20
771.822284
 30
0.0
 10
357.773790
 20
772.234044
 30
0.0
 10
357.773790
 20
772.645814
 30
0.0
 10
357.773790
 20
773.057574
 30
0.0
  0
SPLINE
  5
199
100
AcDbEntity
  8
ribs
 62
7
100
AcDbSpline
 70
8
 71
3
 72
8
 73
4
 74
0
 40
0
 40
0
 40
0
 40
0
 40
1
 40
1
 40
1
 40
1
 10
357.773790
 20
773.057574
 30
0.0
 10
358.172090
 20
773.052574
 30
0.0
 10
358.570390
 20
773.048574
 30
0.0
 10
358.968690
 20
773.043574
 30
0.0
  0
SPLINE
  5
19a
100
AcDbEntity
  8
ribs
 62
7
100
AcDbSpline
 70
8
 71
3
 72
8
 73
4
 74
0
 40
0
 40
0
 40
0
 40
0
 40
1
 40
1
 40
1
 40
1
 10
358.968690
 20
773.043574
 30
0.0
 10
358.973690
 20
772.636514
 30
0.0
 10
358.977690
 20
772.229464
 30
0.0
 10
358.982690
 20
771.822404
 30
0.0
  0
SPLINE
  5
19b
100
AcDbEntity
  8
ribs
 62
7
100
AcDbSpline
 70
8
 71
3
 72
8
 73
4
 74
0
 40
0
 40
0
 40
0
 40
0
 40
1
 40
1
 40
1
 40
1
 10
358.982690
 20
771.822404
 30
0.0
 10
358.579690
 20
771.822404
 30
0.0
 10
358.176690
 20
771.822404
 30
0.0
 10
357.773690
 20
771.822404
 30
0.0
  0
SPLINE
  5
19c
100
AcDbEntity
  8
ribs
 62
7
100
AcDbSpline
 70
8
 71
3
 72
8
 73
4
 74
0
 40
0
 40
0
 40
0
 40
0
 40
1
 40
1
 40
1
 40
1
 10
357.773690
 20
771.822404
 30
0.0
 10
357.773690
 20
771.410974
 30
0.0
 10
357.773690
 20
770.999544
 30
0.0
 10
357.773690
 20
770.588114
 30
0.0
  0
SPLINE
  5
19d
100
AcDbEntity
  8
ribs
 62
7
100
AcDbSpline
 70
8
 71
3
 72
8
 73
4
 74
0
 40
0
 40
0
 40
0
 40
0
 40
1
 40
1
 40
1
 40
1
 10
357.773690
 20
770.588114
 30
0.0
 10
356.539390
 20
770.588114
 30
0.0
 10
355.305100
 20
770.588114
 30
0.0
 10
354.070800
 20
770.588114
 30
0.0
  0
SPLINE
  5
19e
100
AcDbEntity
  8
ribs
 62
7
100
AcDbSpline
 70
8
 71
3
 72
8
 73
4
 74
0
 40
0
 40
0
 40
0
 40
0
 40
1
 40
1
 40
1
 40
1
 10
354.070800
 20
770.588114
 30
0.0
 10
354.070870
 20
770.793694
 30
0.0
 10
354.070670
 20
771.000014
 30
0.0
 10
354.070900
 20
771.205134
 30
0.0
  0
LWPOLYLINE
  5
19f
100
AcDbEntity
  8
ribs
 62
7
100
AcDbPolyline
 90
2
 70
1
 10
356.065540
 20
809.189584
 30
0.0
 10
356.065540
 20
809.189584
 30
0.0
  0
SPLINE
  5
1a0
100
AcDbEntity
  8
ribs
 62
7
100
AcDbSpline
 70
8
 71
3
 72
8
 73
4
 74
0
 40
0
 40
0
 40
0
 40
0
 40
1
 40
1
 40
1
 40
1
 10
352.810340
 20
772.439434
 30
0.0
 10
352.807340
 20
772.764644
 30
0.0
 10
352.922430
 20
773.207514
 30
0.0
 10
352.443500
 20
773.056584
 30
0.0
  0
SPLINE
  5
1a1
100
AcDbEntity
  8
ribs
 62
7
100
AcDbSpline
 70
8
 71
3
 72
8
 73
4
 74
0
 40
0
 40
0
 40
0
 40
0
 40
1
 40
1
 40
1
 40
1
 10
352.443500
 20
773.056584
 30
0.0
 10
352.181120
 20
773.118284
 30
0.0
 10
351.665740
 20
772.927004
 30
0.0
 10
351.576040
 20
773.161394
 30
0.0
  0
SPLINE
  5
1a2
100
AcDbEntity
  8
ribs
 62
7
100
AcDbSpline
 70
8
 71
3
 72
8
 73
4
 74
0
 40
0
 40
0
 40
0
 40
0
 40
1
 40
1
 40
1
 40
1
 10
351.576040
 20
773.161394
 30
0.0
 10
351.576040
 20
773.546644
 30
0.0
 10
351.576040
 20
773.931894
 30
0.0
 10
351.576040
 20
774.317144
 30
0.0
  0
SPLINE
  5
1a3
100
AcDbEntity
  8
ribs
 62
7
100
AcDbSpline
 70
8
 71
3
 72
8
 73
4
 74
0
 40
0
 40
0
 40
0
 40
0
 40
1
 40
1
 40
1
 40
1
 10
351.576040
 20
774.317144
 30
0.0
 10
351.216820
 20
774.399944
 30
0.0
 10
350.460630
 20
774.100924
 30
0.0
 10
350.394250
 20
774.507554
 30
0.0
  0
SPLINE
  5
1a4
100
AcDbEntity
  8
ribs
 62
7
100
AcDbSpline
 70
8
 71
3
 72
8
 73
4
 74
0
 40
0
 40
0
 40
0
 40
0
 40
1
 40
1
 40
1
 40
1
 10
350.394250
 20
774.507554
 30
0.0
 10
350.263720
 20
774.817254
 30
0.0
 10
350.627640
 20
775.668754
 30
0.0
 10
350.097820
 20
775.577764
 30
0.0
  0
SPLINE
  5
1a5
100
AcDbEntity
  8
ribs
 62
7
100
AcDbSpline
 70
8
 71
3
 72
8
 73
4
 74
0
 40
0
 40
0
 40
0
 40
0
 40
1
 40
1
 40
1
 40
1
 10
350.097820
 20
775.577764
 30
0.0
 10
349.768040
 20
775.577764
 30
0.0
 10
349.438250
 20
775.577764
 30
0.0
 10
349.108460
 20
775.577764
 30
0.0
  0
SPLINE
  5
1a6
100
AcDbEntity
  8
ribs
 62
7
100
AcDbSpline
 70
8
 71
3
 72
8
 73
4
 74
0
 40
0
 40
0
 40
0
 40
0
 40
1
 40
1
 40
1
 40
1
 10
349.108460
 20
775.577764
 30
0.0
 10
349.103460
 20
775.984824
 30
0.0
 10
349.099460
 20
776.391874
 30
0.0
 10
349.094460
 20
776.798934
 30
0.0
  0
SPLINE
  5
1a7
100
AcDbEntity
  8
ribs
 62
7
100
AcDbSpline
 70
8
 71
3
 72
8
 73
4
 74
0
 40
0
 40
0
 40
0
 40
0
 40
1
 40
1
 40
1
 40
1
 10
349.094460
 20
776.798934
 30
0.0
 10
348.687730
 20
776.803934
 30
0.0
 10
348.280990
 20
776.807934
 30
0.0
 10
347.874260
 20
776.812934
 30
0.0
  0
SPLINE
  5
1a8
100
AcDbEntity
  8
ribs
 62
7
100
AcDbSpline
 70
8
 71
3
 72
8
 73
4
 74
0
 40
0
 40
0
 40
0
 40
0
 40
1
 40
1
 40
1
 40
1
 10
347.874260
 20
776.812934
 30
0.0
 10
347.869260
 20
777.219664
 30
0.0
 10
347.865260
 20
777.626404
 30
0.0
 10
347.860260
 20
778.033134
 30
0.0
  0
SPLINE
  5
1a9
100
AcDbEntity
  8
ribs
 62
7
100
AcDbSpline
 70
8
 71
3
 72
8
 73
4
 74
0
 40
0
 40
0
 40
0
 40
0
 40
1
 40
1
 40
1
 40
1
 10
347.860260
 20
778.033134
 30
0.0
 10
347.409440
 20
778.038134
 30
0.0
 10
346.958610
 20
778.042134
 30
0.0
 10
346.507790
 20
778.047134
 30
0.0
  0
SPLINE
  5
1aa
100
AcDbEntity
  8
ribs
 62
7
100
AcDbSpline
 70
8
 71
3
 72
8
 73
4
 74
0
 40
0
 40
0
 40
0
 40
0
 40
1
 40
1
 40
1
 40
1
 10
346.507790
 20
778.047134
 30
0.0
 10
346.507790
 20
778.458274
 30
0.0
 10
346.507790
 20
778.869404
 30
0.0
 10
346.507790
 20
779.280544
 30
0.0
  0
SPLINE
  5
1ab
100
AcDbEntity
  8
ribs
 62
7
100
AcDbSpline
 70
8
 71
3
 72
8
 73
4
 74
0
 40
0
 40
0
 40
0
 40
0
 40
1
 40
1
 40
1
 40
1
 10
346.507790
 20
779.280544
 30
0.0
 10
346.962990
 20
779.280544
 30
0.0
 10
347.418200
 20
779.280544
 30
0.0
 10
347.873400
 20
779.280544
 30
0.0
  0
SPLINE
  5
1ac
100
AcDbEntity
  8
ribs
 62
7
100
AcDbSpline
 70
8
 71
3
 72
8
 73
4
 74
0
 40
0
 40
0
 40
0
 40
0
 40
1
 40
1
 40
1
 40
1
 10
347.873400
 20
779.280544
 30
0.0
 10
347.873400
 20
779.700734
 30
0.0
 10
347.873400
 20
780.120914
 30
0.0
 10
347.873400
 20
780.541104
 30
0.0
  0
SPLINE
  5
1ad
100
AcDbEntity
  8
ribs
 62
7
100
AcDbSpline
 70
8
 71
3
 72
8
 73
4
 74
0
 40
0
 40
0
 40
0
 40
0
 40
1
 40
1
 40
1
 40
1
 10
347.873400
 20
780.541104
 30
0.0
 10
348.284830
 20
780.541104
 30
0.0
 10
348.696260
 20
780.541104
 30
0.0
 10
349.107690
 20
780.541104
 30
0.0
  0
SPLINE
  5
1ae
100
AcDbEntity
  8
ribs
 62
7
100
AcDbSpline
 70
8
 71
3
 72
8
 73
4
 74
0
 40
0
 40
0
 40
0
 40
0
 40
1
 40
1
 40
1
 40
1
 10
349.107690
 20
780.541104
 30
0.0
 10
349.107690
 20
780.943784
 30
0.0
 10
349.107690
 20
781.346464
 30
0.0
 10
349.107690
 20
781.749144
 30
0.0
  0
SPLINE
  5
1af
100
AcDbEntity
  8
ribs
 62
7
100
AcDbSpline
 70
8
 71
3
 72
8
 73
4
 74
0
 40
0
 40
0
 40
0
 40
0
 40
1
 40
1
 40
1
 40
1
 10
349.107690
 20
781.749144
 30
0.0
 10
348.696260
 20
781.749144
 30
0.0
 10
348.284830
 20
781.749144
 30
0.0
 10
347.873400
 20
781.749144
 30
0.0
  0
SPLINE
  5
1b0
100
AcDbEntity
  8
ribs
 62
7
100
AcDbSpline
 70
8
 71
3
 72
8
 73
4
 74
0
 40
0
 40
0
 40
0
 40
0
 40
1
 40
1
 40
1
 40
1
 10
347.873400
 20
781.749144
 30
0.0
 10
347.873400
 20
781.357784
 30
0.0
 10
347.873400
 20
780.966434
 30
0.0
 10
347.873400
 20
780.575074
 30
0.0
  0
SPLINE
  5
1b1
100
AcDbEntity
  8
ribs
 62
7
100
AcDbSpline
 70
8
 71
3
 72
8
 73
4
 74
0
 40
0
 40
0
 40
0
 40
0
 40
1
 40
1
 40
1
 40
1
 10
347.873400
 20
780.575074
 30
0.0
 10
347.465930
 20
780.600374
 30
0.0
 10
346.763840
 20
780.397344
 30
0.0
 10
346.534050
 20
780.645874
 30
0.0
  0
SPLINE
  5
1b2
100
AcDbEntity
  8
ribs
 62
7
100
AcDbSpline
 70
8
 71
3
 72
8
 73
4
 74
0
 40
0
 40
0
 40
0
 40
0
 40
1
 40
1
 40
1
 40
1
 10
346.534050
 20
780.645874
 30
0.0
 10
346.534050
 20
781.424744
 30
0.0
 10
346.534050
 20
782.203624
 30
0.0
 10
346.534050
 20
782.982494
 30
0.0
  0
SPLINE
  5
1b3
100
AcDbEntity
  8
ribs
 62
7
100
AcDbSpline
 70
8
 71
3
 72
8
 73
4
 74
0
 40
0
 40
0
 40
0
 40
0
 40
1
 40
1
 40
1
 40
1
 10
346.534050
 20
782.982494
 30
0.0
 10
346.976120
 20
782.987494
 30
0.0
 10
347.418190
 20
782.991494
 30
0.0
 10
347.860260
 20
782.996494
 30
0.0
  0
SPLINE
  5
1b4
100
AcDbEntity
  8
ribs
 62
7
100
AcDbSpline
 70
8
 71
3
 72
8
 73
4
 74
0
 40
0
 40
0
 40
0
 40
0
 40
1
 40
1
 40
1
 40
1
 10
347.860260
 20
782.996494
 30
0.0
 10
347.865260
 20
783.386044
 30
0.0
 10
347.869260
 20
783.775584
 30
0.0
 10
347.874260
 20
784.165134
 30
0.0
  0
SPLINE
  5
1b5
100
AcDbEntity
  8
ribs
 62
7
100
AcDbSpline
 70
8
 71
3
 72
8
 73
4
 74
0
 40
0
 40
0
 40
0
 40
0
 40
1
 40
1
 40
1
 40
1
 10
347.874260
 20
784.165134
 30
0.0
 10
347.427480
 20
784.165134
 30
0.0
 10
346.980690
 20
784.165134
 30
0.0
 10
346.533910
 20
784.165134
 30
0.0
  0
SPLINE
  5
1b6
100
AcDbEntity
  8
ribs
 62
7
100
AcDbSpline
 70
8
 71
3
 72
8
 73
4
 74
0
 40
0
 40
0
 40
0
 40
0
 40
1
 40
1
 40
1
 40
1
 10
346.533910
 20
784.165134
 30
0.0
 10
346.533910
 20
784.988004
 30
0.0
 10
346.533910
 20
785.810864
 30
0.0
 10
346.533910
 20
786.633734
 30
0.0
  0
SPLINE
  5
1b7
100
AcDbEntity
  8
ribs
 62
7
100
AcDbSpline
 70
8
 71
3
 72
8
 73
4
 74
0
 40
0
 40
0
 40
0
 40
0
 40
1
 40
1
 40
1
 40
1
 10
346.533910
 20
786.633734
 30
0.0
 10
346.980360
 20
786.633734
 30
0.0
 10
347.426810
 20
786.633734
 30
0.0
 10
347.873260
 20
786.633734
 30
0.0
  0
SPLINE
  5
1b8
100
AcDbEntity
  8
ribs
 62
7
100
AcDbSpline
 70
8
 71
3
 72
8
 73
4
 74
0
 40
0
 40
0
 40
0
 40
0
 40
1
 40
1
 40
1
 40
1
 10
347.873260
 20
786.633734
 30
0.0
 10
347.973060
 20
786.209834
 30
0.0
 10
347.555560
 20
785.220724
 30
0.0
 10
348.307570
 20
785.450694
 30
0.0
  0
SPLINE
  5
1b9
100
AcDbEntity
  8
ribs
 62
7
100
AcDbSpline
 70
8
 71
3
 72
8
 73
4
 74
0
 40
0
 40
0
 40
0
 40
0
 40
1
 40
1
 40
1
 40
1
 10
348.307570
 20
785.450694
 30
0.0
 10
348.567750
 20
785.546594
 30
0.0
 10
349.252640
 20
785.226824
 30
0.0
 10
349.107300
 20
785.713814
 30
0.0
  0
SPLINE
  5
1ba
100
AcDbEntity
  8
ribs
 62
7
100
AcDbSpline
 70
8
 71
3
 72
8
 73
4
 74
0
 40
0
 40
0
 40
0
 40
0
 40
1
 40
1
 40
1
 40
1
 10
349.107300
 20
785.713814
 30
0.0
 10
349.097300
 20
786.020444
 30
0.0
 10
349.088100
 20
786.327064
 30
0.0
 10
349.078500
 20
786.633694
 30
0.0
  0
SPLINE
  5
1bb
100
AcDbEntity
  8
ribs
 62
7
100
AcDbSpline
 70
8
 71
3
 72
8
 73
4
 74
0
 40
0
 40
0
 40
0
 40
0
 40
1
 40
1
 40
1
 40
1
 10
349.078500
 20
786.633694
 30
0.0
 10
349.517130
 20
786.633694
 30
0.0
 10
349.955750
 20
786.633694
 30
0.0
 10
350.394380
 20
786.633694
 30
0.0
  0
SPLINE
  5
1bc
100
AcDbEntity
  8
ribs
 62
7
100
AcDbSpline
 70
8
 71
3
 72
8
 73
4
 74
0
 40
0
 40
0
 40
0
 40
0
 40
1
 40
1
 40
1
 40
1
 10
350.394380
 20
786.633694
 30
0.0
 10
350.394380
 20
787.036374
 30
0.0
 10
350.394380
 20
787.439044
 30
0.0
 10
350.394380
 20
787.841724
 30
0.0
  0
SPLINE
  5
1bd
100
AcDbEntity
  8
ribs
 62
7
100
AcDbSpline
 70
8
 71
3
 72
8
 73
4
 74
0
 40
0
 40
0
 40
0
 40
0
 40
1
 40
1
 40
1
 40
1
 10
350.394380
 20
787.841724
 30
0.0
 10
349.554010
 20
787.841724
 30
0.0
 10
348.713640
 20
787.841724
 30
0.0
 10
347.873270
 20
787.841724
 30
0.0
  0
SPLINE
  5
1be
100
AcDbEntity
  8
ribs
 62
7
100
AcDbSpline
 70
8
 71
3
 72
8
 73
4
 74
0
 40
0
 40
0
 40
0
 40
0
 40
1
 40
1
 40
1
 40
1
 10
347.873270
 20
787.841724
 30
0.0
 10
347.873270
 20
788.235654
 30
0.0
 10
347.873270
 20
788.629574
 30
0.0
 10
347.873270
 20
789.023504
 30
0.0
  0
SPLINE
  5
1bf
100
AcDbEntity
  8
ribs
 62
7
100
AcDbSpline
 70
8
 71
3
 72
8
 73
4
 74
0
 40
0
 40
0
 40
0
 40
0
 40
1
 40
1
 40
1
 40
1
 10
347.873270
 20
789.023504
 30
0.0
 10
348.713640
 20
789.023504
 30
0.0
 10
349.554010
 20
789.023504
 30
0.0
 10
350.394380
 20
789.023504
 30
0.0
  0
SPLINE
  5
1c0
100
AcDbEntity
  8
ribs
 62
7
100
AcDbSpline
 70
8
 71
3
 72
8
 73
4
 74
0
 40
0
 40
0
 40
0
 40
0
 40
1
 40
1
 40
1
 40
1
 10
350.394380
 20
789.023504
 30
0.0
 10
350.394380
 20
788.629574
 30
0.0
 10
350.394380
 20
788.235654
 30
0.0
 10
350.394380
 20
787.841724
 30
0.0
  0
SPLINE
  5
1c1
100
AcDbEntity
  8
ribs
 62
7
100
AcDbSpline
 70
8
 71
3
 72
8
 73
4
 74
0
 40
0
 40
0
 40
0
 40
0
 40
1
 40
1
 40
1
 40
1
 10
350.394380
 20
787.841724
 30
0.0
 10
350.788310
 20
787.841724
 30
0.0
 10
351.182230
 20
787.841724
 30
0.0
 10
351.576160
 20
787.841724
 30
0.0
  0
SPLINE
  5
1c2
100
AcDbEntity
  8
ribs
 62
7
100
AcDbSpline
 70
8
 71
3
 72
8
 73
4
 74
0
 40
0
 40
0
 40
0
 40
0
 40
1
 40
1
 40
1
 40
1
 10
351.576160
 20
787.841724
 30
0.0
 10
351.576160
 20
788.235654
 30
0.0
 10
351.576160
 20
788.629574
 30
0.0
 10
351.576160
 20
789.023504
 30
0.0
  0
SPLINE
  5
1c3
100
AcDbEntity
  8
ribs
 62
7
100
AcDbSpline
 70
8
 71
3
 72
8
 73
4
 74
0
 40
0
 40
0
 40
0
 40
0
 40
1
 40
1
 40
1
 40
1
 10
351.576160
 20
789.023504
 30
0.0
 10
352.337750
 20
789.023504
 30
0.0
 10
353.099330
 20
789.023504
 30
0.0
 10
353.860920
 20
789.023504
 30
0.0
  0
SPLINE
  5
1c4
100
AcDbEntity
  8
ribs
 62
7
100
AcDbSpline
 70
8
 71
3
 72
8
 73
4
 74
0
 40
0
 40
0
 40
0
 40
0
 40
1
 40
1
 40
1
 40
1
 10
353.860920
 20
789.023504
 30
0.0
 10
353.860920
 20
788.629574
 30
0.0
 10
353.860920
 20
788.235654
 30
0.0
 10
353.860920
 20
787.841724
 30
0.0
  0
SPLINE
  5
1c5
100
AcDbEntity
  8
ribs
 62
7
100
AcDbSpline
 70
8
 71
3
 72
8
 73
4
 74
0
 40
0
 40
0
 40
0
 40
0
 40
1
 40
1
 40
1
 40
1
 10
353.860920
 20
787.841724
 30
0.0
 10
354.324880
 20
787.841724
 30
0.0
 10
354.788830
 20
787.841724
 30
0.0
 10
355.252790
 20
787.841724
 30
0.0
  0
SPLINE
  5
1c6
100
AcDbEntity
  8
ribs
 62
7
100
AcDbSpline
 70
8
 71
3
 72
8
 73
4
 74
0
 40
0
 40
0
 40
0
 40
0
 40
1
 40
1
 40
1
 40
1
 10
355.252790
 20
787.841724
 30
0.0
 10
355.252790
 20
788.235654
 30
0.0
 10
355.252790
 20
788.629574
 30
0.0
 10
355.252790
 20
789.023504
 30
0.0
  0
SPLINE
  5
1c7
100
AcDbEntity
  8
ribs
 62
7
100
AcDbSpline
 70
8
 71
3
 72
8
 73
4
 74
0
 40
0
 40
0
 40
0
 40
0
 40
1
 40
1
 40
1
 40
1
 10
355.252790
 20
789.023504
 30
0.0
 10
355.699240
 20
789.023504
 30
0.0
 10
356.145690
 20
789.023504
 30
0.0
 10
356.592140
 20
789.023504
 30
0.0
  0
SPLINE
  5
1c8
100
AcDbEntity
  8
ribs
 62
7
100
AcDbSpline
 70
8
 71
3
 72
8
 73
4
 74
0
 40
0
 40
0
 40
0
 40
0
 40
1
 40
1
 40
1
 40
1
 10
356.592140
 20
789.023504
 30
0.0
 10
356.592140
 20
788.629754
 30
0.0
 10
356.592140
 20
788.236014
 30
0.0
 10
356.592140
 20
787.842264
 30
0.0
  0
SPLINE
  5
1c9
100
AcDbEntity
  8
ribs
 62
7
100
AcDbSpline
 70
8
 71
3
 72
8
 73
4
 74
0
 40
0
 40
0
 40
0
 40
0
 40
1
 40
1
 40
1
 40
1
 10
356.592140
 20
787.842264
 30
0.0
 10
357.384360
 20
787.837264
 30
0.0
 10
358.176590
 20
787.833264
 30
0.0
 10
358.968810
 20
787.828264
 30
0.0
  0
SPLINE
  5
1ca
100
AcDbEntity
  8
ribs
 62
7
100
AcDbSpline
 70
8
 71
3
 72
8
 73
4
 74
0
 40
0
 40
0
 40
0
 40
0
 40
1
 40
1
 40
1
 40
1
 10
358.968810
 20
787.828264
 30
0.0
 10
358.973810
 20
787.429964
 30
0.0
 10
358.977810
 20
787.031664
 30
0.0
 10
358.982810
 20
786.633364
 30
0.0
  0
SPLINE
  5
1cb
100
AcDbEntity
  8
ribs
 62
7
100
AcDbSpline
 70
8
 71
3
 72
8
 73
4
 74
0
 40
0
 40
0
 40
0
 40
0
 40
1
 40
1
 40
1
 40
1
 10
358.982810
 20
786.633364
 30
0.0
 10
359.402670
 20
786.633364
 30
0.0
 10
359.822530
 20
786.633364
 30
0.0
 10
360.242390
 20
786.633364
 30
0.0
  0
SPLINE
  5
1cc
100
AcDbEntity
  8
ribs
 62
7
100
AcDbSpline
 70
8
 71
3
 72
8
 73
4
 74
0
 40
0
 40
0
 40
0
 40
0
 40
1
 40
1
 40
1
 40
1
 10
360.242390
 20
786.633364
 30
0.0
 10
360.242390
 20
787.036044
 30
0.0
 10
360.242390
 20
787.438714
 30
0.0
 10
360.242390
 20
787.841394
 30
0.0
  0
SPLINE
  5
1cd
100
AcDbEntity
  8
ribs
 62
7
100
AcDbSpline
 70
8
 71
3
 72
8
 73
4
 74
0
 40
0
 40
0
 40
0
 40
0
 40
1
 40
1
 40
1
 40
1
 10
360.242390
 20
787.841394
 30
0.0
 10
359.822200
 20
787.841394
 30
0.0
 10
359.402020
 20
787.841394
 30
0.0
 10
358.981830
 20
787.841394
 30
0.0
  0
SPLINE
  5
1ce
100
AcDbEntity
  8
ribs
 62
7
100
AcDbSpline
 70
8
 71
3
 72
8
 73
4
 74
0
 40
0
 40
0
 40
0
 40
0
 40
1
 40
1
 40
1
 40
1
 10
358.981830
 20
787.841394
 30
0.0
 10
358.981830
 20
788.235324
 30
0.0
 10
358.981830
 20
788.629244
 30
0.0
 10
358.981830
 20
789.023174
 30
0.0
  0
SPLINE
  5
1cf
100
AcDbEntity
  8
ribs
 62
7
100
AcDbSpline
 70
8
 71
3
 72
8
 73
4
 74
0
 40
0
 40
0
 40
0
 40
0
 40
1
 40
1
 40
1
 40
1
 10
358.981830
 20
789.023174
 30
0.0
 10
359.402020
 20
789.023174
 30
0.0
 10
359.822200
 20
789.023174
 30
0.0
 10
360.242390
 20
789.023174
 30
0.0
  0
SPLINE
  5
1d0
100
AcDbEntity
  8
ribs
 62
7
100
AcDbSpline
 70
8
 71
3
 72
8
 73
4
 74
0
 40
0
 40
0
 40
0
 40
0
 40
1
 40
1
 40
1
 40
1
 10
360.242390
 20
789.023174
 30
0.0
 10
360.242390
 20
788.629564
 30
0.0
 10
360.242390
 20
788.235944
 30
0.0
 10
360.242390
 20
787.842334
 30
0.0
  0
SPLINE
  5
1d1
100
AcDbEntity
  8
ribs
 62
7
100
AcDbSpline
 70
8
 71
3
 72
8
 73
4
 74
0
 40
0
 40
0
 40
0
 40
0
 40
1
 40
1
 40
1
 40
1
 10
360.242390
 20
787.842334
 30
0.0
 10
360.666950
 20
787.837334
 30
0.0
 10
361.091520
 20
787.833334
 30
0.0
 10
361.516080
 20
787.828334
 30
0.0
  0
SPLINE
  5
1d2
100
AcDbEntity
  8
ribs
 62
7
100
AcDbSpline
 70
8
 71
3
 72
8
 73
4
 74
0
 40
0
 40
0
 40
0
 40
0
 40
1
 40
1
 40
1
 40
1
 10
361.516080
 20
787.828334
 30
0.0
 10
361.521080
 20
787.430034
 30
0.0
 10
361.525080
 20
787.031734
 30
0.0
 10
361.530080
 20
786.633434
 30
0.0
  0
SPLINE
  5
1d3
100
AcDbEntity
  8
ribs
 62
7
100
AcDbSpline
 70
8
 71
3
 72
8
 73
4
 74
0
 40
0
 40
0
 40
0
 40
0
 40
1
 40
1
 40
1
 40
1
 10
361.530080
 20
786.633434
 30
0.0
 10
361.941180
 20
786.633434
 30
0.0
 10
362.352290
 20
786.633434
 30
0.0
 10
362.763390
 20
786.633434
 30
0.0
  0
SPLINE
  5
1d4
100
AcDbEntity
  8
ribs
 62
7
100
AcDbSpline
 70
8
 71
3
 72
8
 73
4
 74
0
 40
0
 40
0
 40
0
 40
0
 40
1
 40
1
 40
1
 40
1
 10
362.763390
 20
786.633434
 30
0.0
 10
362.763390
 20
787.036114
 30
0.0
 10
362.763390
 20
787.438784
 30
0.0
 10
362.763390
 20
787.841464
 30
0.0
  0
SPLINE
  5
1d5
100
AcDbEntity
  8
ribs
 62
7
100
AcDbSpline
 70
8
 71
3
 72
8
 73
4
 74
0
 40
0
 40
0
 40
0
 40
0
 40
1
 40
1
 40
1
 40
1
 10
362.763390
 20
787.841464
 30
0.0
 10
362.351960
 20
787.841464
 30
0.0
 10
361.940530
 20
787.841464
 30
0.0
 10
361.529100
 20
787.841464
 30
0.0
  0
SPLINE
  5
1d6
100
AcDbEntity
  8
ribs
 62
7
100
AcDbSpline
 70
8
 71
3
 72
8
 73
4
 74
0
 40
0
 40
0
 40
0
 40
0
 40
1
 40
1
 40
1
 40
1
 10
361.529100
 20
787.841464
 30
0.0
 10
361.529100
 20
788.235394
 30
0.0
 10
361.529100
 20
788.629314
 30
0.0
 10
361.529100
 20
789.023244
 30
0.0
  0
SPLINE
  5
1d7
100
AcDbEntity
  8
ribs
 62
7
100
AcDbSpline
 70
8
 71
3
 72
8
 73
4
 74
0
 40
0
 40
0
 40
0
 40
0
 40
1
 40
1
 40
1
 40
1
 10
361.529100
 20
789.023244
 30
0.0
 10
362.325700
 20
789.023244
 30
0.0
 10
363.122310
 20
789.023244
 30
0.0
 10
363.918910
 20
789.023244
 30
0.0
  0
SPLINE
  5
1d8
100
AcDbEntity
  8
ribs
 62
7
100
AcDbSpline
 70
8
 71
3
 72
8
 73
4
 74
0
 40
0
 40
0
 40
0
 40
0
 40
1
 40
1
 40
1
 40
1
 10
363.918910
 20
789.023244
 30
0.0
 10
363.918910
 20
788.226644
 30
0.0
 10
363.918910
 20
787.430034
 30
0.0
 10
363.918910
 20
786.633434
 30
0.0
  0
SPLINE
  5
1d9
100
AcDbEntity
  8
ribs
 62
7
100
AcDbSpline
 70
8
 71
3
 72
8
 73
4
 74
0
 40
0
 40
0
 40
0
 40
0
 40
1
 40
1
 40
1
 40
1
 10
363.918910
 20
786.633434
 30
0.0
 10
363.533740
 20
786.633434
 30
0.0
 10
363.148560
 20
786.633434
 30
0.0
 10
362.763390
 20
786.633434
 30
0.0
  0
SPLINE
  5
1da
100
AcDbEntity
  8
ribs
 62
7
100
AcDbSpline
 70
8
 71
3
 72
8
 73
4
 74
0
 40
0
 40
0
 40
0
 40
0
 40
1
 40
1
 40
1
 40
1
 10
362.763390
 20
786.633434
 30
0.0
 10
362.763390
 20
786.230754
 30
0.0
 10
362.763390
 20
785.828074
 30
0.0
 10
362.763390
 20
785.425394
 30
0.0
  0
SPLINE
  5
1db
100
AcDbEntity
  8
ribs
 62
7
100
AcDbSpline
 70
8
 71
3
 72
8
 73
4
 74
0
 40
0
 40
0
 40
0
 40
0
 40
1
 40
1
 40
1
 40
1
 10
362.763390
 20
785.425394
 30
0.0
 10
363.551240
 20
785.425394
 30
0.0
 10
364.339090
 20
785.425394
 30
0.0
 10
365.126940
 20
785.425394
 30
0.0
  0
SPLINE
  5
1dc
100
AcDbEntity
  8
ribs
 62
7
100
AcDbSpline
 70
8
 71
3
 72
8
 73
4
 74
0
 40
0
 40
0
 40
0
 40
0
 40
1
 40
1
 40
1
 40
1
 10
365.126940
 20
785.425394
 30
0.0
 10
365.126940
 20
785.005204
 30
0.0
 10
365.126940
 20
784.585024
 30
0.0
 10
365.126940
 20
784.164834
 30
0.0
  0
SPLINE
  5
1dd
100
AcDbEntity
  8
ribs
 62
7
100
AcDbSpline
 70
8
 71
3
 72
8
 73
4
 74
0
 40
0
 40
0
 40
0
 40
0
 40
1
 40
1
 40
1
 40
1
 10
365.126940
 20
784.164834
 30
0.0
 10
364.724260
 20
784.164834
 30
0.0
 10
364.321590
 20
784.164834
 30
0.0
 10
363.918910
 20
784.164834
 30
0.0
  0
SPLINE
  5
1de
100
AcDbEntity
  8
ribs
 62
7
100
AcDbSpline
 70
8
 71
3
 72
8
 73
4
 74
0
 40
0
 40
0
 40
0
 40
0
 40
1
 40
1
 40
1
 40
1
 10
363.918910
 20
784.164834
 30
0.0
 10
363.918910
 20
783.359474
 30
0.0
 10
363.918910
 20
782.554124
 30
0.0
 10
363.918910
 20
781.748764
 30
0.0
  0
SPLINE
  5
1df
100
AcDbEntity
  8
ribs
 62
7
100
AcDbSpline
 70
8
 71
3
 72
8
 73
4
 74
0
 40
0
 40
0
 40
0
 40
0
 40
1
 40
1
 40
1
 40
1
 10
363.918910
 20
781.748764
 30
0.0
 10
364.321590
 20
781.748764
 30
0.0
 10
364.724260
 20
781.748764
 30
0.0
 10
365.126940
 20
781.748764
 30
0.0
  0
SPLINE
  5
1e0
100
AcDbEntity
  8
ribs
 62
7
100
AcDbSpline
 70
8
 71
3
 72
8
 73
4
 74
0
 40
0
 40
0
 40
0
 40
0
 40
1
 40
1
 40
1
 40
1
 10
365.126940
 20
781.748764
 30
0.0
 10
365.126940
 20
780.925894
 30
0.0
 10
365.126940
 20
780.103034
 30
0.0
 10
365.126940
 20
779.280164
 30
0.0
  0
SPLINE
  5
1e1
100
AcDbEntity
  8
ribs
 62
7
100
AcDbSpline
 70
8
 71
3
 72
8
 73
4
 74
0
 40
0
 40
0
 40
0
 40
0
 40
1
 40
1
 40
1
 40
1
 10
365.126940
 20
779.280164
 30
0.0
 10
364.724260
 20
779.280164
 30
0.0
 10
364.321590
 20
779.280164
 30
0.0
 10
363.918910
 20
779.280164
 30
0.0
  0
SPLINE
  5
1e2
100
AcDbEntity
  8
ribs
 62
7
100
AcDbSpline
 70
8
 71
3
 72
8
 73
4
 74
0
 40
0
 40
0
 40
0
 40
0
 40
1
 40
1
 40
1
 40
1
 10
363.918910
 20
779.280164
 30
0.0
 10
363.918910
 20
778.868734
 30
0.0
 10
363.918910
 20
778.457304
 30
0.0
 10
363.918910
 20
778.045874
 30
0.0
  0
SPLINE
  5
1e3
100
AcDbEntity
  8
ribs
 62
7
100
AcDbSpline
 70
8
 71
3
 72
8
 73
4
 74
0
 40
0
 40
0
 40
0
 40
0
 40
1
 40
1
 40
1
 40
1
 10
363.918910
 20
778.045874
 30
0.0
 10
363.533740
 20
778.045874
 30
0.0
 10
363.148560
 20
778.045874
 30
0.0
 10
362.763390
 20
778.045874
 30
0.0
  0
SPLINE
  5
1e4
100
AcDbEntity
  8
ribs
 62
7
100
AcDbSpline
 70
8
 71
3
 72
8
 73
4
 74
0
 40
0
 40
0
 40
0
 40
0
 40
1
 40
1
 40
1
 40
1
 10
362.763390
 20
778.045874
 30
0.0
 10
362.763390
 20
777.223004
 30
0.0
 10
362.763390
 20
776.400144
 30
0.0
 10
362.763390
 20
775.577274
 30
0.0
  0
SPLINE
  5
1e5
100
AcDbEntity
  8
ribs
 62
7
100
AcDbSpline
 70
8
 71
3
 72
8
 73
4
 74
0
 40
0
 40
0
 40
0
 40
0
 40
1
 40
1
 40
1
 40
1
 10
362.763390
 20
775.577274
 30
0.0
 10
362.352280
 20
775.577274
 30
0.0
 10
361.941160
 20
775.577274
 30
0.0
 10
361.530050
 20
775.577274
 30
0.0
  0
SPLINE
  5
1e6
100
AcDbEntity
  8
ribs
 62
7
100
AcDbSpline
 70
8
 71
3
 72
8
 73
4
 74
0
 40
0
 40
0
 40
0
 40
0
 40
1
 40
1
 40
1
 40
1
 10
361.530050
 20
775.577274
 30
0.0
 10
361.525050
 20
775.161464
 30
0.0
 10
361.521050
 20
774.745654
 30
0.0
 10
361.516050
 20
774.329844
 30
0.0
  0
SPLINE
  5
1e7
100
AcDbEntity
  8
ribs
 62
7
100
AcDbSpline
 70
8
 71
3
 72
8
 73
4
 74
0
 40
0
 40
0
 40
0
 40
0
 40
1
 40
1
 40
1
 40
1
 10
361.516050
 20
774.329844
 30
0.0
 10
361.091490
 20
774.324844
 30
0.0
 10
360.666920
 20
774.320844
 30
0.0
 10
360.242360
 20
774.315844
 30
0.0
  0
SPLINE
  5
1e8
100
AcDbEntity
  8
ribs
 62
7
100
AcDbSpline
 70
8
 71
3
 72
8
 73
4
 74
0
 40
0
 40
0
 40
0
 40
0
 40
1
 40
1
 40
1
 40
1
 10
360.242360
 20
774.315844
 30
0.0
 10
360.242360
 20
773.895964
 30
0.0
 10
360.242360
 20
773.476094
 30
0.0
 10
360.242360
 20
773.056214
 30
0.0
  0
SPLINE
  5
1e9
100
AcDbEntity
  8
ribs
 62
7
100
AcDbSpline
 70
8
 71
3
 72
8
 73
4
 74
0
 40
0
 40
0
 40
0
 40
0
 40
1
 40
1
 40
1
 40
1
 10
360.242360
 20
773.056214
 30
0.0
 10
359.822170
 20
773.056214
 30
0.0
 10
359.401990
 20
773.056214
 30
0.0
 10
358.981800
 20
773.056214
 30
0.0
  0
SPLINE
  5
1ea
100
AcDbEntity
  8
ribs
 62
7
100
AcDbSpline
 70
8
 71
3
 72
8
 73
4
 74
0
 40
0
 40
0
 40
0
 40
0
 40
1
 40
1
 40
1
 40
1
 10
358.981800
 20
773.056214
 30
0.0
 10
358.981800
 20
773.476404
 30
0.0
 10
358.981800
 20
773.896584
 30
0.0
 10
358.981800
 20
774.316774
 30
0.0
  0
SPLINE
  5
1eb
100
AcDbEntity
  8
ribs
 62
7
100
AcDbSpline
 70
8
 71
3
 72
8
 73
4
 74
0
 40
0
 40
0
 40
0
 40
0
 40
1
 40
1
 40
1
 40
1
 10
358.981800
 20
774.316774
 30
0.0
 10
359.401810
 20
774.316774
 30
0.0
 10
359.821830
 20
774.316774
 30
0.0
 10
360.241840
 20
774.316774
 30
0.0
  0
SPLINE
  5
1ec
100
AcDbEntity
  8
ribs
 62
7
100
AcDbSpline
 70
8
 71
3
 72
8
 73
4
 74
0
 40
0
 40
0
 40
0
 40
0
 40
1
 40
1
 40
1
 40
1
 10
360.241840
 20
774.316774
 30
0.0
 10
360.246840
 20
775.144014
 30
0.0
 10
360.250840
 20
775.971264
 30
0.0
 10
360.255840
 20
776.798504
 30
0.0
  0
SPLINE
  5
1ed
100
AcDbEntity
  8
ribs
 62
7
100
AcDbSpline
 70
8
 71
3
 72
8
 73
4
 74
0
 40
0
 40
0
 40
0
 40
0
 40
1
 40
1
 40
1
 40
1
 10
360.255840
 20
776.798504
 30
0.0
 10
360.680520
 20
776.803504
 30
0.0
 10
361.105200
 20
776.807504
 30
0.0
 10
361.529880
 20
776.812504
 30
0.0
  0
SPLINE
  5
1ee
100
AcDbEntity
  8
ribs
 62
7
100
AcDbSpline
 70
8
 71
3
 72
8
 73
4
 74
0
 40
0
 40
0
 40
0
 40
0
 40
1
 40
1
 40
1
 40
1
 10
361.529880
 20
776.812504
 30
0.0
 10
361.524880
 20
778.059624
 30
0.0
 10
361.520880
 20
779.306734
 30
0.0
 10
361.515880
 20
780.553854
 30
0.0
  0
SPLINE
  5
1ef
100
AcDbEntity
  8
ribs
 62
7
100
AcDbSpline
 70
8
 71
3
 72
8
 73
4
 74
0
 40
0
 40
0
 40
0
 40
0
 40
1
 40
1
 40
1
 40
1
 10
361.515880
 20
780.553854
 30
0.0
 10
361.095690
 20
780.553854
 30
0.0
 10
360.675510
 20
780.553854
 30
0.0
 10
360.255320
 20
780.553854
 30
0.0
  0
SPLINE
  5
1f0
100
AcDbEntity
  8
ribs
 62
7
100
AcDbSpline
 70
8
 71
3
 72
8
 73
4
 74
0
 40
0
 40
0
 40
0
 40
0
 40
1
 40
1
 40
1
 40
1
 10
360.255320
 20
780.553854
 30
0.0
 10
360.269120
 20
779.814244
 30
0.0
 10
360.246320
 20
779.072764
 30
0.0
 10
360.300220
 20
778.334744
 30
0.0
  0
SPLINE
  5
1f1
100
AcDbEntity
  8
ribs
 62
7
100
AcDbSpline
 70
8
 71
3
 72
8
 73
4
 74
0
 40
0
 40
0
 40
0
 40
0
 40
1
 40
1
 40
1
 40
1
 10
360.300220
 20
778.334744
 30
0.0
 10
359.084300
 20
778.334744
 30
0.0
 10
357.868390
 20
778.334744
 30
0.0
 10
356.652470
 20
778.334744
 30
0.0
  0
SPLINE
  5
1f2
100
AcDbEntity
  8
ribs
 62
7
100
AcDbSpline
 70
8
 71
3
 72
8
 73
4
 74
0
 40
0
 40
0
 40
0
 40
0
 40
1
 40
1
 40
1
 40
1
 10
356.652470
 20
778.334744
 30
0.0
 10
356.590670
 20
779.066724
 30
0.0
 10
356.642070
 20
779.803054
 30
0.0
 10
356.584370
 20
780.535444
 30
0.0
  0
SPLINE
  5
1f3
100
AcDbEntity
  8
ribs
 62
7
100
AcDbSpline
 70
8
 71
3
 72
8
 73
4
 74
0
 40
0
 40
0
 40
0
 40
0
 40
1
 40
1
 40
1
 40
1
 10
356.584370
 20
780.535444
 30
0.0
 10
356.166140
 20
780.458544
 30
0.0
 10
355.374950
 20
780.766964
 30
0.0
 10
355.267010
 20
780.347294
 30
0.0
  0
SPLINE
  5
1f4
100
AcDbEntity
  8
ribs
 62
7
100
AcDbSpline
 70
8
 71
3
 72
8
 73
4
 74
0
 40
0
 40
0
 40
0
 40
0
 40
1
 40
1
 40
1
 40
1
 10
355.267010
 20
780.347294
 30
0.0
 10
355.077200
 20
779.648824
 30
0.0
 10
355.812250
 20
778.025484
 30
0.0
 10
354.588630
 20
778.313524
 30
0.0
  0
SPLINE
  5
1f5
100
AcDbEntity
  8
ribs
 62
7
100
AcDbSpline
 70
8
 71
3
 72
8
 73
4
 74
0
 40
0
 40
0
 40
0
 40
0
 40
1
 40
1
 40
1
 40
1
 10
354.588630
 20
778.313524
 30
0.0
 10
353.604610
 20
778.305524
 30
0.0
 10
352.620550
 20
778.309524
 30
0.0
 10
351.636510
 20
778.308524
 30
0.0
  0
SPLINE
  5
1f6
100
AcDbEntity
  8
ribs
 62
7
100
AcDbSpline
 70
8
 71
3
 72
8
 73
4
 74
0
 40
0
 40
0
 40
0
 40
0
 40
1
 40
1
 40
1
 40
1
 10
351.636510
 20
778.308524
 30
0.0
 10
351.573910
 20
779.060074
 30
0.0
 10
351.627510
 20
779.816054
 30
0.0
 10
351.568110
 20
780.567994
 30
0.0
  0
SPLINE
  5
1f7
100
AcDbEntity
  8
ribs
 62
7
100
AcDbSpline
 70
8
 71
3
 72
8
 73
4
 74
0
 40
0
 40
0
 40
0
 40
0
 40
1
 40
1
 40
1
 40
1
 10
351.568110
 20
780.567994
 30
0.0
 10
351.172500
 20
780.562994
 30
0.0
 10
350.776890
 20
780.558994
 30
0.0
 10
350.381280
 20
780.553994
 30
0.0
  0
SPLINE
  5
1f8
100
AcDbEntity
  8
ribs
 62
7
100
AcDbSpline
 70
8
 71
3
 72
8
 73
4
 74
0
 40
0
 40
0
 40
0
 40
0
 40
1
 40
1
 40
1
 40
1
 10
350.381280
 20
780.553994
 30
0.0
 10
350.382280
 20
779.306554
 30
0.0
 10
350.390280
 20
778.059144
 30
0.0
 10
350.394680
 20
776.811714
 30
0.0
  0
SPLINE
  5
1f9
100
AcDbEntity
  8
ribs
 62
7
100
AcDbSpline
 70
8
 71
3
 72
8
 73
4
 74
0
 40
0
 40
0
 40
0
 40
0
 40
1
 40
1
 40
1
 40
1
 10
350.394680
 20
776.811714
 30
0.0
 10
350.788610
 20
776.811714
 30
0.0
 10
351.182530
 20
776.811714
 30
0.0
 10
351.576460
 20
776.811714
 30
0.0
  0
SPLINE
  5
1fa
100
AcDbEntity
  8
ribs
 62
7
100
AcDbSpline
 70
8
 71
3
 72
8
 73
4
 74
0
 40
0
 40
0
 40
0
 40
0
 40
1
 40
1
 40
1
 40
1
 10
351.576460
 20
776.811714
 30
0.0
 10
351.576460
 20
775.980094
 30
0.0
 10
351.576460
 20
775.148474
 30
0.0
 10
351.576460
 20
774.316854
 30
0.0
  0
SPLINE
  5
1fb
100
AcDbEntity
  8
ribs
 62
7
100
AcDbSpline
 70
8
 71
3
 72
8
 73
4
 74
0
 40
0
 40
0
 40
0
 40
0
 40
1
 40
1
 40
1
 40
1
 10
351.576460
 20
774.316854
 30
0.0
 10
351.987890
 20
774.316854
 30
0.0
 10
352.399330
 20
774.316854
 30
0.0
 10
352.810760
 20
774.316854
 30
0.0
  0
SPLINE
  5
1fc
100
AcDbEntity
  8
ribs
 62
7
100
AcDbSpline
 70
8
 71
3
 72
8
 73
4
 74
0
 40
0
 40
0
 40
0
 40
0
 40
1
 40
1
 40
1
 40
1
 10
352.810760
 20
774.316854
 30
0.0
 10
352.810760
 20
773.896664
 30
0.0
 10
352.810760
 20
773.476484
 30
0.0
 10
352.810760
 20
773.056294
 30
0.0
  0
SPLINE
  5
1fd
100
AcDbEntity
  8
ribs
 62
7
100
AcDbSpline
 70
8
 71
3
 72
8
 73
4
 74
0
 40
0
 40
0
 40
0
 40
0
 40
1
 40
1
 40
1
 40
1
 10
352.810760
 20
773.056294
 30
0.0
 10
353.222190
 20
773.056294
 30
0.0
 10
353.633620
 20
773.056294
 30
0.0
 10
354.045050
 20
773.056294
 30
0.0
  0
SPLINE
  5
1fe
100
AcDbEntity
  8
ribs
 62
7
100
AcDbSpline
 70
8
 71
3
 72
8
 73
4
 74
0
 40
0
 40
0
 40
0
 40
0
 40
1
 40
1
 40
1
 40
1
 10
354.045050
 20
773.056294
 30
0.0
 10
354.045050
 20
772.644864
 30
0.0
 10
354.045050
 20
772.233424
 30
0.0
 10
354.045050
 20
771.821994
 30
0.0
  0
SPLINE
  5
1ff
100
AcDbEntity
  8
ribs
 62
7
100
AcDbSpline
 70
8
 71
3
 72
8
 73
4
 74
0
 40
0
 40
0
 40
0
 40
0
 40
1
 40
1
 40
1
 40
1
 10
354.045050
 20
771.821994
 30
0.0
 10
353.633620
 20
771.821994
 30
0.0
 10
353.222190
 20
771.821994
 30
0.0
 10
352.810760
 20
771.821994
 30
0.0
  0
SPLINE
  5
200
100
AcDbEntity
  8
ribs
 62
7
100
AcDbSpline
 70
8
 71
3
 72
8
 73
4
 74
0
 40
0
 40
0
 40
0
 40
0
 40
1
 40
1
 40
1
 40
1
 10
352.810760
 20
771.821994
 30
0.0
 10
352.810470
 20
772.027754
 30
0.0
 10
352.811330
 20
772.234074
 30
0.0
 10
352.810330
 20
772.439494
 30
0.0
  0
LWPOLYLINE
  5
201
100
AcDbEntity
  8
ribs
 62
7
100
AcDbPolyline
 90
2
 70
1
 10
354.070900
 20
771.205134
 30
0.0
 10
354.070900
 20
771.205134
 30
0.0
  0
SPLINE
  5
202
100
AcDbEntity
  8
ribs
 62
7
100
AcDbSpline
 70
8
 71
3
 72
8
 73
4
 74
0
 40
0
 40
0
 40
0
 40
0
 40
1
 40
1
 40
1
 40
1
 10
349.107440
 20
778.663444
 30
0.0
 10
349.104440
 20
778.988654
 30
0.0
 10
349.219530
 20
779.431524
 30
0.0
 10
348.740600
 20
779.280594
 30
0.0
  0
SPLINE
  5
203
100
AcDbEntity
  8
ribs
 62
7
100
AcDbSpline
 70
8
 71
3
 72
8
 73
4
 74
0
 40
0
 40
0
 40
0
 40
0
 40
1
 40
1
 40
1
 40
1
 10
348.740600
 20
779.280594
 30
0.0
 10
348.478220
 20
779.218894
 30
0.0
 10
347.962850
 20
779.410174
 30
0.0
 10
347.873150
 20
779.175784
 30
0.0
  0
SPLINE
  5
204
100
AcDbEntity
  8
ribs
 62
7
100
AcDbSpline
 70
8
 71
3
 72
8
 73
4
 74
0
 40
0
 40
0
 40
0
 40
0
 40
1
 40
1
 40
1
 40
1
 10
347.873150
 20
779.175784
 30
0.0
 10
347.873150
 20
778.799294
 30
0.0
 10
347.873150
 20
778.422794
 30
0.0
 10
347.873150
 20
778.046304
 30
0.0
  0
SPLINE
  5
205
100
AcDbEntity
  8
ribs
 62
7
100
AcDbSpline
 70
8
 71
3
 72
8
 73
4
 74
0
 40
0
 40
0
 40
0
 40
0
 40
1
 40
1
 40
1
 40
1
 10
347.873150
 20
778.046304
 30
0.0
 10
348.284580
 20
778.046304
 30
0.0
 10
348.696010
 20
778.046304
 30
0.0
 10
349.107440
 20
778.046304
 30
0.0
  0
SPLINE
  5
206
100
AcDbEntity
  8
ribs
 62
7
100
AcDbSpline
 70
8
 71
3
 72
8
 73
4
 74
0
 40
0
 40
0
 40
0
 40
0
 40
1
 40
1
 40
1
 40
1
 10
349.107440
 20
778.046304
 30
0.0
 10
349.107440
 20
778.252014
 30
0.0
 10
349.107440
 20
778.457734
 30
0.0
 10
349.107440
 20
778.663444
 30
0.0
  0
LWPOLYLINE
  5
207
100
AcDbEntity
  8
ribs
 62
7
100
AcDbPolyline
 90
2
 70
1
 10
352.810330
 20
772.439494
 30
0.0
 10
352.810340
 20
772.439434
 30
0.0
  0
SPLINE
  5
208
100
AcDbEntity
  8
ribs
 62
7
100
AcDbSpline
 70
8
 71
3
 72
8
 73
4
 74
0
 40
0
 40
0
 40
0
 40
0
 40
1
 40
1
 40
1
 40
1
 10
363.919020
 20
779.924004
 30
0.0
 10
363.884220
 20
780.208484
 30
0.0
 10
364.075440
 20
780.718984
 30
0.0
 10
363.604590
 20
780.567414
 30
0.0
  0
SPLINE
  5
209
100
AcDbEntity
  8
ribs
 62
7
100
AcDbSpline
 70
8
 71
3
 72
8
 73
4
 74
0
 40
0
 40
0
 40
0
 40
0
 40
1
 40
1
 40
1
 40
1
 10
363.604590
 20
780.567414
 30
0.0
 10
363.344260
 20
780.529914
 30
0.0
 10
362.933770
 20
780.642614
 30
0.0
 10
362.763500
 20
780.515014
 30
0.0
  0
SPLINE
  5
20a
100
AcDbEntity
  8
ribs
 62
7
100
AcDbSpline
 70
8
 71
3
 72
8
 73
4
 74
0
 40
0
 40
0
 40
0
 40
0
 40
1
 40
1
 40
1
 40
1
 10
362.763500
 20
780.515014
 30
0.0
 10
362.763500
 20
780.103544
 30
0.0
 10
362.763500
 20
779.692074
 30
0.0
 10
362.763500
 20
779.280604
 30
0.0
  0
SPLINE
  5
20b
100
AcDbEntity
  8
ribs
 62
7
100
AcDbSpline
 70
8
 71
3
 72
8
 73
4
 74
0
 40
0
 40
0
 40
0
 40
0
 40
1
 40
1
 40
1
 40
1
 10
362.763500
 20
779.280604
 30
0.0
 10
363.148670
 20
779.280604
 30
0.0
 10
363.533850
 20
779.280604
 30
0.0
 10
363.919020
 20
779.280604
 30
0.0
  0
SPLINE
  5
20c
100
AcDbEntity
  8
ribs
 62
7
100
AcDbSpline
 70
8
 71
3
 72
8
 73
4
 74
0
 40
0
 40
0
 40
0
 40
0
 40
1
 40
1
 40
1
 40
1
 10
363.919020
 20
779.280604
 30
0.0
 10
363.919020
 20
779.495074
 30
0.0
 10
363.919020
 20
779.709544
 30
0.0
 10
363.919020
 20
779.924014
 30
0.0
  0
LWPOLYLINE
  5
20d
100
AcDbEntity
  8
ribs
 62
7
100
AcDbPolyline
 90
2
 70
1
 10
349.107440
 20
778.663444
 30
0.0
 10
349.107440
 20
778.663444
 30
0.0
  0
SPLINE
  5
20e
100
AcDbEntity
  8
ribs
 62
7
100
AcDbSpline
 70
8
 71
3
 72
8
 73
4
 74
0
 40
0
 40
0
 40
0
 40
0
 40
1
 40
1
 40
1
 40
1
 10
361.529210
 20
782.366344
 30
0.0
 10
361.526210
 20
782.691554
 30
0.0
 10
361.641300
 20
783.134424
 30
0.0
 10
361.162370
 20
782.983494
 30
0.0
  0
SPLINE
  5
20f
100
AcDbEntity
  8
ribs
 62
7
100
AcDbSpline
 70
8
 71
3
 72
8
 73
4
 74
0
 40
0
 40
0
 40
0
 40
0
 40
1
 40
1
 40
1
 40
1
 10
361.162370
 20
782.983494
 30
0.0
 10
360.464470
 20
782.783494
 30
0.0
 10
360.836820
 20
783.712184
 30
0.0
 10
360.741710
 20
784.103184
 30
0.0
  0
SPLINE
  5
210
100
AcDbEntity
  8
ribs
 62
7
100
AcDbSpline
 70
8
 71
3
 72
8
 73
4
 74
0
 40
0
 40
0
 40
0
 40
0
 40
1
 40
1
 40
1
 40
1
 10
360.741710
 20
784.103184
 30
0.0
 10
360.740990
 20
784.544064
 30
0.0
 10
360.741520
 20
784.984944
 30
0.0
 10
360.741360
 20
785.425824
 30
0.0
  0
SPLINE
  5
211
100
AcDbEntity
  8
ribs
 62
7
100
AcDbSpline
 70
8
 71
3
 72
8
 73
4
 74
0
 40
0
 40
0
 40
0
 40
0
 40
1
 40
1
 40
1
 40
1
 10
360.741360
 20
785.425824
 30
0.0
 10
359.752170
 20
785.425824
 30
0.0
 10
358.762980
 20
785.425824
 30
0.0
 10
357.773790
 20
785.425824
 30
0.0
  0
SPLINE
  5
212
100
AcDbEntity
  8
ribs
 62
7
100
AcDbSpline
 70
8
 71
3
 72
8
 73
4
 74
0
 40
0
 40
0
 40
0
 40
0
 40
1
 40
1
 40
1
 40
1
 10
357.773790
 20
785.425824
 30
0.0
 10
357.773790
 20
785.005634
 30
0.0
 10
357.773790
 20
784.585454
 30
0.0
 10
357.773790
 20
784.165264
 30
0.0
  0
SPLINE
  5
213
100
AcDbEntity
  8
ribs
 62
7
100
AcDbSpline
 70
8
 71
3
 72
8
 73
4
 74
0
 40
0
 40
0
 40
0
 40
0
 40
1
 40
1
 40
1
 40
1
 10
357.773790
 20
784.165264
 30
0.0
 10
357.379870
 20
784.165264
 30
0.0
 10
356.985940
 20
784.165264
 30
0.0
 10
356.592020
 20
784.165264
 30
0.0
  0
SPLINE
  5
214
100
AcDbEntity
  8
ribs
 62
7
100
AcDbSpline
 70
8
 71
3
 72
8
 73
4
 74
0
 40
0
 40
0
 40
0
 40
0
 40
1
 40
1
 40
1
 40
1
 10
356.592020
 20
784.165264
 30
0.0
 10
356.592020
 20
784.585454
 30
0.0
 10
356.592020
 20
785.005634
 30
0.0
 10
356.592020
 20
785.425824
 30
0.0
  0
SPLINE
  5
215
100
AcDbEntity
  8
ribs
 62
7
100
AcDbSpline
 70
8
 71
3
 72
8
 73
4
 74
0
 40
0
 40
0
 40
0
 40
0
 40
1
 40
1
 40
1
 40
1
 10
356.592020
 20
785.425824
 30
0.0
 10
355.742890
 20
785.425824
 30
0.0
 10
354.893760
 20
785.425824
 30
0.0
 10
354.044630
 20
785.425824
 30
0.0
  0
SPLINE
  5
216
100
AcDbEntity
  8
ribs
 62
7
100
AcDbSpline
 70
8
 71
3
 72
8
 73
4
 74
0
 40
0
 40
0
 40
0
 40
0
 40
1
 40
1
 40
1
 40
1
 10
354.044630
 20
785.425824
 30
0.0
 10
354.044630
 20
785.005634
 30
0.0
 10
354.044630
 20
784.585454
 30
0.0
 10
354.044630
 20
784.165264
 30
0.0
  0
SPLINE
  5
217
100
AcDbEntity
  8
ribs
 62
7
100
AcDbSpline
 70
8
 71
3
 72
8
 73
4
 74
0
 40
0
 40
0
 40
0
 40
0
 40
1
 40
1
 40
1
 40
1
 10
354.044630
 20
784.165264
 30
0.0
 10
353.633200
 20
784.165264
 30
0.0
 10
353.221770
 20
784.165264
 30
0.0
 10
352.810340
 20
784.165264
 30
0.0
  0
SPLINE
  5
218
100
AcDbEntity
  8
ribs
 62
7
100
AcDbSpline
 70
8
 71
3
 72
8
 73
4
 74
0
 40
0
 40
0
 40
0
 40
0
 40
1
 40
1
 40
1
 40
1
 10
352.810340
 20
784.165264
 30
0.0
 10
352.810340
 20
784.585454
 30
0.0
 10
352.810340
 20
785.005634
 30
0.0
 10
352.810340
 20
785.425824
 30
0.0
  0
SPLINE
  5
219
100
AcDbEntity
  8
ribs
 62
7
100
AcDbSpline
 70
8
 71
3
 72
8
 73
4
 74
0
 40
0
 40
0
 40
0
 40
0
 40
1
 40
1
 40
1
 40
1
 10
352.810340
 20
785.425824
 30
0.0
 10
352.250090
 20
785.425824
 30
0.0
 10
351.689840
 20
785.425824
 30
0.0
 10
351.129590
 20
785.425824
 30
0.0
  0
SPLINE
  5
21a
100
AcDbEntity
  8
ribs
 62
7
100
AcDbSpline
 70
8
 71
3
 72
8
 73
4
 74
0
 40
0
 40
0
 40
0
 40
0
 40
1
 40
1
 40
1
 40
1
 10
351.129590
 20
785.425824
 30
0.0
 10
351.129590
 20
784.611714
 30
0.0
 10
351.129590
 20
783.797604
 30
0.0
 10
351.129590
 20
782.983494
 30
0.0
  0
SPLINE
  5
21b
100
AcDbEntity
  8
ribs
 62
7
100
AcDbSpline
 70
8
 71
3
 72
8
 73
4
 74
0
 40
0
 40
0
 40
0
 40
0
 40
1
 40
1
 40
1
 40
1
 10
351.129590
 20
782.983494
 30
0.0
 10
350.868530
 20
782.920894
 30
0.0
 10
350.297960
 20
783.167734
 30
0.0
 10
350.420530
 20
782.721464
 30
0.0
  0
SPLINE
  5
21c
100
AcDbEntity
  8
ribs
 62
7
100
AcDbSpline
 70
8
 71
3
 72
8
 73
4
 74
0
 40
0
 40
0
 40
0
 40
0
 40
1
 40
1
 40
1
 40
1
 10
350.420530
 20
782.721464
 30
0.0
 10
350.420530
 20
782.397374
 30
0.0
 10
350.420530
 20
782.073284
 30
0.0
 10
350.420530
 20
781.749194
 30
0.0
  0
SPLINE
  5
21d
100
AcDbEntity
  8
ribs
 62
7
100
AcDbSpline
 70
8
 71
3
 72
8
 73
4
 74
0
 40
0
 40
0
 40
0
 40
0
 40
1
 40
1
 40
1
 40
1
 10
350.420530
 20
781.749194
 30
0.0
 10
354.123420
 20
781.749194
 30
0.0
 10
357.826320
 20
781.749194
 30
0.0
 10
361.529210
 20
781.749194
 30
0.0
  0
SPLINE
  5
21e
100
AcDbEntity
  8
ribs
 62
7
100
AcDbSpline
 70
8
 71
3
 72
8
 73
4
 74
0
 40
0
 40
0
 40
0
 40
0
 40
1
 40
1
 40
1
 40
1
 10
361.529210
 20
781.749194
 30
0.0
 10
361.529210
 20
781.954914
 30
0.0
 10
361.529210
 20
782.160624
 30
0.0
 10
361.529210
 20
782.366344
 30
0.0
  0
LWPOLYLINE
  5
21f
100
AcDbEntity
  8
ribs
 62
7
100
AcDbPolyline
 90
2
 70
1
 10
363.919020
 20
779.924014
 30
0.0
 10
363.919020
 20
779.924004
 30
0.0
  0
SPLINE
  5
220
100
AcDbEntity
  8
ribs
 62
7
100
AcDbSpline
 70
8
 71
3
 72
8
 73
4
 74
0
 40
0
 40
0
 40
0
 40
0
 40
1
 40
1
 40
1
 40
1
 10
355.264430
 20
783.016994
 30
0.0
 10
355.397880
 20
783.314134
 30
0.0
 10
355.008510
 20
784.171264
 30
0.0
 10
355.475040
 20
784.154344
 30
0.0
  0
SPLINE
  5
221
100
AcDbEntity
  8
ribs
 62
7
100
AcDbSpline
 70
8
 71
3
 72
8
 73
4
 74
0
 40
0
 40
0
 40
0
 40
0
 40
1
 40
1
 40
1
 40
1
 10
355.475040
 20
784.154344
 30
0.0
 10
355.847240
 20
784.158344
 30
0.0
 10
356.219450
 20
784.162344
 30
0.0
 10
356.591650
 20
784.166144
 30
0.0
  0
SPLINE
  5
222
100
AcDbEntity
  8
ribs
 62
7
100
AcDbSpline
 70
8
 71
3
 72
8
 73
4
 74
0
 40
0
 40
0
 40
0
 40
0
 40
1
 40
1
 40
1
 40
1
 10
356.591650
 20
784.166144
 30
0.0
 10
356.591650
 20
783.771924
 30
0.0
 10
356.591650
 20
783.377694
 30
0.0
 10
356.591650
 20
782.983474
 30
0.0
  0
SPLINE
  5
223
100
AcDbEntity
  8
ribs
 62
7
100
AcDbSpline
 70
8
 71
3
 72
8
 73
4
 74
0
 40
0
 40
0
 40
0
 40
0
 40
1
 40
1
 40
1
 40
1
 10
356.591650
 20
782.983474
 30
0.0
 10
356.150140
 20
782.994474
 30
0.0
 10
355.700410
 20
782.954874
 30
0.0
 10
355.264430
 20
783.016974
 30
0.0
  0
LWPOLYLINE
  5
224
100
AcDbEntity
  8
ribs
 62
7
100
AcDbPolyline
 90
2
 70
1
 10
361.529210
 20
782.366344
 30
0.0
 10
361.529210
 20
782.366344
 30
0.0
  0
SPLINE
  5
225
100
AcDbEntity
  8
ribs
 62
7
100
AcDbSpline
 70
8
 71
3
 72
8
 73
4
 74
0
 40
0
 40
0
 40
0
 40
0
 40
1
 40
1
 40
1
 40
1
 10
354.062320
 20
773.835504
 30
0.0
 10
354.173310
 20
774.151864
 30
0.0
 10
353.826730
 20
774.973824
 30
0.0
 10
354.201840
 20
775.052474
 30
0.0
  0
SPLINE
  5
226
100
AcDbEntity
  8
ribs
 62
7
100
AcDbSpline
 70
8
 71
3
 72
8
 73
4
 74
0
 40
0
 40
0
 40
0
 40
0
 40
1
 40
1
 40
1
 40
1
 10
354.201840
 20
775.052474
 30
0.0
 10
355.392810
 20
775.052474
 30
0.0
 10
356.583780
 20
775.052474
 30
0.0
 10
357.774750
 20
775.052474
 30
0.0
  0
SPLINE
  5
227
100
AcDbEntity
  8
ribs
 62
7
100
AcDbSpline
 70
8
 71
3
 72
8
 73
4
 74
0
 40
0
 40
0
 40
0
 40
0
 40
1
 40
1
 40
1
 40
1
 10
357.774750
 20
775.052474
 30
0.0
 10
357.769750
 20
774.645414
 30
0.0
 10
357.765750
 20
774.238364
 30
0.0
 10
357.760750
 20
773.831304
 30
0.0
  0
SPLINE
  5
228
100
AcDbEntity
  8
ribs
 62
7
100
AcDbSpline
 70
8
 71
3
 72
8
 73
4
 74
0
 40
0
 40
0
 40
0
 40
0
 40
1
 40
1
 40
1
 40
1
 10
357.760750
 20
773.831304
 30
0.0
 10
356.528030
 20
773.831544
 30
0.0
 10
355.294390
 20
773.808404
 30
0.0
 10
354.062320
 20
773.835304
 30
0.0
  0
LWPOLYLINE
  5
229
100
AcDbEntity
  8
ribs
 62
7
100
AcDbPolyline
 90
2
 70
1
 10
355.264430
 20
783.016974
 30
0.0
 10
355.264430
 20
783.016994
 30
0.0
  0
SPLINE
  5
22a
100
AcDbEntity
  8
ribs
 62
7
100
AcDbSpline
 70
8
 71
3
 72
8
 73
4
 74
0
 40
0
 40
0
 40
0
 40
0
 40
1
 40
1
 40
1
 40
1
 10
363.919020
 20
777.402394
 30
0.0
 10
363.922020
 20
777.727654
 30
0.0
 10
363.806780
 20
778.170954
 30
0.0
 10
364.285860
 20
778.020034
 30
0.0
  0
SPLINE
  5
22b
100
AcDbEntity
  8
ribs
 62
7
100
AcDbSpline
 70
8
 71
3
 72
8
 73
4
 74
0
 40
0
 40
0
 40
0
 40
0
 40
1
 40
1
 40
1
 40
1
 10
364.285860
 20
778.020034
 30
0.0
 10
364.538490
 20
777.957734
 30
0.0
 10
365.050250
 20
778.151604
 30
0.0
 10
365.126820
 20
777.915234
 30
0.0
  0
SPLINE
  5
22c
100
AcDbEntity
  8
ribs
 62
7
100
AcDbSpline
 70
8
 71
3
 72
8
 73
4
 74
0
 40
0
 40
0
 40
0
 40
0
 40
1
 40
1
 40
1
 40
1
 10
365.126820
 20
777.915234
 30
0.0
 10
365.122820
 20
777.543114
 30
0.0
 10
365.117820
 20
777.170994
 30
0.0
 10
365.114020
 20
776.798874
 30
0.0
  0
SPLINE
  5
22d
100
AcDbEntity
  8
ribs
 62
7
100
AcDbSpline
 70
8
 71
3
 72
8
 73
4
 74
0
 40
0
 40
0
 40
0
 40
0
 40
1
 40
1
 40
1
 40
1
 10
365.114020
 20
776.798874
 30
0.0
 10
364.715720
 20
776.793874
 30
0.0
 10
364.317420
 20
776.789874
 30
0.0
 10
363.919120
 20
776.784874
 30
0.0
  0
SPLINE
  5
22e
100
AcDbEntity
  8
ribs
 62
7
100
AcDbSpline
 70
8
 71
3
 72
8
 73
4
 74
0
 40
0
 40
0
 40
0
 40
0
 40
1
 40
1
 40
1
 40
1
 10
363.919120
 20
776.784874
 30
0.0
 10
363.919050
 20
776.990624
 30
0.0
 10
363.919250
 20
777.197104
 30
0.0
 10
363.919020
 20
777.402394
 30
0.0
  0
LWPOLYLINE
  5
22f
100
AcDbEntity
  8
ribs
 62
7
100
AcDbPolyline
 90
2
 70
1
 10
354.062320
 20
773.835304
 30
0.0
 10
354.062320
 20
773.835504
 30
0.0
  0
LWPOLYLINE
  5
230
100
AcDbEntity
  8
ribs
 62
7
100
AcDbPolyline
 90
2
 70
1
 10
363.919020
 20
777.402394
 30
0.0
 10
363.919020
 20
777.402394
 30
0.0
  0
ENDSEC
  0
SECTION
  2
OBJECTS
  0
DICTIONARY
  5
C
330
0
100
AcDbDictionary
  3
ACAD_GROUP
350
D
  3
ACAD_MLINESTYLE
350
17
  0
DICTIONARY
  5
D
330
C
100
AcDbDictionary
  0
DICTIONARY
  5
1A
330
C
100
AcDbDictionary
  0
DICTIONARY
  5
17
330
C
100
AcDbDictionary
  3
STANDARD
350
18
  0
DICTIONARY
  5
19
330
C
100
AcDbDictionary
  0
ENDSEC
  0
EOF
