  0
SECTION
  2
HEADER
  9
$ACADVER
  1
AC1014
  9
$HANDSEED
  5
FFFF
  9
$MEASUREMENT
 70
     1
  0
ENDSEC
  0
SECTION
  2
TABLES
  0
TABLE
  2
VPORT
  5
8
330
0
100
AcDbSymbolTable
 70
     4
  0
VPORT
  5
2E
330
8
100
AcDbSymbolTableRecord
100
AcDbViewportTableRecord
  2
*ACTIVE
 70
     0
 10
0.0
 20
0.0
 11
1.0
 21
1.0
 12
210.0
 22
148.5
 13
0.0
 23
0.0
 14
10.0
 24
10.0
 15
10.0
 25
10.0
 16
0.0
 26
0.0
 36
1.0
 17
0.0
 27
0.0
 37
0.0
 40
341.0
 41
1.24
 42
50.0
 43
0.0
 44
0.0
 50
0.0
 51
0.0
 71
     0
 72
   100
 73
     1
 74
     3
 75
     0
 76
     0
 77
     0
 78
     0
  0
ENDTAB
  0
TABLE
  2
LTYPE
  5
5
330
0
100
AcDbSymbolTable
 70
     1
  0
LTYPE
  5
14
330
5
100
AcDbSymbolTableRecord
100
AcDbLinetypeTableRecord
  2
BYBLOCK
 70
     0
  3

 72
    65
 73
     0
 40
0.0
  0
LTYPE
  5
15
330
5
100
AcDbSymbolTableRecord
100
AcDbLinetypeTableRecord
  2
BYLAYER
 70
     0
  3

 72
    65
 73
     0
 40
0.0
  0
LTYPE
  5
16
330
5
100
AcDbSymbolTableRecord
100
AcDbLinetypeTableRecord
  2
CONTINUOUS
 70
     0
  3
Solid line
 72
    65
 73
     0
 40
0.0
  0
ENDTAB
  0
TABLE
  2
LAYER
  5
2
100
AcDbSymbolTable
 70
7
  0
LAYER
  5
50
100
AcDbSymbolTableRecord
100
AcDbLayerTableRecord
  2
0
 70
0
  6
CONTINUOUS
  0
LAYER
  5
51
100
AcDbSymbolTableRecord
100
AcDbLayerTableRecord
  2
outline
 70
0
  6
CONTINUOUS
  0
LAYER
  5
52
100
AcDbSymbolTableRecord
100
AcDbLayerTableRecord
  2
table_holder
 70
0
  6
CONTINUOUS
  0
LAYER
  5
53
100
AcDbSymbolTableRecord
100
AcDbLayerTableRecord
  2
big_parts_outside_cut_
 70
0
  6
CONTINUOUS
  0
LAYER
  5
54
100
AcDbSymbolTableRecord
100
AcDbLayerTableRecord
  2
smal_parts_outside_cut
 70
0
  6
CONTINUOUS
  0
LAYER
  5
55
100
AcDbSymbolTableRecord
100
AcDbLayerTableRecord
  2
large_holes_inside_cut
 70
0
  6
CONTINUOUS
  0
LAYER
  5
56
100
AcDbSymbolTableRecord
100
AcDbLayerTableRecord
  2
small_holes_inside_cut
 70
0
  6
CONTINUOUS
  0
ENDTAB
  0
TABLE
  2
STYLE
  5
3
330
0
100
AcDbSymbolTable
 70
     1
  0
STYLE
  5
11
330
3
100
AcDbSymbolTableRecord
100
AcDbTextStyleTableRecord
  2
STANDARD
 70
     0
 40
0.0
 41
1.0
 50
0.0
 71
     0
 42
2.5
  3
txt
  4

  0
ENDTAB
  0
TABLE
  2
VIEW
  5
6
330
0
100
AcDbSymbolTable
 70
     0
  0
ENDTAB
  0
TABLE
  2
UCS
  5
7
330
0
100
AcDbSymbolTable
 70
     0
  0
ENDTAB
  0
TABLE
  2
APPID
  5
9
330
0
100
AcDbSymbolTable
 70
     2
  0
APPID
  5
12
330
9
100
AcDbSymbolTableRecord
100
AcDbRegAppTableRecord
  2
ACAD
 70
     0
  0
ENDTAB
  0
TABLE
  2
DIMSTYLE
  5
A
330
0
100
AcDbSymbolTable
 70
     1
  0
DIMSTYLE
105
27
330
A
100
AcDbSymbolTableRecord
100
AcDbDimStyleTableRecord
  2
ISO-25
 70
     0
  3

  4

  5

  6

  7

 40
1.0
 41
2.5
 42
0.625
 43
3.75
 44
1.25
 45
0.0
 46
0.0
 47
0.0
 48
0.0
140
2.5
141
2.5
142
0.0
143
0.03937007874016
144
1.0
145
0.0
146
1.0
147
0.625
 71
     0
 72
     0
 73
     0
 74
     0
 75
     0
 76
     0
 77
     1
 78
     8
170
     0
171
     3
172
     1
173
     0
174
     0
175
     0
176
     0
177
     0
178
     0
270
     2
271
     2
272
     2
273
     2
274
     3
340
11
275
     0
280
     0
281
     0
282
     0
283
     0
284
     8
285
     0
286
     0
287
     3
288
     0
  0
ENDTAB
  0
TABLE
  2
BLOCK_RECORD
  5
1
330
0
100
AcDbSymbolTable
 70
     1
  0
BLOCK_RECORD
  5
1F
330
1
100
AcDbSymbolTableRecord
100
AcDbBlockTableRecord
  2
*MODEL_SPACE
  0
BLOCK_RECORD
  5
1B
330
1
100
AcDbSymbolTableRecord
100
AcDbBlockTableRecord
  2
*PAPER_SPACE
  0
ENDTAB
  0
ENDSEC
  0
SECTION
  2
BLOCKS
  0
BLOCK
  5
20
330
1F
100
AcDbEntity
  8
0
100
AcDbBlockBegin
  2
*MODEL_SPACE
 70
     0
 10
0.0
 20
0.0
 30
0.0
  3
*MODEL_SPACE
  1

  0
ENDBLK
  5
21
330
1F
100
AcDbEntity
  8
0
100
AcDbBlockEnd
  0
BLOCK
  5
1C
330
1B
100
AcDbEntity
 67
     1
  8
0
100
AcDbBlockBegin
  2
*PAPER_SPACE
  1

  0
ENDBLK
  5
1D
330
1B
100
AcDbEntity
 67
     1
  8
0
100
AcDbBlockEnd
  0
ENDSEC
  0
SECTION
  2
ENTITIES
  0
SPLINE
  5
100
100
AcDbEntity
  8
table_holder
 62
1
100
AcDbSpline
 70
8
 71
3
 72
8
 73
4
 74
0
 40
0
 40
0
 40
0
 40
0
 40
1
 40
1
 40
1
 40
1
 10
212.407288
 20
3220.100643
 30
0.0
 10
212.407278
 20
3196.895094
 30
0.0
 10
193.595461
 20
3178.083284
 30
0.0
 10
170.389912
 20
3178.083283
 30
0.0
  0
SPLINE
  5
101
100
AcDbEntity
  8
table_holder
 62
1
100
AcDbSpline
 70
8
 71
3
 72
8
 73
4
 74
0
 40
0
 40
0
 40
0
 40
0
 40
1
 40
1
 40
1
 40
1
 10
170.389912
 20
3178.083283
 30
0.0
 10
147.184363
 20
3178.083284
 30
0.0
 10
128.372546
 20
3196.895094
 30
0.0
 10
128.372536
 20
3220.100643
 30
0.0
  0
SPLINE
  5
102
100
AcDbEntity
  8
table_holder
 62
1
100
AcDbSpline
 70
8
 71
3
 72
8
 73
4
 74
0
 40
0
 40
0
 40
0
 40
0
 40
1
 40
1
 40
1
 40
1
 10
128.372536
 20
3220.100643
 30
0.0
 10
128.372546
 20
3243.306193
 30
0.0
 10
147.184363
 20
3262.118002
 30
0.0
 10
170.389912
 20
3262.118003
 30
0.0
  0
SPLINE
  5
103
100
AcDbEntity
  8
table_holder
 62
1
100
AcDbSpline
 70
8
 71
3
 72
8
 73
4
 74
0
 40
0
 40
0
 40
0
 40
0
 40
1
 40
1
 40
1
 40
1
 10
170.389912
 20
3262.118003
 30
0.0
 10
193.595461
 20
3262.118002
 30
0.0
 10
212.407278
 20
3243.306193
 30
0.0
 10
212.407288
 20
3220.100643
 30
0.0
  0
LWPOLYLINE
  5
104
100
AcDbEntity
  8
outline
 62
1
100
AcDbPolyline
 90
5
 70
1
 10
61.699347
 20
3355.736424
 30
0.0
 10
6723.116547
 20
3355.736424
 30
0.0
 10
6723.116547
 20
39.200904
 30
0.0
 10
61.699347
 20
39.200904
 30
0.0
 10
61.699347
 20
3355.736424
 30
0.0
  0
SPLINE
  5
105
100
AcDbEntity
  8
table_holder
 62
1
100
AcDbSpline
 70
8
 71
3
 72
8
 73
4
 74
0
 40
0
 40
0
 40
0
 40
0
 40
1
 40
1
 40
1
 40
1
 10
200.672840
 20
185.098003
 30
0.0
 10
200.672830
 20
161.892454
 30
0.0
 10
181.861013
 20
143.080644
 30
0.0
 10
158.655464
 20
143.080643
 30
0.0
  0
SPLINE
  5
106
100
AcDbEntity
  8
table_holder
 62
1
100
AcDbSpline
 70
8
 71
3
 72
8
 73
4
 74
0
 40
0
 40
0
 40
0
 40
0
 40
1
 40
1
 40
1
 40
1
 10
158.655464
 20
143.080643
 30
0.0
 10
135.449915
 20
143.080644
 30
0.0
 10
116.638098
 20
161.892454
 30
0.0
 10
116.638088
 20
185.098003
 30
0.0
  0
SPLINE
  5
107
100
AcDbEntity
  8
table_holder
 62
1
100
AcDbSpline
 70
8
 71
3
 72
8
 73
4
 74
0
 40
0
 40
0
 40
0
 40
0
 40
1
 40
1
 40
1
 40
1
 10
116.638088
 20
185.098003
 30
0.0
 10
116.638098
 20
208.303553
 30
0.0
 10
135.449915
 20
227.115362
 30
0.0
 10
158.655464
 20
227.115363
 30
0.0
  0
SPLINE
  5
108
100
AcDbEntity
  8
table_holder
 62
1
100
AcDbSpline
 70
8
 71
3
 72
8
 73
4
 74
0
 40
0
 40
0
 40
0
 40
0
 40
1
 40
1
 40
1
 40
1
 10
158.655464
 20
227.115363
 30
0.0
 10
181.861013
 20
227.115362
 30
0.0
 10
200.672830
 20
208.303553
 30
0.0
 10
200.672840
 20
185.098003
 30
0.0
  0
LWPOLYLINE
  5
109
100
AcDbEntity
  8
table_holder
 62
1
100
AcDbPolyline
 90
2
 70
1
 10
212.407288
 20
3220.100643
 30
0.0
 10
212.407288
 20
3220.100643
 30
0.0
  0
SPLINE
  5
10a
100
AcDbEntity
  8
table_holder
 62
1
100
AcDbSpline
 70
8
 71
3
 72
8
 73
4
 74
0
 40
0
 40
0
 40
0
 40
0
 40
1
 40
1
 40
1
 40
1
 10
4898.637440
 20
3190.737755
 30
0.0
 10
4898.637430
 20
3167.532212
 30
0.0
 10
4879.825623
 20
3148.720405
 30
0.0
 10
4856.620080
 20
3148.720395
 30
0.0
  0
SPLINE
  5
10b
100
AcDbEntity
  8
table_holder
 62
1
100
AcDbSpline
 70
8
 71
3
 72
8
 73
4
 74
0
 40
0
 40
0
 40
0
 40
0
 40
1
 40
1
 40
1
 40
1
 10
4856.620080
 20
3148.720395
 30
0.0
 10
4833.414537
 20
3148.720405
 30
0.0
 10
4814.602730
 20
3167.532212
 30
0.0
 10
4814.602720
 20
3190.737755
 30
0.0
  0
SPLINE
  5
10c
100
AcDbEntity
  8
table_holder
 62
1
100
AcDbSpline
 70
8
 71
3
 72
8
 73
4
 74
0
 40
0
 40
0
 40
0
 40
0
 40
1
 40
1
 40
1
 40
1
 10
4814.602720
 20
3190.737755
 30
0.0
 10
4814.602743
 20
3213.943289
 30
0.0
 10
4833.414546
 20
3232.755081
 30
0.0
 10
4856.620080
 20
3232.755091
 30
0.0
  0
SPLINE
  5
10d
100
AcDbEntity
  8
table_holder
 62
1
100
AcDbSpline
 70
8
 71
3
 72
8
 73
4
 74
0
 40
0
 40
0
 40
0
 40
0
 40
1
 40
1
 40
1
 40
1
 10
4856.620080
 20
3232.755091
 30
0.0
 10
4879.825614
 20
3232.755081
 30
0.0
 10
4898.637417
 20
3213.943289
 30
0.0
 10
4898.637440
 20
3190.737755
 30
0.0
  0
LWPOLYLINE
  5
10e
100
AcDbEntity
  8
table_holder
 62
1
100
AcDbPolyline
 90
2
 70
1
 10
200.672840
 20
185.098003
 30
0.0
 10
200.672840
 20
185.098003
 30
0.0
  0
SPLINE
  5
10f
100
AcDbEntity
  8
table_holder
 62
1
100
AcDbSpline
 70
8
 71
3
 72
8
 73
4
 74
0
 40
0
 40
0
 40
0
 40
0
 40
1
 40
1
 40
1
 40
1
 10
4360.971760
 20
246.797363
 30
0.0
 10
4360.971750
 20
223.591820
 30
0.0
 10
4342.159943
 20
204.780013
 30
0.0
 10
4318.954400
 20
204.780003
 30
0.0
  0
SPLINE
  5
110
100
AcDbEntity
  8
table_holder
 62
1
100
AcDbSpline
 70
8
 71
3
 72
8
 73
4
 74
0
 40
0
 40
0
 40
0
 40
0
 40
1
 40
1
 40
1
 40
1
 10
4318.954400
 20
204.780003
 30
0.0
 10
4307.810691
 20
204.779987
 30
0.0
 10
4297.123393
 20
209.206795
 30
0.0
 10
4289.243593
 20
217.086580
 30
0.0
  0
SPLINE
  5
111
100
AcDbEntity
  8
table_holder
 62
1
100
AcDbSpline
 70
8
 71
3
 72
8
 73
4
 74
0
 40
0
 40
0
 40
0
 40
0
 40
1
 40
1
 40
1
 40
1
 10
4289.243593
 20
217.086580
 30
0.0
 10
4281.363793
 20
224.966365
 30
0.0
 10
4276.936965
 20
235.653654
 30
0.0
 10
4276.936960
 20
246.797363
 30
0.0
  0
SPLINE
  5
112
100
AcDbEntity
  8
table_holder
 62
1
100
AcDbSpline
 70
8
 71
3
 72
8
 73
4
 74
0
 40
0
 40
0
 40
0
 40
0
 40
1
 40
1
 40
1
 40
1
 10
4276.936960
 20
246.797363
 30
0.0
 10
4276.936965
 20
257.941072
 30
0.0
 10
4281.363793
 20
268.628362
 30
0.0
 10
4289.243593
 20
276.508146
 30
0.0
  0
SPLINE
  5
113
100
AcDbEntity
  8
table_holder
 62
1
100
AcDbSpline
 70
8
 71
3
 72
8
 73
4
 74
0
 40
0
 40
0
 40
0
 40
0
 40
1
 40
1
 40
1
 40
1
 10
4289.243593
 20
276.508146
 30
0.0
 10
4297.123393
 20
284.387931
 30
0.0
 10
4307.810691
 20
288.814740
 30
0.0
 10
4318.954400
 20
288.814723
 30
0.0
  0
SPLINE
  5
114
100
AcDbEntity
  8
table_holder
 62
1
100
AcDbSpline
 70
8
 71
3
 72
8
 73
4
 74
0
 40
0
 40
0
 40
0
 40
0
 40
1
 40
1
 40
1
 40
1
 10
4318.954400
 20
288.814723
 30
0.0
 10
4342.159943
 20
288.814713
 30
0.0
 10
4360.971750
 20
270.002906
 30
0.0
 10
4360.971760
 20
246.797363
 30
0.0
  0
LWPOLYLINE
  5
115
100
AcDbEntity
  8
table_holder
 62
1
100
AcDbPolyline
 90
2
 70
1
 10
4898.637440
 20
3190.737755
 30
0.0
 10
4898.637440
 20
3190.737755
 30
0.0
  0
SPLINE
  5
116
100
AcDbEntity
  8
table_holder
 62
1
100
AcDbSpline
 70
8
 71
3
 72
8
 73
4
 74
0
 40
0
 40
0
 40
0
 40
0
 40
1
 40
1
 40
1
 40
1
 10
6661.476000
 20
141.027123
 30
0.0
 10
6661.475990
 20
117.821580
 30
0.0
 10
6642.664183
 20
99.009773
 30
0.0
 10
6619.458640
 20
99.009763
 30
0.0
  0
SPLINE
  5
117
100
AcDbEntity
  8
table_holder
 62
1
100
AcDbSpline
 70
8
 71
3
 72
8
 73
4
 74
0
 40
0
 40
0
 40
0
 40
0
 40
1
 40
1
 40
1
 40
1
 10
6619.458640
 20
99.009763
 30
0.0
 10
6596.253097
 20
99.009773
 30
0.0
 10
6577.441290
 20
117.821580
 30
0.0
 10
6577.441280
 20
141.027123
 30
0.0
  0
SPLINE
  5
118
100
AcDbEntity
  8
table_holder
 62
1
100
AcDbSpline
 70
8
 71
3
 72
8
 73
4
 74
0
 40
0
 40
0
 40
0
 40
0
 40
1
 40
1
 40
1
 40
1
 10
6577.441280
 20
141.027123
 30
0.0
 10
6577.441290
 20
164.232666
 30
0.0
 10
6596.253097
 20
183.044473
 30
0.0
 10
6619.458640
 20
183.044483
 30
0.0
  0
SPLINE
  5
119
100
AcDbEntity
  8
table_holder
 62
1
100
AcDbSpline
 70
8
 71
3
 72
8
 73
4
 74
0
 40
0
 40
0
 40
0
 40
0
 40
1
 40
1
 40
1
 40
1
 10
6619.458640
 20
183.044483
 30
0.0
 10
6642.664183
 20
183.044473
 30
0.0
 10
6661.475990
 20
164.232666
 30
0.0
 10
6661.476000
 20
141.027123
 30
0.0
  0
LWPOLYLINE
  5
11a
100
AcDbEntity
  8
table_holder
 62
1
100
AcDbPolyline
 90
2
 70
1
 10
4360.971760
 20
246.797363
 30
0.0
 10
4360.971760
 20
246.797363
 30
0.0
  0
SPLINE
  5
11b
100
AcDbEntity
  8
table_holder
 62
1
100
AcDbSpline
 70
8
 71
3
 72
8
 73
4
 74
0
 40
0
 40
0
 40
0
 40
0
 40
1
 40
1
 40
1
 40
1
 10
6670.290240
 20
3208.366099
 30
0.0
 10
6670.290230
 20
3185.160556
 30
0.0
 10
6651.478423
 20
3166.348749
 30
0.0
 10
6628.272880
 20
3166.348739
 30
0.0
  0
SPLINE
  5
11c
100
AcDbEntity
  8
table_holder
 62
1
100
AcDbSpline
 70
8
 71
3
 72
8
 73
4
 74
0
 40
0
 40
0
 40
0
 40
0
 40
1
 40
1
 40
1
 40
1
 10
6628.272880
 20
3166.348739
 30
0.0
 10
6605.067337
 20
3166.348749
 30
0.0
 10
6586.255530
 20
3185.160556
 30
0.0
 10
6586.255520
 20
3208.366099
 30
0.0
  0
SPLINE
  5
11d
100
AcDbEntity
  8
table_holder
 62
1
100
AcDbSpline
 70
8
 71
3
 72
8
 73
4
 74
0
 40
0
 40
0
 40
0
 40
0
 40
1
 40
1
 40
1
 40
1
 10
6586.255520
 20
3208.366099
 30
0.0
 10
6586.255530
 20
3231.571642
 30
0.0
 10
6605.067337
 20
3250.383449
 30
0.0
 10
6628.272880
 20
3250.383459
 30
0.0
  0
SPLINE
  5
11e
100
AcDbEntity
  8
table_holder
 62
1
100
AcDbSpline
 70
8
 71
3
 72
8
 73
4
 74
0
 40
0
 40
0
 40
0
 40
0
 40
1
 40
1
 40
1
 40
1
 10
6628.272880
 20
3250.383459
 30
0.0
 10
6651.478423
 20
3250.383449
 30
0.0
 10
6670.290230
 20
3231.571642
 30
0.0
 10
6670.290240
 20
3208.366099
 30
0.0
  0
LWPOLYLINE
  5
11f
100
AcDbEntity
  8
table_holder
 62
1
100
AcDbPolyline
 90
2
 70
1
 10
6661.476000
 20
141.027123
 30
0.0
 10
6661.476000
 20
141.027123
 30
0.0
  0
LWPOLYLINE
  5
120
100
AcDbEntity
  8
table_holder
 62
1
100
AcDbPolyline
 90
2
 70
1
 10
6670.290240
 20
3208.366099
 30
0.0
 10
6670.290240
 20
3208.366099
 30
0.0
  0
LWPOLYLINE
  5
121
100
AcDbEntity
  8
big_parts_outside_cut_
 62
3
100
AcDbPolyline
 90
2
 70
0
 10
308.520688
 20
233.967918
 30
0.0
 10
308.520688
 20
1676.802526
 30
0.0
  0
LWPOLYLINE
  5
122
100
AcDbEntity
  8
big_parts_outside_cut_
 62
3
100
AcDbPolyline
 90
2
 70
0
 10
2292.772688
 20
1676.802526
 30
0.0
 10
2292.772688
 20
233.967918
 30
0.0
  0
LWPOLYLINE
  5
123
100
AcDbEntity
  8
big_parts_outside_cut_
 62
3
100
AcDbPolyline
 90
2
 70
0
 10
308.520688
 20
3119.637166
 30
0.0
 10
308.520688
 20
1676.802526
 30
0.0
  0
LWPOLYLINE
  5
124
100
AcDbEntity
  8
big_parts_outside_cut_
 62
3
100
AcDbPolyline
 90
2
 70
0
 10
2292.772688
 20
1676.802526
 30
0.0
 10
2292.772688
 20
3119.637166
 30
0.0
  0
LWPOLYLINE
  5
125
100
AcDbEntity
  8
big_parts_outside_cut_
 62
3
100
AcDbPolyline
 90
2
 70
0
 10
1300.646688
 20
182.944294
 30
0.0
 10
1438.223488
 20
182.944294
 30
0.0
  0
SPLINE
  5
126
100
AcDbEntity
  8
big_parts_outside_cut_
 62
3
100
AcDbSpline
 70
8
 71
3
 72
8
 73
4
 74
0
 40
0
 40
0
 40
0
 40
0
 40
1
 40
1
 40
1
 40
1
 10
1456.506288
 20
233.967918
 30
0.0
 10
1452.631537
 20
237.840902
 30
0.0
 10
1446.350977
 20
237.840189
 30
0.0
 10
1442.477105
 20
233.966324
 30
0.0
  0
SPLINE
  5
127
100
AcDbEntity
  8
big_parts_outside_cut_
 62
3
100
AcDbSpline
 70
8
 71
3
 72
8
 73
4
 74
0
 40
0
 40
0
 40
0
 40
0
 40
1
 40
1
 40
1
 40
1
 10
1442.477105
 20
233.966324
 30
0.0
 10
1438.603234
 20
230.092459
 30
0.0
 10
1438.602510
 20
223.811900
 30
0.0
 10
1442.475488
 20
219.937142
 30
0.0
  0
SPLINE
  5
128
100
AcDbEntity
  8
big_parts_outside_cut_
 62
3
100
AcDbSpline
 70
8
 71
3
 72
8
 73
4
 74
0
 40
0
 40
0
 40
0
 40
0
 40
1
 40
1
 40
1
 40
1
 10
1159.010928
 20
219.818582
 30
0.0
 10
1162.911462
 20
223.661259
 30
0.0
 10
1162.961540
 20
229.937366
 30
0.0
 10
1159.122822
 20
233.841796
 30
0.0
  0
SPLINE
  5
129
100
AcDbEntity
  8
big_parts_outside_cut_
 62
3
100
AcDbSpline
 70
8
 71
3
 72
8
 73
4
 74
0
 40
0
 40
0
 40
0
 40
0
 40
1
 40
1
 40
1
 40
1
 10
1159.122822
 20
233.841796
 30
0.0
 10
1155.284104
 20
237.746227
 30
0.0
 10
1149.008051
 20
237.802673
 30
0.0
 10
1145.099728
 20
233.967918
 30
0.0
  0
SPLINE
  5
12a
100
AcDbEntity
  8
big_parts_outside_cut_
 62
3
100
AcDbSpline
 70
8
 71
3
 72
8
 73
4
 74
0
 40
0
 40
0
 40
0
 40
0
 40
1
 40
1
 40
1
 40
1
 10
1159.010928
 20
187.196262
 30
0.0
 10
1159.010928
 20
184.847983
 30
0.0
 10
1160.914570
 20
182.944320
 30
0.0
 10
1163.262848
 20
182.944294
 30
0.0
  0
LWPOLYLINE
  5
12b
100
AcDbEntity
  8
big_parts_outside_cut_
 62
3
100
AcDbPolyline
 90
2
 70
0
 10
1442.475488
 20
187.196262
 30
0.0
 10
1442.475488
 20
219.937134
 30
0.0
  0
LWPOLYLINE
  5
12c
100
AcDbEntity
  8
big_parts_outside_cut_
 62
3
100
AcDbPolyline
 90
2
 70
0
 10
1159.010928
 20
187.196262
 30
0.0
 10
1159.010928
 20
219.818582
 30
0.0
  0
SPLINE
  5
12d
100
AcDbEntity
  8
big_parts_outside_cut_
 62
3
100
AcDbSpline
 70
8
 71
3
 72
8
 73
4
 74
0
 40
0
 40
0
 40
0
 40
0
 40
1
 40
1
 40
1
 40
1
 10
1438.223488
 20
182.944294
 30
0.0
 10
1439.351186
 20
182.944285
 30
0.0
 10
1440.432698
 20
183.392255
 30
0.0
 10
1441.230104
 20
184.189655
 30
0.0
  0
SPLINE
  5
12e
100
AcDbEntity
  8
big_parts_outside_cut_
 62
3
100
AcDbSpline
 70
8
 71
3
 72
8
 73
4
 74
0
 40
0
 40
0
 40
0
 40
0
 40
1
 40
1
 40
1
 40
1
 10
1441.230104
 20
184.189655
 30
0.0
 10
1442.027509
 20
184.987055
 30
0.0
 10
1442.475488
 20
186.068564
 30
0.0
 10
1442.475488
 20
187.196262
 30
0.0
  0
SPLINE
  5
12f
100
AcDbEntity
  8
big_parts_outside_cut_
 62
3
100
AcDbSpline
 70
8
 71
3
 72
8
 73
4
 74
0
 40
0
 40
0
 40
0
 40
0
 40
1
 40
1
 40
1
 40
1
 10
2023.435408
 20
233.967918
 30
0.0
 10
2019.560657
 20
237.840902
 30
0.0
 10
2013.280097
 20
237.840189
 30
0.0
 10
2009.406225
 20
233.966324
 30
0.0
  0
SPLINE
  5
130
100
AcDbEntity
  8
big_parts_outside_cut_
 62
3
100
AcDbSpline
 70
8
 71
3
 72
8
 73
4
 74
0
 40
0
 40
0
 40
0
 40
0
 40
1
 40
1
 40
1
 40
1
 10
2009.406225
 20
233.966324
 30
0.0
 10
2005.532354
 20
230.092459
 30
0.0
 10
2005.531630
 20
223.811900
 30
0.0
 10
2009.404608
 20
219.937142
 30
0.0
  0
LWPOLYLINE
  5
131
100
AcDbEntity
  8
big_parts_outside_cut_
 62
3
100
AcDbPolyline
 90
2
 70
0
 10
1300.646688
 20
182.944294
 30
0.0
 10
1163.262848
 20
182.944294
 30
0.0
  0
LWPOLYLINE
  5
132
100
AcDbEntity
  8
big_parts_outside_cut_
 62
3
100
AcDbPolyline
 90
2
 70
0
 10
2009.404608
 20
187.196262
 30
0.0
 10
2009.404608
 20
219.937134
 30
0.0
  0
SPLINE
  5
133
100
AcDbEntity
  8
big_parts_outside_cut_
 62
3
100
AcDbSpline
 70
8
 71
3
 72
8
 73
4
 74
0
 40
0
 40
0
 40
0
 40
0
 40
1
 40
1
 40
1
 40
1
 10
2005.152688
 20
182.944294
 30
0.0
 10
2007.500966
 20
182.944320
 30
0.0
 10
2009.404608
 20
184.847983
 30
0.0
 10
2009.404608
 20
187.196262
 30
0.0
  0
LWPOLYLINE
  5
134
100
AcDbEntity
  8
big_parts_outside_cut_
 62
3
100
AcDbPolyline
 90
2
 70
0
 10
1867.575808
 20
182.944294
 30
0.0
 10
2005.152688
 20
182.944294
 30
0.0
  0
SPLINE
  5
135
100
AcDbEntity
  8
big_parts_outside_cut_
 62
3
100
AcDbSpline
 70
8
 71
3
 72
8
 73
4
 74
0
 40
0
 40
0
 40
0
 40
0
 40
1
 40
1
 40
1
 40
1
 10
1725.940048
 20
187.196262
 30
0.0
 10
1725.940048
 20
186.068564
 30
0.0
 10
1726.388027
 20
184.987055
 30
0.0
 10
1727.185432
 20
184.189655
 30
0.0
  0
SPLINE
  5
136
100
AcDbEntity
  8
big_parts_outside_cut_
 62
3
100
AcDbSpline
 70
8
 71
3
 72
8
 73
4
 74
0
 40
0
 40
0
 40
0
 40
0
 40
1
 40
1
 40
1
 40
1
 10
1727.185432
 20
184.189655
 30
0.0
 10
1727.982838
 20
183.392255
 30
0.0
 10
1729.064350
 20
182.944285
 30
0.0
 10
1730.192048
 20
182.944294
 30
0.0
  0
LWPOLYLINE
  5
137
100
AcDbEntity
  8
big_parts_outside_cut_
 62
3
100
AcDbPolyline
 90
2
 70
0
 10
1867.575808
 20
182.944294
 30
0.0
 10
1730.192048
 20
182.944294
 30
0.0
  0
SPLINE
  5
138
100
AcDbEntity
  8
big_parts_outside_cut_
 62
3
100
AcDbSpline
 70
8
 71
3
 72
8
 73
4
 74
0
 40
0
 40
0
 40
0
 40
0
 40
1
 40
1
 40
1
 40
1
 10
1725.940048
 20
219.818582
 30
0.0
 10
1729.840582
 20
223.661259
 30
0.0
 10
1729.890660
 20
229.937366
 30
0.0
 10
1726.051942
 20
233.841796
 30
0.0
  0
SPLINE
  5
139
100
AcDbEntity
  8
big_parts_outside_cut_
 62
3
100
AcDbSpline
 70
8
 71
3
 72
8
 73
4
 74
0
 40
0
 40
0
 40
0
 40
0
 40
1
 40
1
 40
1
 40
1
 10
1726.051942
 20
233.841796
 30
0.0
 10
1722.213224
 20
237.746227
 30
0.0
 10
1715.937171
 20
237.802673
 30
0.0
 10
1712.028848
 20
233.967918
 30
0.0
  0
SPLINE
  5
13a
100
AcDbEntity
  8
big_parts_outside_cut_
 62
3
100
AcDbSpline
 70
8
 71
3
 72
8
 73
4
 74
0
 40
0
 40
0
 40
0
 40
0
 40
1
 40
1
 40
1
 40
1
 10
592.081808
 20
219.818582
 30
0.0
 10
595.982342
 20
223.661259
 30
0.0
 10
596.032420
 20
229.937366
 30
0.0
 10
592.193702
 20
233.841796
 30
0.0
  0
SPLINE
  5
13b
100
AcDbEntity
  8
big_parts_outside_cut_
 62
3
100
AcDbSpline
 70
8
 71
3
 72
8
 73
4
 74
0
 40
0
 40
0
 40
0
 40
0
 40
1
 40
1
 40
1
 40
1
 10
592.193702
 20
233.841796
 30
0.0
 10
588.354984
 20
237.746227
 30
0.0
 10
582.078931
 20
237.802673
 30
0.0
 10
578.170608
 20
233.967918
 30
0.0
  0
LWPOLYLINE
  5
13c
100
AcDbEntity
  8
big_parts_outside_cut_
 62
3
100
AcDbPolyline
 90
2
 70
0
 10
1725.940048
 20
187.196262
 30
0.0
 10
1725.940048
 20
219.818582
 30
0.0
  0
SPLINE
  5
13d
100
AcDbEntity
  8
big_parts_outside_cut_
 62
3
100
AcDbSpline
 70
8
 71
3
 72
8
 73
4
 74
0
 40
0
 40
0
 40
0
 40
0
 40
1
 40
1
 40
1
 40
1
 10
592.081808
 20
187.196262
 30
0.0
 10
592.081808
 20
184.847983
 30
0.0
 10
593.985450
 20
182.944320
 30
0.0
 10
596.333728
 20
182.944294
 30
0.0
  0
LWPOLYLINE
  5
13e
100
AcDbEntity
  8
big_parts_outside_cut_
 62
3
100
AcDbPolyline
 90
2
 70
0
 10
592.081808
 20
187.196262
 30
0.0
 10
592.081808
 20
219.818582
 30
0.0
  0
LWPOLYLINE
  5
13f
100
AcDbEntity
  8
big_parts_outside_cut_
 62
3
100
AcDbPolyline
 90
2
 70
0
 10
733.717568
 20
182.944294
 30
0.0
 10
596.333728
 20
182.944294
 30
0.0
  0
SPLINE
  5
140
100
AcDbEntity
  8
big_parts_outside_cut_
 62
3
100
AcDbSpline
 70
8
 71
3
 72
8
 73
4
 74
0
 40
0
 40
0
 40
0
 40
0
 40
1
 40
1
 40
1
 40
1
 10
871.294368
 20
182.944294
 30
0.0
 10
872.422066
 20
182.944285
 30
0.0
 10
873.503578
 20
183.392255
 30
0.0
 10
874.300984
 20
184.189655
 30
0.0
  0
SPLINE
  5
141
100
AcDbEntity
  8
big_parts_outside_cut_
 62
3
100
AcDbSpline
 70
8
 71
3
 72
8
 73
4
 74
0
 40
0
 40
0
 40
0
 40
0
 40
1
 40
1
 40
1
 40
1
 10
874.300984
 20
184.189655
 30
0.0
 10
875.098389
 20
184.987055
 30
0.0
 10
875.546368
 20
186.068564
 30
0.0
 10
875.546368
 20
187.196262
 30
0.0
  0
LWPOLYLINE
  5
142
100
AcDbEntity
  8
big_parts_outside_cut_
 62
3
100
AcDbPolyline
 90
2
 70
0
 10
733.717568
 20
182.944294
 30
0.0
 10
871.294368
 20
182.944294
 30
0.0
  0
SPLINE
  5
143
100
AcDbEntity
  8
big_parts_outside_cut_
 62
3
100
AcDbSpline
 70
8
 71
3
 72
8
 73
4
 74
0
 40
0
 40
0
 40
0
 40
0
 40
1
 40
1
 40
1
 40
1
 10
889.577088
 20
233.967918
 30
0.0
 10
885.700167
 20
237.828183
 30
0.0
 10
879.430006
 20
237.821428
 30
0.0
 10
875.561411
 20
233.952818
 30
0.0
  0
SPLINE
  5
144
100
AcDbEntity
  8
big_parts_outside_cut_
 62
3
100
AcDbSpline
 70
8
 71
3
 72
8
 73
4
 74
0
 40
0
 40
0
 40
0
 40
0
 40
1
 40
1
 40
1
 40
1
 10
875.561411
 20
233.952818
 30
0.0
 10
871.692817
 20
230.084208
 30
0.0
 10
871.686087
 20
223.814047
 30
0.0
 10
875.546368
 20
219.937142
 30
0.0
  0
LWPOLYLINE
  5
145
100
AcDbEntity
  8
big_parts_outside_cut_
 62
3
100
AcDbPolyline
 90
2
 70
0
 10
875.546368
 20
187.196262
 30
0.0
 10
875.546368
 20
219.937134
 30
0.0
  0
LWPOLYLINE
  5
146
100
AcDbEntity
  8
big_parts_outside_cut_
 62
3
100
AcDbPolyline
 90
2
 70
0
 10
1145.099728
 20
233.967918
 30
0.0
 10
889.577088
 20
233.967918
 30
0.0
  0
LWPOLYLINE
  5
147
100
AcDbEntity
  8
big_parts_outside_cut_
 62
3
100
AcDbPolyline
 90
2
 70
0
 10
578.170608
 20
233.967918
 30
0.0
 10
308.520688
 20
233.967918
 30
0.0
  0
LWPOLYLINE
  5
148
100
AcDbEntity
  8
big_parts_outside_cut_
 62
3
100
AcDbPolyline
 90
2
 70
0
 10
2292.772688
 20
233.967918
 30
0.0
 10
2023.435408
 20
233.967918
 30
0.0
  0
SPLINE
  5
149
100
AcDbEntity
  8
big_parts_outside_cut_
 62
3
100
AcDbSpline
 70
8
 71
3
 72
8
 73
4
 74
0
 40
0
 40
0
 40
0
 40
0
 40
1
 40
1
 40
1
 40
1
 10
2009.404608
 20
3133.353086
 30
0.0
 10
2006.871792
 20
3130.806825
 30
0.0
 10
2005.912477
 20
3127.090723
 30
0.0
 10
2006.896299
 20
3123.636639
 30
0.0
  0
SPLINE
  5
14a
100
AcDbEntity
  8
big_parts_outside_cut_
 62
3
100
AcDbSpline
 70
8
 71
3
 72
8
 73
4
 74
0
 40
0
 40
0
 40
0
 40
0
 40
1
 40
1
 40
1
 40
1
 10
2006.896299
 20
3123.636639
 30
0.0
 10
2007.880122
 20
3120.182556
 30
0.0
 10
2010.653517
 20
3117.529637
 30
0.0
 10
2014.147862
 20
3116.700086
 30
0.0
  0
SPLINE
  5
14b
100
AcDbEntity
  8
big_parts_outside_cut_
 62
3
100
AcDbSpline
 70
8
 71
3
 72
8
 73
4
 74
0
 40
0
 40
0
 40
0
 40
0
 40
1
 40
1
 40
1
 40
1
 10
2014.147862
 20
3116.700086
 30
0.0
 10
2017.642207
 20
3115.870534
 30
0.0
 10
2021.312070
 20
3116.993835
 30
0.0
 10
2023.743408
 20
3119.637166
 30
0.0
  0
LWPOLYLINE
  5
14c
100
AcDbEntity
  8
big_parts_outside_cut_
 62
3
100
AcDbPolyline
 90
2
 70
0
 10
1712.028848
 20
233.967918
 30
0.0
 10
1456.506288
 20
233.967918
 30
0.0
  0
SPLINE
  5
14d
100
AcDbEntity
  8
big_parts_outside_cut_
 62
3
100
AcDbSpline
 70
8
 71
3
 72
8
 73
4
 74
0
 40
0
 40
0
 40
0
 40
0
 40
1
 40
1
 40
1
 40
1
 10
2009.404608
 20
3166.093966
 30
0.0
 10
2009.404581
 20
3168.442225
 30
0.0
 10
2007.500947
 20
3170.345859
 30
0.0
 10
2005.152688
 20
3170.345886
 30
0.0
  0
LWPOLYLINE
  5
14e
100
AcDbEntity
  8
big_parts_outside_cut_
 62
3
100
AcDbPolyline
 90
2
 70
0
 10
2009.404608
 20
3166.093966
 30
0.0
 10
2009.404608
 20
3133.353086
 30
0.0
  0
LWPOLYLINE
  5
14f
100
AcDbEntity
  8
big_parts_outside_cut_
 62
3
100
AcDbPolyline
 90
2
 70
0
 10
1867.575808
 20
3170.345886
 30
0.0
 10
2005.152688
 20
3170.345886
 30
0.0
  0
SPLINE
  5
150
100
AcDbEntity
  8
big_parts_outside_cut_
 62
3
100
AcDbSpline
 70
8
 71
3
 72
8
 73
4
 74
0
 40
0
 40
0
 40
0
 40
0
 40
1
 40
1
 40
1
 40
1
 10
1730.192048
 20
3170.345886
 30
0.0
 10
1727.843757
 20
3170.345903
 30
0.0
 10
1725.940075
 20
3168.442256
 30
0.0
 10
1725.940048
 20
3166.093966
 30
0.0
  0
LWPOLYLINE
  5
151
100
AcDbEntity
  8
big_parts_outside_cut_
 62
3
100
AcDbPolyline
 90
2
 70
0
 10
1867.575808
 20
3170.345886
 30
0.0
 10
1730.192048
 20
3170.345886
 30
0.0
  0
SPLINE
  5
152
100
AcDbEntity
  8
big_parts_outside_cut_
 62
3
100
AcDbSpline
 70
8
 71
3
 72
8
 73
4
 74
0
 40
0
 40
0
 40
0
 40
0
 40
1
 40
1
 40
1
 40
1
 10
1711.715648
 20
3119.637166
 30
0.0
 10
1714.167131
 20
3117.006554
 30
0.0
 10
1717.849866
 20
3115.907901
 30
0.0
 10
1721.341940
 20
3116.765400
 30
0.0
  0
SPLINE
  5
153
100
AcDbEntity
  8
big_parts_outside_cut_
 62
3
100
AcDbSpline
 70
8
 71
3
 72
8
 73
4
 74
0
 40
0
 40
0
 40
0
 40
0
 40
1
 40
1
 40
1
 40
1
 10
1721.341940
 20
3116.765400
 30
0.0
 10
1724.834014
 20
3117.622899
 30
0.0
 10
1727.589009
 20
3120.302374
 30
0.0
 10
1728.543213
 20
3123.769271
 30
0.0
  0
SPLINE
  5
154
100
AcDbEntity
  8
big_parts_outside_cut_
 62
3
100
AcDbSpline
 70
8
 71
3
 72
8
 73
4
 74
0
 40
0
 40
0
 40
0
 40
0
 40
1
 40
1
 40
1
 40
1
 10
1728.543213
 20
3123.769271
 30
0.0
 10
1729.497417
 20
3127.236168
 30
0.0
 10
1728.501523
 20
3130.948011
 30
0.0
 10
1725.940048
 20
3133.471646
 30
0.0
  0
SPLINE
  5
155
100
AcDbEntity
  8
big_parts_outside_cut_
 62
3
100
AcDbSpline
 70
8
 71
3
 72
8
 73
4
 74
0
 40
0
 40
0
 40
0
 40
0
 40
1
 40
1
 40
1
 40
1
 10
1442.475488
 20
3133.353086
 30
0.0
 10
1439.931685
 20
3130.808920
 30
0.0
 10
1438.964104
 20
3127.087226
 30
0.0
 10
1439.946668
 20
3123.626261
 30
0.0
  0
SPLINE
  5
156
100
AcDbEntity
  8
big_parts_outside_cut_
 62
3
100
AcDbSpline
 70
8
 71
3
 72
8
 73
4
 74
0
 40
0
 40
0
 40
0
 40
0
 40
1
 40
1
 40
1
 40
1
 10
1439.946668
 20
3123.626261
 30
0.0
 10
1440.929231
 20
3120.165296
 30
0.0
 10
1443.708029
 20
3117.507195
 30
0.0
 10
1447.209188
 20
3116.679187
 30
0.0
  0
SPLINE
  5
157
100
AcDbEntity
  8
big_parts_outside_cut_
 62
3
100
AcDbSpline
 70
8
 71
3
 72
8
 73
4
 74
0
 40
0
 40
0
 40
0
 40
0
 40
1
 40
1
 40
1
 40
1
 10
1447.209188
 20
3116.679187
 30
0.0
 10
1450.710347
 20
3115.851179
 30
0.0
 10
1454.385436
 20
3116.982966
 30
0.0
 10
1456.814208
 20
3119.637166
 30
0.0
  0
LWPOLYLINE
  5
158
100
AcDbEntity
  8
big_parts_outside_cut_
 62
3
100
AcDbPolyline
 90
2
 70
0
 10
1725.940048
 20
3166.093966
 30
0.0
 10
1725.940048
 20
3133.471646
 30
0.0
  0
SPLINE
  5
159
100
AcDbEntity
  8
big_parts_outside_cut_
 62
3
100
AcDbSpline
 70
8
 71
3
 72
8
 73
4
 74
0
 40
0
 40
0
 40
0
 40
0
 40
1
 40
1
 40
1
 40
1
 10
1442.475488
 20
3166.093966
 30
0.0
 10
1442.475461
 20
3168.442256
 30
0.0
 10
1440.571779
 20
3170.345903
 30
0.0
 10
1438.223488
 20
3170.345886
 30
0.0
  0
LWPOLYLINE
  5
15a
100
AcDbEntity
  8
big_parts_outside_cut_
 62
3
100
AcDbPolyline
 90
2
 70
0
 10
1442.475488
 20
3166.093966
 30
0.0
 10
1442.475488
 20
3133.353086
 30
0.0
  0
LWPOLYLINE
  5
15b
100
AcDbEntity
  8
big_parts_outside_cut_
 62
3
100
AcDbPolyline
 90
2
 70
0
 10
1300.646688
 20
3170.345886
 30
0.0
 10
1438.223488
 20
3170.345886
 30
0.0
  0
SPLINE
  5
15c
100
AcDbEntity
  8
big_parts_outside_cut_
 62
3
100
AcDbSpline
 70
8
 71
3
 72
8
 73
4
 74
0
 40
0
 40
0
 40
0
 40
0
 40
1
 40
1
 40
1
 40
1
 10
1163.262848
 20
3170.345886
 30
0.0
 10
1160.914589
 20
3170.345859
 30
0.0
 10
1159.010955
 20
3168.442225
 30
0.0
 10
1159.010928
 20
3166.093966
 30
0.0
  0
LWPOLYLINE
  5
15d
100
AcDbEntity
  8
big_parts_outside_cut_
 62
3
100
AcDbPolyline
 90
2
 70
0
 10
1300.646688
 20
3170.345886
 30
0.0
 10
1163.262848
 20
3170.345886
 30
0.0
  0
SPLINE
  5
15e
100
AcDbEntity
  8
big_parts_outside_cut_
 62
3
100
AcDbSpline
 70
8
 71
3
 72
8
 73
4
 74
0
 40
0
 40
0
 40
0
 40
0
 40
1
 40
1
 40
1
 40
1
 10
1144.786528
 20
3119.637166
 30
0.0
 10
1147.238374
 20
3117.008154
 30
0.0
 10
1150.920332
 20
3115.910742
 30
0.0
 10
1154.411402
 20
3116.768460
 30
0.0
  0
SPLINE
  5
15f
100
AcDbEntity
  8
big_parts_outside_cut_
 62
3
100
AcDbSpline
 70
8
 71
3
 72
8
 73
4
 74
0
 40
0
 40
0
 40
0
 40
0
 40
1
 40
1
 40
1
 40
1
 10
1154.411402
 20
3116.768460
 30
0.0
 10
1157.902472
 20
3117.626178
 30
0.0
 10
1160.656679
 20
3120.304885
 30
0.0
 10
1161.611074
 20
3123.770774
 30
0.0
  0
SPLINE
  5
160
100
AcDbEntity
  8
big_parts_outside_cut_
 62
3
100
AcDbSpline
 70
8
 71
3
 72
8
 73
4
 74
0
 40
0
 40
0
 40
0
 40
0
 40
1
 40
1
 40
1
 40
1
 10
1161.611074
 20
3123.770774
 30
0.0
 10
1162.565469
 20
3127.236662
 30
0.0
 10
1161.570794
 20
3130.947692
 30
0.0
 10
1159.010928
 20
3133.471646
 30
0.0
  0
SPLINE
  5
161
100
AcDbEntity
  8
big_parts_outside_cut_
 62
3
100
AcDbSpline
 70
8
 71
3
 72
8
 73
4
 74
0
 40
0
 40
0
 40
0
 40
0
 40
1
 40
1
 40
1
 40
1
 10
875.546368
 20
3133.353086
 30
0.0
 10
872.993463
 20
3130.810656
 30
0.0
 10
872.019030
 20
3127.084318
 30
0.0
 10
873.000561
 20
3123.617639
 30
0.0
  0
SPLINE
  5
162
100
AcDbEntity
  8
big_parts_outside_cut_
 62
3
100
AcDbSpline
 70
8
 71
3
 72
8
 73
4
 74
0
 40
0
 40
0
 40
0
 40
0
 40
1
 40
1
 40
1
 40
1
 10
873.000561
 20
3123.617639
 30
0.0
 10
873.982092
 20
3120.150959
 30
0.0
 10
876.765386
 20
3117.488557
 30
0.0
 10
880.272208
 20
3116.661835
 30
0.0
  0
SPLINE
  5
163
100
AcDbEntity
  8
big_parts_outside_cut_
 62
3
100
AcDbSpline
 70
8
 71
3
 72
8
 73
4
 74
0
 40
0
 40
0
 40
0
 40
0
 40
1
 40
1
 40
1
 40
1
 10
880.272208
 20
3116.661835
 30
0.0
 10
883.779030
 20
3115.835112
 30
0.0
 10
887.458454
 20
3116.973950
 30
0.0
 10
889.885088
 20
3119.637166
 30
0.0
  0
LWPOLYLINE
  5
164
100
AcDbEntity
  8
big_parts_outside_cut_
 62
3
100
AcDbPolyline
 90
2
 70
0
 10
1159.010928
 20
3166.093966
 30
0.0
 10
1159.010928
 20
3133.471646
 30
0.0
  0
SPLINE
  5
165
100
AcDbEntity
  8
big_parts_outside_cut_
 62
3
100
AcDbSpline
 70
8
 71
3
 72
8
 73
4
 74
0
 40
0
 40
0
 40
0
 40
0
 40
1
 40
1
 40
1
 40
1
 10
875.546368
 20
3166.093966
 30
0.0
 10
875.546341
 20
3168.442256
 30
0.0
 10
873.642659
 20
3170.345903
 30
0.0
 10
871.294368
 20
3170.345886
 30
0.0
  0
LWPOLYLINE
  5
166
100
AcDbEntity
  8
big_parts_outside_cut_
 62
3
100
AcDbPolyline
 90
2
 70
0
 10
875.546368
 20
3166.093966
 30
0.0
 10
875.546368
 20
3133.353086
 30
0.0
  0
LWPOLYLINE
  5
167
100
AcDbEntity
  8
big_parts_outside_cut_
 62
3
100
AcDbPolyline
 90
2
 70
0
 10
733.717568
 20
3170.345886
 30
0.0
 10
871.294368
 20
3170.345886
 30
0.0
  0
SPLINE
  5
168
100
AcDbEntity
  8
big_parts_outside_cut_
 62
3
100
AcDbSpline
 70
8
 71
3
 72
8
 73
4
 74
0
 40
0
 40
0
 40
0
 40
0
 40
1
 40
1
 40
1
 40
1
 10
596.333728
 20
3170.345886
 30
0.0
 10
593.985469
 20
3170.345859
 30
0.0
 10
592.081835
 20
3168.442225
 30
0.0
 10
592.081808
 20
3166.093966
 30
0.0
  0
LWPOLYLINE
  5
169
100
AcDbEntity
  8
big_parts_outside_cut_
 62
3
100
AcDbPolyline
 90
2
 70
0
 10
733.717568
 20
3170.345886
 30
0.0
 10
596.333728
 20
3170.345886
 30
0.0
  0
SPLINE
  5
16a
100
AcDbEntity
  8
big_parts_outside_cut_
 62
3
100
AcDbSpline
 70
8
 71
3
 72
8
 73
4
 74
0
 40
0
 40
0
 40
0
 40
0
 40
1
 40
1
 40
1
 40
1
 10
577.857408
 20
3119.637166
 30
0.0
 10
580.308026
 20
3117.002756
 30
0.0
 10
583.992609
 20
3115.901157
 30
0.0
 10
587.487066
 20
3116.758135
 30
0.0
  0
SPLINE
  5
16b
100
AcDbEntity
  8
big_parts_outside_cut_
 62
3
100
AcDbSpline
 70
8
 71
3
 72
8
 73
4
 74
0
 40
0
 40
0
 40
0
 40
0
 40
1
 40
1
 40
1
 40
1
 10
587.487066
 20
3116.758135
 30
0.0
 10
590.981523
 20
3117.615113
 30
0.0
 10
593.738392
 20
3120.296410
 30
0.0
 10
594.692142
 20
3123.765704
 30
0.0
  0
SPLINE
  5
16c
100
AcDbEntity
  8
big_parts_outside_cut_
 62
3
100
AcDbSpline
 70
8
 71
3
 72
8
 73
4
 74
0
 40
0
 40
0
 40
0
 40
0
 40
1
 40
1
 40
1
 40
1
 10
594.692142
 20
3123.765704
 30
0.0
 10
595.645892
 20
3127.234999
 30
0.0
 10
594.647103
 20
3130.948770
 30
0.0
 10
592.081808
 20
3133.471646
 30
0.0
  0
LWPOLYLINE
  5
16d
100
AcDbEntity
  8
big_parts_outside_cut_
 62
3
100
AcDbPolyline
 90
2
 70
0
 10
592.081808
 20
3166.093966
 30
0.0
 10
592.081808
 20
3133.471646
 30
0.0
  0
LWPOLYLINE
  5
16e
100
AcDbEntity
  8
big_parts_outside_cut_
 62
3
100
AcDbPolyline
 90
2
 70
0
 10
2292.772688
 20
3119.637166
 30
0.0
 10
2023.743408
 20
3119.637166
 30
0.0
  0
LWPOLYLINE
  5
16f
100
AcDbEntity
  8
big_parts_outside_cut_
 62
3
100
AcDbPolyline
 90
2
 70
0
 10
2009.134608
 20
3119.637166
 30
0.0
 10
2009.103408
 20
3119.637166
 30
0.0
  0
LWPOLYLINE
  5
170
100
AcDbEntity
  8
big_parts_outside_cut_
 62
3
100
AcDbPolyline
 90
2
 70
0
 10
1711.715648
 20
3119.637166
 30
0.0
 10
1456.814208
 20
3119.637166
 30
0.0
  0
LWPOLYLINE
  5
171
100
AcDbEntity
  8
big_parts_outside_cut_
 62
3
100
AcDbPolyline
 90
2
 70
0
 10
1144.786528
 20
3119.637166
 30
0.0
 10
889.885088
 20
3119.637166
 30
0.0
  0
SPLINE
  5
172
100
AcDbEntity
  8
big_parts_outside_cut_
 62
3
100
AcDbSpline
 70
8
 71
3
 72
8
 73
4
 74
0
 40
0
 40
0
 40
0
 40
0
 40
1
 40
1
 40
1
 40
1
 10
2811.564560
 20
245.333283
 30
0.0
 10
2822.270160
 20
245.809363
 30
0.0
 10
2840.160960
 20
246.590243
 30
0.0
 10
2851.322080
 20
247.068563
 30
0.0
  0
SPLINE
  5
173
100
AcDbEntity
  8
big_parts_outside_cut_
 62
3
100
AcDbSpline
 70
8
 71
3
 72
8
 73
4
 74
0
 40
0
 40
0
 40
0
 40
0
 40
1
 40
1
 40
1
 40
1
 10
4351.976240
 20
1650.009123
 30
0.0
 10
4344.512880
 20
1657.432403
 30
0.0
 10
4337.496240
 20
1664.536083
 30
0.0
 10
4336.384160
 20
1665.795123
 30
0.0
  0
SPLINE
  5
174
100
AcDbEntity
  8
big_parts_outside_cut_
 62
3
100
AcDbSpline
 70
8
 71
3
 72
8
 73
4
 74
0
 40
0
 40
0
 40
0
 40
0
 40
1
 40
1
 40
1
 40
1
 10
2808.044400
 20
2225.220643
 30
0.0
 10
2797.224800
 20
2225.523443
 30
0.0
 10
2788.372640
 20
2226.075203
 30
0.0
 10
2788.372640
 20
2226.446883
 30
0.0
  0
SPLINE
  5
175
100
AcDbEntity
  8
big_parts_outside_cut_
 62
3
100
AcDbSpline
 70
8
 71
3
 72
8
 73
4
 74
0
 40
0
 40
0
 40
0
 40
0
 40
1
 40
1
 40
1
 40
1
 10
3588.907600
 20
367.622003
 30
0.0
 10
3794.674880
 20
432.927363
 30
0.0
 10
3978.762160
 20
524.570243
 30
0.0
 10
4144.685120
 20
644.300883
 30
0.0
  0
SPLINE
  5
176
100
AcDbEntity
  8
big_parts_outside_cut_
 62
3
100
AcDbSpline
 70
8
 71
3
 72
8
 73
4
 74
0
 40
0
 40
0
 40
0
 40
0
 40
1
 40
1
 40
1
 40
1
 10
4144.685120
 20
644.300883
 30
0.0
 10
4304.222000
 20
759.423283
 30
0.0
 10
4442.075360
 20
900.694003
 30
0.0
 10
4516.407760
 20
1025.238323
 30
0.0
  0
SPLINE
  5
177
100
AcDbEntity
  8
big_parts_outside_cut_
 62
3
100
AcDbSpline
 70
8
 71
3
 72
8
 73
4
 74
0
 40
0
 40
0
 40
0
 40
0
 40
1
 40
1
 40
1
 40
1
 10
4516.407760
 20
1025.238323
 30
0.0
 10
4549.787520
 20
1081.166243
 30
0.0
 10
4570.097120
 20
1131.241763
 30
0.0
 10
4579.456000
 20
1180.692243
 30
0.0
  0
SPLINE
  5
178
100
AcDbEntity
  8
big_parts_outside_cut_
 62
3
100
AcDbSpline
 70
8
 71
3
 72
8
 73
4
 74
0
 40
0
 40
0
 40
0
 40
0
 40
1
 40
1
 40
1
 40
1
 10
4579.456000
 20
1180.692243
 30
0.0
 10
4591.956000
 20
1246.738083
 30
0.0
 10
4581.722320
 20
1312.839843
 30
0.0
 10
4547.507760
 20
1387.051443
 30
0.0
  0
SPLINE
  5
179
100
AcDbEntity
  8
big_parts_outside_cut_
 62
3
100
AcDbSpline
 70
8
 71
3
 72
8
 73
4
 74
0
 40
0
 40
0
 40
0
 40
0
 40
1
 40
1
 40
1
 40
1
 10
4547.507760
 20
1387.051443
 30
0.0
 10
4510.258160
 20
1467.846643
 30
0.0
 10
4439.645200
 20
1562.809283
 30
0.0
 10
4351.976240
 20
1650.009123
 30
0.0
  0
SPLINE
  5
17a
100
AcDbEntity
  8
big_parts_outside_cut_
 62
3
100
AcDbSpline
 70
8
 71
3
 72
8
 73
4
 74
0
 40
0
 40
0
 40
0
 40
0
 40
1
 40
1
 40
1
 40
1
 10
4336.384160
 20
1665.795123
 30
0.0
 10
4333.152400
 20
1669.452563
 30
0.0
 10
4296.849840
 20
1703.060563
 30
0.0
 10
4280.088080
 20
1717.912403
 30
0.0
  0
SPLINE
  5
17b
100
AcDbEntity
  8
big_parts_outside_cut_
 62
3
100
AcDbSpline
 70
8
 71
3
 72
8
 73
4
 74
0
 40
0
 40
0
 40
0
 40
0
 40
1
 40
1
 40
1
 40
1
 10
2788.372640
 20
2226.446883
 30
0.0
 10
2768.733440
 20
2226.994403
 30
0.0
 10
2749.933600
 20
2226.803203
 30
0.0
 10
2736.646480
 20
2227.148003
 30
0.0
  0
LWPOLYLINE
  5
17c
100
AcDbEntity
  8
big_parts_outside_cut_
 62
3
100
AcDbPolyline
 90
2
 70
0
 10
577.857408
 20
3119.637166
 30
0.0
 10
308.520688
 20
3119.637166
 30
0.0
  0
SPLINE
  5
17d
100
AcDbEntity
  8
big_parts_outside_cut_
 62
3
100
AcDbSpline
 70
8
 71
3
 72
8
 73
4
 74
0
 40
0
 40
0
 40
0
 40
0
 40
1
 40
1
 40
1
 40
1
 10
2851.322080
 20
247.068563
 30
0.0
 10
3129.388000
 20
258.984803
 30
0.0
 10
3371.072240
 20
298.486563
 30
0.0
 10
3588.907600
 20
367.622003
 30
0.0
  0
SPLINE
  5
17e
100
AcDbEntity
  8
big_parts_outside_cut_
 62
3
100
AcDbSpline
 70
8
 71
3
 72
8
 73
4
 74
0
 40
0
 40
0
 40
0
 40
0
 40
1
 40
1
 40
1
 40
1
 10
4280.088080
 20
1717.912403
 30
0.0
 10
4130.038320
 20
1850.864083
 30
0.0
 10
3954.729360
 20
1959.553763
 30
0.0
 10
3759.119760
 20
2040.906963
 30
0.0
  0
SPLINE
  5
17f
100
AcDbEntity
  8
big_parts_outside_cut_
 62
3
100
AcDbSpline
 70
8
 71
3
 72
8
 73
4
 74
0
 40
0
 40
0
 40
0
 40
0
 40
1
 40
1
 40
1
 40
1
 10
3759.119760
 20
2040.906963
 30
0.0
 10
3571.677520
 20
2118.863523
 30
0.0
 10
3363.378560
 20
2171.909043
 30
0.0
 10
3131.695520
 20
2200.686883
 30
0.0
  0
SPLINE
  5
180
100
AcDbEntity
  8
big_parts_outside_cut_
 62
3
100
AcDbSpline
 70
8
 71
3
 72
8
 73
4
 74
0
 40
0
 40
0
 40
0
 40
0
 40
1
 40
1
 40
1
 40
1
 10
3131.695520
 20
2200.686883
 30
0.0
 10
3031.461680
 20
2213.137523
 30
0.0
 10
2909.513360
 20
2222.381363
 30
0.0
 10
2808.044400
 20
2225.220643
 30
0.0
  0
LWPOLYLINE
  5
181
100
AcDbEntity
  8
big_parts_outside_cut_
 62
3
100
AcDbPolyline
 90
2
 70
0
 10
2736.646480
 20
2227.148003
 30
0.0
 10
2736.638480
 20
1947.474803
 30
0.0
  0
SPLINE
  5
182
100
AcDbEntity
  8
big_parts_outside_cut_
 62
3
100
AcDbSpline
 70
8
 71
3
 72
8
 73
4
 74
0
 40
0
 40
0
 40
0
 40
0
 40
1
 40
1
 40
1
 40
1
 10
2736.640480
 20
1947.474803
 30
0.0
 10
2736.640400
 20
1946.345603
 30
0.0
 10
2737.104320
 20
1945.262563
 30
0.0
 10
2737.930160
 20
1944.464083
 30
0.0
  0
SPLINE
  5
183
100
AcDbEntity
  8
big_parts_outside_cut_
 62
3
100
AcDbSpline
 70
8
 71
3
 72
8
 73
4
 74
0
 40
0
 40
0
 40
0
 40
0
 40
1
 40
1
 40
1
 40
1
 10
2737.930160
 20
1944.464083
 30
0.0
 10
2738.756000
 20
1943.665523
 30
0.0
 10
2739.876080
 20
1943.216963
 30
0.0
 10
2741.044000
 20
1943.216963
 30
0.0
  0
SPLINE
  5
184
100
AcDbEntity
  8
big_parts_outside_cut_
 62
3
100
AcDbSpline
 70
8
 71
3
 72
8
 73
4
 74
0
 40
0
 40
0
 40
0
 40
0
 40
1
 40
1
 40
1
 40
1
 10
2736.640480
 20
1379.543907
 30
0.0
 10
2736.640480
 20
1377.734819
 30
0.0
 10
2737.824720
 20
1376.123867
 30
0.0
 10
2739.590960
 20
1375.526915
 30
0.0
  0
SPLINE
  5
185
100
AcDbEntity
  8
big_parts_outside_cut_
 62
3
100
AcDbSpline
 70
8
 71
3
 72
8
 73
4
 74
0
 40
0
 40
0
 40
0
 40
0
 40
1
 40
1
 40
1
 40
1
 10
2741.044000
 20
1659.371923
 30
0.0
 10
2739.876160
 20
1659.371923
 30
0.0
 10
2738.756080
 20
1658.923363
 30
0.0
 10
2737.930240
 20
1658.124883
 30
0.0
  0
SPLINE
  5
186
100
AcDbEntity
  8
big_parts_outside_cut_
 62
3
100
AcDbSpline
 70
8
 71
3
 72
8
 73
4
 74
0
 40
0
 40
0
 40
0
 40
0
 40
1
 40
1
 40
1
 40
1
 10
2737.930240
 20
1658.124883
 30
0.0
 10
2737.104400
 20
1657.326403
 30
0.0
 10
2736.640480
 20
1656.243443
 30
0.0
 10
2736.640480
 20
1655.114243
 30
0.0
  0
LWPOLYLINE
  5
187
100
AcDbEntity
  8
big_parts_outside_cut_
 62
3
100
AcDbPolyline
 90
2
 70
0
 10
2789.733840
 20
1233.604403
 30
0.0
 10
2789.733840
 20
1360.945507
 30
0.0
  0
LWPOLYLINE
  5
188
100
AcDbEntity
  8
big_parts_outside_cut_
 62
3
100
AcDbPolyline
 90
3
 70
0
 10
2785.897440
 20
1950.259923
 30
0.0
 10
2785.897440
 20
1950.259923
 30
0.0
 10
2785.897440
 20
1950.259923
 30
0.0
  0
LWPOLYLINE
  5
189
100
AcDbEntity
  8
big_parts_outside_cut_
 62
3
100
AcDbPolyline
 90
4
 70
1
 10
4298.439920
 20
1191.292787
 30
0.0
 10
4298.439920
 20
1191.292787
 30
0.0
 10
4298.439920
 20
1191.292787
 30
0.0
 10
4298.439920
 20
1191.292787
 30
0.0
  0
LWPOLYLINE
  5
18a
100
AcDbEntity
  8
big_parts_outside_cut_
 62
3
100
AcDbPolyline
 90
2
 70
0
 10
2774.934160
 20
1659.371923
 30
0.0
 10
2741.044000
 20
1659.371923
 30
0.0
  0
LWPOLYLINE
  5
18b
100
AcDbEntity
  8
big_parts_outside_cut_
 62
3
100
AcDbPolyline
 90
2
 70
0
 10
2736.640480
 20
1655.114243
 30
0.0
 10
2736.640480
 20
1379.543907
 30
0.0
  0
LWPOLYLINE
  5
18c
100
AcDbEntity
  8
big_parts_outside_cut_
 62
3
100
AcDbPolyline
 90
2
 70
0
 10
2739.590960
 20
1375.526915
 30
0.0
 10
2774.918800
 20
1375.526915
 30
0.0
  0
SPLINE
  5
18d
100
AcDbEntity
  8
big_parts_outside_cut_
 62
3
100
AcDbSpline
 70
8
 71
3
 72
8
 73
4
 74
0
 40
0
 40
0
 40
0
 40
0
 40
1
 40
1
 40
1
 40
1
 10
2774.934160
 20
1659.371923
 30
0.0
 10
2777.506160
 20
1656.769203
 30
0.0
 10
2781.333120
 20
1655.715363
 30
0.0
 10
2784.937440
 20
1656.617203
 30
0.0
  0
SPLINE
  5
18e
100
AcDbEntity
  8
big_parts_outside_cut_
 62
3
100
AcDbSpline
 70
8
 71
3
 72
8
 73
4
 74
0
 40
0
 40
0
 40
0
 40
0
 40
1
 40
1
 40
1
 40
1
 10
2784.937440
 20
1656.617203
 30
0.0
 10
2788.541760
 20
1657.519043
 30
0.0
 10
2791.359600
 20
1660.235443
 30
0.0
 10
2792.302960
 20
1663.717763
 30
0.0
  0
SPLINE
  5
18f
100
AcDbEntity
  8
big_parts_outside_cut_
 62
3
100
AcDbSpline
 70
8
 71
3
 72
8
 73
4
 74
0
 40
0
 40
0
 40
0
 40
0
 40
1
 40
1
 40
1
 40
1
 10
2792.302960
 20
1663.717763
 30
0.0
 10
2793.246320
 20
1667.200003
 30
0.0
 10
2792.167600
 20
1670.903203
 30
0.0
 10
2789.483280
 20
1673.397683
 30
0.0
  0
SPLINE
  5
190
100
AcDbEntity
  8
big_parts_outside_cut_
 62
3
100
AcDbSpline
 70
8
 71
3
 72
8
 73
4
 74
0
 40
0
 40
0
 40
0
 40
0
 40
1
 40
1
 40
1
 40
1
 10
2789.733840
 20
1360.945507
 30
0.0
 10
2793.791280
 20
1364.919275
 30
0.0
 10
2793.799440
 20
1371.305955
 30
0.0
 10
2789.752240
 20
1375.289411
 30
0.0
  0
SPLINE
  5
191
100
AcDbEntity
  8
big_parts_outside_cut_
 62
3
100
AcDbSpline
 70
8
 71
3
 72
8
 73
4
 74
0
 40
0
 40
0
 40
0
 40
0
 40
1
 40
1
 40
1
 40
1
 10
2789.752240
 20
1375.289411
 30
0.0
 10
2785.704880
 20
1379.272867
 30
0.0
 10
2779.100240
 20
1379.378619
 30
0.0
 10
2774.918800
 20
1375.526915
 30
0.0
  0
SPLINE
  5
192
100
AcDbEntity
  8
big_parts_outside_cut_
 62
3
100
AcDbSpline
 70
8
 71
3
 72
8
 73
4
 74
0
 40
0
 40
0
 40
0
 40
0
 40
1
 40
1
 40
1
 40
1
 10
2789.483280
 20
1929.078483
 30
0.0
 10
2793.491520
 20
1932.938643
 30
0.0
 10
2793.518480
 20
1939.205203
 30
0.0
 10
2789.543280
 20
1943.097443
 30
0.0
  0
SPLINE
  5
193
100
AcDbEntity
  8
big_parts_outside_cut_
 62
3
100
AcDbSpline
 70
8
 71
3
 72
8
 73
4
 74
0
 40
0
 40
0
 40
0
 40
0
 40
1
 40
1
 40
1
 40
1
 10
2789.543600
 20
1943.097443
 30
0.0
 10
2785.568800
 20
1946.989603
 30
0.0
 10
2779.087600
 20
1947.043043
 30
0.0
 10
2775.044720
 20
1943.216963
 30
0.0
  0
LWPOLYLINE
  5
194
100
AcDbEntity
  8
big_parts_outside_cut_
 62
3
100
AcDbPolyline
 90
2
 70
0
 10
2789.483280
 20
1673.397683
 30
0.0
 10
2789.483280
 20
1929.078483
 30
0.0
  0
SPLINE
  5
195
100
AcDbEntity
  8
big_parts_outside_cut_
 62
3
100
AcDbSpline
 70
8
 71
3
 72
8
 73
4
 74
0
 40
0
 40
0
 40
0
 40
0
 40
1
 40
1
 40
1
 40
1
 10
2774.918800
 20
1091.681891
 30
0.0
 10
2779.100240
 20
1087.830187
 30
0.0
 10
2785.704880
 20
1087.935939
 30
0.0
 10
2789.752240
 20
1091.919395
 30
0.0
  0
SPLINE
  5
196
100
AcDbEntity
  8
big_parts_outside_cut_
 62
3
100
AcDbSpline
 70
8
 71
3
 72
8
 73
4
 74
0
 40
0
 40
0
 40
0
 40
0
 40
1
 40
1
 40
1
 40
1
 10
2789.752240
 20
1091.919395
 30
0.0
 10
2793.799440
 20
1095.902851
 30
0.0
 10
2793.791280
 20
1102.289531
 30
0.0
 10
2789.733840
 20
1106.263299
 30
0.0
  0
LWPOLYLINE
  5
197
100
AcDbEntity
  8
big_parts_outside_cut_
 62
3
100
AcDbPolyline
 90
2
 70
0
 10
2775.044720
 20
1943.216963
 30
0.0
 10
2741.044000
 20
1943.216963
 30
0.0
  0
SPLINE
  5
198
100
AcDbEntity
  8
big_parts_outside_cut_
 62
3
100
AcDbSpline
 70
8
 71
3
 72
8
 73
4
 74
0
 40
0
 40
0
 40
0
 40
0
 40
1
 40
1
 40
1
 40
1
 10
2739.590960
 20
1091.681891
 30
0.0
 10
2737.824720
 20
1091.084939
 30
0.0
 10
2736.641440
 20
1089.473987
 30
0.0
 10
2736.640480
 20
1087.664899
 30
0.0
  0
LWPOLYLINE
  5
199
100
AcDbEntity
  8
big_parts_outside_cut_
 62
3
100
AcDbPolyline
 90
2
 70
0
 10
2789.733840
 20
1233.604403
 30
0.0
 10
2789.733840
 20
1106.263299
 30
0.0
  0
LWPOLYLINE
  5
19a
100
AcDbEntity
  8
big_parts_outside_cut_
 62
3
100
AcDbPolyline
 90
2
 70
0
 10
2739.590960
 20
1091.681891
 30
0.0
 10
2774.918800
 20
1091.681891
 30
0.0
  0
SPLINE
  5
19b
100
AcDbEntity
  8
big_parts_outside_cut_
 62
3
100
AcDbSpline
 70
8
 71
3
 72
8
 73
4
 74
0
 40
0
 40
0
 40
0
 40
0
 40
1
 40
1
 40
1
 40
1
 10
2736.640480
 20
812.094543
 30
0.0
 10
2736.640480
 20
810.965354
 30
0.0
 10
2737.104400
 20
809.882399
 30
0.0
 10
2737.930240
 20
809.083910
 30
0.0
  0
SPLINE
  5
19c
100
AcDbEntity
  8
big_parts_outside_cut_
 62
3
100
AcDbSpline
 70
8
 71
3
 72
8
 73
4
 74
0
 40
0
 40
0
 40
0
 40
0
 40
1
 40
1
 40
1
 40
1
 10
2737.930240
 20
809.083910
 30
0.0
 10
2738.756080
 20
808.285450
 30
0.0
 10
2739.876160
 20
807.836877
 30
0.0
 10
2741.044000
 20
807.836877
 30
0.0
  0
SPLINE
  5
19d
100
AcDbEntity
  8
big_parts_outside_cut_
 62
3
100
AcDbSpline
 70
8
 71
3
 72
8
 73
4
 74
0
 40
0
 40
0
 40
0
 40
0
 40
1
 40
1
 40
1
 40
1
 10
2789.483280
 20
793.811162
 30
0.0
 10
2792.167600
 20
796.305597
 30
0.0
 10
2793.246320
 20
800.008801
 30
0.0
 10
2792.302960
 20
803.491066
 30
0.0
  0
SPLINE
  5
19e
100
AcDbEntity
  8
big_parts_outside_cut_
 62
3
100
AcDbSpline
 70
8
 71
3
 72
8
 73
4
 74
0
 40
0
 40
0
 40
0
 40
0
 40
1
 40
1
 40
1
 40
1
 10
2792.302960
 20
803.491066
 30
0.0
 10
2791.359600
 20
806.973333
 30
0.0
 10
2788.541760
 20
809.689778
 30
0.0
 10
2784.937440
 20
810.591615
 30
0.0
  0
SPLINE
  5
19f
100
AcDbEntity
  8
big_parts_outside_cut_
 62
3
100
AcDbSpline
 70
8
 71
3
 72
8
 73
4
 74
0
 40
0
 40
0
 40
0
 40
0
 40
1
 40
1
 40
1
 40
1
 10
2784.937440
 20
810.591615
 30
0.0
 10
2781.333120
 20
811.493451
 30
0.0
 10
2777.506160
 20
810.439575
 30
0.0
 10
2774.934160
 20
807.836877
 30
0.0
  0
LWPOLYLINE
  5
1a0
100
AcDbEntity
  8
big_parts_outside_cut_
 62
3
100
AcDbPolyline
 90
2
 70
0
 10
2736.640480
 20
812.094543
 30
0.0
 10
2736.640480
 20
1087.664899
 30
0.0
  0
SPLINE
  5
1a1
100
AcDbEntity
  8
big_parts_outside_cut_
 62
3
100
AcDbSpline
 70
8
 71
3
 72
8
 73
4
 74
0
 40
0
 40
0
 40
0
 40
0
 40
1
 40
1
 40
1
 40
1
 10
2775.044720
 20
523.991859
 30
0.0
 10
2779.087600
 20
520.165723
 30
0.0
 10
2785.568800
 20
520.219163
 30
0.0
 10
2789.543600
 20
524.111371
 30
0.0
  0
SPLINE
  5
1a2
100
AcDbEntity
  8
big_parts_outside_cut_
 62
3
100
AcDbSpline
 70
8
 71
3
 72
8
 73
4
 74
0
 40
0
 40
0
 40
0
 40
0
 40
1
 40
1
 40
1
 40
1
 10
2789.543600
 20
524.111371
 30
0.0
 10
2793.518480
 20
528.003579
 30
0.0
 10
2793.491520
 20
534.270195
 30
0.0
 10
2789.483600
 20
538.130299
 30
0.0
  0
LWPOLYLINE
  5
1a3
100
AcDbEntity
  8
big_parts_outside_cut_
 62
3
100
AcDbPolyline
 90
2
 70
0
 10
2774.934160
 20
807.836877
 30
0.0
 10
2741.044000
 20
807.836877
 30
0.0
  0
SPLINE
  5
1a4
100
AcDbEntity
  8
big_parts_outside_cut_
 62
3
100
AcDbSpline
 70
8
 71
3
 72
8
 73
4
 74
0
 40
0
 40
0
 40
0
 40
0
 40
1
 40
1
 40
1
 40
1
 10
2741.044000
 20
523.991859
 30
0.0
 10
2739.876080
 20
523.991859
 30
0.0
 10
2738.756000
 20
523.543259
 30
0.0
 10
2737.930160
 20
522.744739
 30
0.0
  0
SPLINE
  5
1a5
100
AcDbEntity
  8
big_parts_outside_cut_
 62
3
100
AcDbSpline
 70
8
 71
3
 72
8
 73
4
 74
0
 40
0
 40
0
 40
0
 40
0
 40
1
 40
1
 40
1
 40
1
 10
2737.930160
 20
522.744739
 30
0.0
 10
2737.104320
 20
521.946251
 30
0.0
 10
2736.640400
 20
520.863243
 30
0.0
 10
2736.640480
 20
519.734019
 30
0.0
  0
LWPOLYLINE
  5
1a6
100
AcDbEntity
  8
big_parts_outside_cut_
 62
3
100
AcDbPolyline
 90
2
 70
0
 10
2789.483280
 20
793.811162
 30
0.0
 10
2789.483280
 20
538.130299
 30
0.0
  0
LWPOLYLINE
  5
1a7
100
AcDbEntity
  8
big_parts_outside_cut_
 62
3
100
AcDbPolyline
 90
2
 70
0
 10
2775.044720
 20
523.991859
 30
0.0
 10
2741.044000
 20
523.991859
 30
0.0
  0
SPLINE
  5
1a8
100
AcDbEntity
  8
big_parts_outside_cut_
 62
3
100
AcDbSpline
 70
8
 71
3
 72
8
 73
4
 74
0
 40
0
 40
0
 40
0
 40
0
 40
1
 40
1
 40
1
 40
1
 10
2736.411040
 20
240.709075
 30
0.0
 10
2752.116880
 20
241.468563
 30
0.0
 10
2800.858880
 20
244.857203
 30
0.0
 10
2811.564560
 20
245.333275
 30
0.0
  0
SPLINE
  5
1a9
100
AcDbEntity
  8
big_parts_outside_cut_
 62
3
100
AcDbSpline
 70
8
 71
3
 72
8
 73
4
 74
0
 40
0
 40
0
 40
0
 40
0
 40
1
 40
1
 40
1
 40
1
 10
6324.769360
 20
3207.468803
 30
0.0
 10
6314.063760
 20
3206.992723
 30
0.0
 10
6296.172960
 20
3206.211843
 30
0.0
 10
6285.011840
 20
3205.733523
 30
0.0
  0
SPLINE
  5
1aa
100
AcDbEntity
  8
big_parts_outside_cut_
 62
3
100
AcDbSpline
 70
8
 71
3
 72
8
 73
4
 74
0
 40
0
 40
0
 40
0
 40
0
 40
1
 40
1
 40
1
 40
1
 10
6285.011840
 20
3205.733523
 30
0.0
 10
6006.945920
 20
3193.817283
 30
0.0
 10
5765.261680
 20
3154.315523
 30
0.0
 10
5547.426320
 20
3085.180083
 30
0.0
  0
SPLINE
  5
1ab
100
AcDbEntity
  8
big_parts_outside_cut_
 62
3
100
AcDbSpline
 70
8
 71
3
 72
8
 73
4
 74
0
 40
0
 40
0
 40
0
 40
0
 40
1
 40
1
 40
1
 40
1
 10
5547.426320
 20
3085.180083
 30
0.0
 10
5341.659040
 20
3019.874723
 30
0.0
 10
5157.571760
 20
2928.231843
 30
0.0
 10
4991.648800
 20
2808.501203
 30
0.0
  0
SPLINE
  5
1ac
100
AcDbEntity
  8
big_parts_outside_cut_
 62
3
100
AcDbSpline
 70
8
 71
3
 72
8
 73
4
 74
0
 40
0
 40
0
 40
0
 40
0
 40
1
 40
1
 40
1
 40
1
 10
4991.648800
 20
2808.501203
 30
0.0
 10
4832.111920
 20
2693.378803
 30
0.0
 10
4694.258560
 20
2552.108083
 30
0.0
 10
4619.926160
 20
2427.563763
 30
0.0
  0
SPLINE
  5
1ad
100
AcDbEntity
  8
big_parts_outside_cut_
 62
3
100
AcDbSpline
 70
8
 71
3
 72
8
 73
4
 74
0
 40
0
 40
0
 40
0
 40
0
 40
1
 40
1
 40
1
 40
1
 10
4619.926160
 20
2427.563763
 30
0.0
 10
4586.546400
 20
2371.635843
 30
0.0
 10
4566.236800
 20
2321.560323
 30
0.0
 10
4556.877920
 20
2272.109843
 30
0.0
  0
SPLINE
  5
1ae
100
AcDbEntity
  8
big_parts_outside_cut_
 62
3
100
AcDbSpline
 70
8
 71
3
 72
8
 73
4
 74
0
 40
0
 40
0
 40
0
 40
0
 40
1
 40
1
 40
1
 40
1
 10
4556.877920
 20
2272.109843
 30
0.0
 10
4544.377920
 20
2206.064003
 30
0.0
 10
4554.611600
 20
2139.962243
 30
0.0
 10
4588.826160
 20
2065.750643
 30
0.0
  0
SPLINE
  5
1af
100
AcDbEntity
  8
big_parts_outside_cut_
 62
3
100
AcDbSpline
 70
8
 71
3
 72
8
 73
4
 74
0
 40
0
 40
0
 40
0
 40
0
 40
1
 40
1
 40
1
 40
1
 10
4588.826160
 20
2065.750643
 30
0.0
 10
4626.075760
 20
1984.955443
 30
0.0
 10
4696.688720
 20
1889.992803
 30
0.0
 10
4784.357680
 20
1802.792963
 30
0.0
  0
SPLINE
  5
1b0
100
AcDbEntity
  8
big_parts_outside_cut_
 62
3
100
AcDbSpline
 70
8
 71
3
 72
8
 73
4
 74
0
 40
0
 40
0
 40
0
 40
0
 40
1
 40
1
 40
1
 40
1
 10
4784.357680
 20
1802.792963
 30
0.0
 10
4791.821040
 20
1795.369683
 30
0.0
 10
4798.837680
 20
1788.266003
 30
0.0
 10
4799.949760
 20
1787.006963
 30
0.0
  0
SPLINE
  5
1b1
100
AcDbEntity
  8
big_parts_outside_cut_
 62
3
100
AcDbSpline
 70
8
 71
3
 72
8
 73
4
 74
0
 40
0
 40
0
 40
0
 40
0
 40
1
 40
1
 40
1
 40
1
 10
4799.949760
 20
1787.006963
 30
0.0
 10
4803.181520
 20
1783.349523
 30
0.0
 10
4839.484080
 20
1749.741523
 30
0.0
 10
4856.245840
 20
1734.889683
 30
0.0
  0
SPLINE
  5
1b2
100
AcDbEntity
  8
big_parts_outside_cut_
 62
3
100
AcDbSpline
 70
8
 71
3
 72
8
 73
4
 74
0
 40
0
 40
0
 40
0
 40
0
 40
1
 40
1
 40
1
 40
1
 10
4856.245840
 20
1734.889683
 30
0.0
 10
5006.295600
 20
1601.938003
 30
0.0
 10
5181.604560
 20
1493.248323
 30
0.0
 10
5377.214160
 20
1411.895123
 30
0.0
  0
SPLINE
  5
1b3
100
AcDbEntity
  8
big_parts_outside_cut_
 62
3
100
AcDbSpline
 70
8
 71
3
 72
8
 73
4
 74
0
 40
0
 40
0
 40
0
 40
0
 40
1
 40
1
 40
1
 40
1
 10
5377.214160
 20
1411.895123
 30
0.0
 10
5564.656400
 20
1333.938563
 30
0.0
 10
5772.955360
 20
1280.893043
 30
0.0
 10
6004.638400
 20
1252.115203
 30
0.0
  0
SPLINE
  5
1b4
100
AcDbEntity
  8
big_parts_outside_cut_
 62
3
100
AcDbSpline
 70
8
 71
3
 72
8
 73
4
 74
0
 40
0
 40
0
 40
0
 40
0
 40
1
 40
1
 40
1
 40
1
 10
6004.638400
 20
1252.115203
 30
0.0
 10
6104.872240
 20
1239.664563
 30
0.0
 10
6226.820560
 20
1230.420723
 30
0.0
 10
6328.289520
 20
1227.581443
 30
0.0
  0
SPLINE
  5
1b5
100
AcDbEntity
  8
big_parts_outside_cut_
 62
3
100
AcDbSpline
 70
8
 71
3
 72
8
 73
4
 74
0
 40
0
 40
0
 40
0
 40
0
 40
1
 40
1
 40
1
 40
1
 10
6328.289520
 20
1227.581443
 30
0.0
 10
6339.109120
 20
1227.278643
 30
0.0
 10
6347.961280
 20
1226.726883
 30
0.0
 10
6347.961280
 20
1226.355203
 30
0.0
  0
SPLINE
  5
1b6
100
AcDbEntity
  8
big_parts_outside_cut_
 62
3
100
AcDbSpline
 70
8
 71
3
 72
8
 73
4
 74
0
 40
0
 40
0
 40
0
 40
0
 40
1
 40
1
 40
1
 40
1
 10
6347.961280
 20
1226.355203
 30
0.0
 10
6367.600480
 20
1225.807683
 30
0.0
 10
6386.400320
 20
1225.998883
 30
0.0
 10
6399.687440
 20
1225.654083
 30
0.0
  0
LWPOLYLINE
  5
1b7
100
AcDbEntity
  8
big_parts_outside_cut_
 62
3
100
AcDbPolyline
 90
2
 70
0
 10
2736.640480
 20
519.734019
 30
0.0
 10
2736.411040
 20
240.709075
 30
0.0
  0
LWPOLYLINE
  5
1b8
100
AcDbEntity
  8
big_parts_outside_cut_
 62
3
100
AcDbPolyline
 90
2
 70
0
 10
6399.687440
 20
1225.654083
 30
0.0
 10
6399.695440
 20
1505.327283
 30
0.0
  0
SPLINE
  5
1b9
100
AcDbEntity
  8
big_parts_outside_cut_
 62
3
100
AcDbSpline
 70
8
 71
3
 72
8
 73
4
 74
0
 40
0
 40
0
 40
0
 40
0
 40
1
 40
1
 40
1
 40
1
 10
6399.693440
 20
1505.327299
 30
0.0
 10
6399.693520
 20
1506.456523
 30
0.0
 10
6399.229600
 20
1507.539531
 30
0.0
 10
6398.403760
 20
1508.338019
 30
0.0
  0
SPLINE
  5
1ba
100
AcDbEntity
  8
big_parts_outside_cut_
 62
3
100
AcDbSpline
 70
8
 71
3
 72
8
 73
4
 74
0
 40
0
 40
0
 40
0
 40
0
 40
1
 40
1
 40
1
 40
1
 10
6398.403760
 20
1508.338019
 30
0.0
 10
6397.577920
 20
1509.136539
 30
0.0
 10
6396.457840
 20
1509.585139
 30
0.0
 10
6395.289920
 20
1509.585139
 30
0.0
  0
SPLINE
  5
1bb
100
AcDbEntity
  8
big_parts_outside_cut_
 62
3
100
AcDbSpline
 70
8
 71
3
 72
8
 73
4
 74
0
 40
0
 40
0
 40
0
 40
0
 40
1
 40
1
 40
1
 40
1
 10
6399.693440
 20
2073.258163
 30
0.0
 10
6399.693440
 20
2075.067283
 30
0.0
 10
6398.509200
 20
2076.678243
 30
0.0
 10
6396.742960
 20
2077.275203
 30
0.0
  0
SPLINE
  5
1bc
100
AcDbEntity
  8
big_parts_outside_cut_
 62
3
100
AcDbSpline
 70
8
 71
3
 72
8
 73
4
 74
0
 40
0
 40
0
 40
0
 40
0
 40
1
 40
1
 40
1
 40
1
 10
6395.289920
 20
1793.430163
 30
0.0
 10
6396.457760
 20
1793.430163
 30
0.0
 10
6397.577840
 20
1793.878723
 30
0.0
 10
6398.403680
 20
1794.677203
 30
0.0
  0
SPLINE
  5
1bd
100
AcDbEntity
  8
big_parts_outside_cut_
 62
3
100
AcDbSpline
 70
8
 71
3
 72
8
 73
4
 74
0
 40
0
 40
0
 40
0
 40
0
 40
1
 40
1
 40
1
 40
1
 10
6398.403680
 20
1794.677203
 30
0.0
 10
6399.229520
 20
1795.475683
 30
0.0
 10
6399.693440
 20
1796.558643
 30
0.0
 10
6399.693440
 20
1797.687843
 30
0.0
  0
LWPOLYLINE
  5
1be
100
AcDbEntity
  8
big_parts_outside_cut_
 62
3
100
AcDbPolyline
 90
2
 70
0
 10
6346.600080
 20
2219.197683
 30
0.0
 10
6346.600080
 20
2091.856563
 30
0.0
  0
LWPOLYLINE
  5
1bf
100
AcDbEntity
  8
big_parts_outside_cut_
 62
3
100
AcDbPolyline
 90
3
 70
0
 10
6350.436480
 20
1502.542155
 30
0.0
 10
6350.436480
 20
1502.542155
 30
0.0
 10
6350.436480
 20
1502.542155
 30
0.0
  0
LWPOLYLINE
  5
1c0
100
AcDbEntity
  8
big_parts_outside_cut_
 62
3
100
AcDbPolyline
 90
4
 70
1
 10
4837.894000
 20
2261.509283
 30
0.0
 10
4837.894000
 20
2261.509283
 30
0.0
 10
4837.894000
 20
2261.509283
 30
0.0
 10
4837.894000
 20
2261.509283
 30
0.0
  0
LWPOLYLINE
  5
1c1
100
AcDbEntity
  8
big_parts_outside_cut_
 62
3
100
AcDbPolyline
 90
2
 70
0
 10
6361.399760
 20
1793.430163
 30
0.0
 10
6395.289920
 20
1793.430163
 30
0.0
  0
LWPOLYLINE
  5
1c2
100
AcDbEntity
  8
big_parts_outside_cut_
 62
3
100
AcDbPolyline
 90
2
 70
0
 10
6399.693440
 20
1797.687843
 30
0.0
 10
6399.693440
 20
2073.258163
 30
0.0
  0
LWPOLYLINE
  5
1c3
100
AcDbEntity
  8
big_parts_outside_cut_
 62
3
100
AcDbPolyline
 90
2
 70
0
 10
6396.742960
 20
2077.275203
 30
0.0
 10
6361.415120
 20
2077.275203
 30
0.0
  0
SPLINE
  5
1c4
100
AcDbEntity
  8
big_parts_outside_cut_
 62
3
100
AcDbSpline
 70
8
 71
3
 72
8
 73
4
 74
0
 40
0
 40
0
 40
0
 40
0
 40
1
 40
1
 40
1
 40
1
 10
6361.399760
 20
1793.430163
 30
0.0
 10
6358.827760
 20
1796.032883
 30
0.0
 10
6355.000800
 20
1797.086723
 30
0.0
 10
6351.396480
 20
1796.184883
 30
0.0
  0
SPLINE
  5
1c5
100
AcDbEntity
  8
big_parts_outside_cut_
 62
3
100
AcDbSpline
 70
8
 71
3
 72
8
 73
4
 74
0
 40
0
 40
0
 40
0
 40
0
 40
1
 40
1
 40
1
 40
1
 10
6351.396480
 20
1796.184883
 30
0.0
 10
6347.792160
 20
1795.283043
 30
0.0
 10
6344.974320
 20
1792.566643
 30
0.0
 10
6344.030960
 20
1789.084323
 30
0.0
  0
SPLINE
  5
1c6
100
AcDbEntity
  8
big_parts_outside_cut_
 62
3
100
AcDbSpline
 70
8
 71
3
 72
8
 73
4
 74
0
 40
0
 40
0
 40
0
 40
0
 40
1
 40
1
 40
1
 40
1
 10
6344.030960
 20
1789.084323
 30
0.0
 10
6343.087600
 20
1785.602083
 30
0.0
 10
6344.166320
 20
1781.898883
 30
0.0
 10
6346.850640
 20
1779.404403
 30
0.0
  0
SPLINE
  5
1c7
100
AcDbEntity
  8
big_parts_outside_cut_
 62
3
100
AcDbSpline
 70
8
 71
3
 72
8
 73
4
 74
0
 40
0
 40
0
 40
0
 40
0
 40
1
 40
1
 40
1
 40
1
 10
6346.600080
 20
2091.856563
 30
0.0
 10
6342.542640
 20
2087.882803
 30
0.0
 10
6342.534480
 20
2081.496163
 30
0.0
 10
6346.581680
 20
2077.512643
 30
0.0
  0
SPLINE
  5
1c8
100
AcDbEntity
  8
big_parts_outside_cut_
 62
3
100
AcDbSpline
 70
8
 71
3
 72
8
 73
4
 74
0
 40
0
 40
0
 40
0
 40
0
 40
1
 40
1
 40
1
 40
1
 10
6346.581680
 20
2077.512643
 30
0.0
 10
6350.629040
 20
2073.529203
 30
0.0
 10
6357.233680
 20
2073.423443
 30
0.0
 10
6361.415120
 20
2077.275203
 30
0.0
  0
SPLINE
  5
1c9
100
AcDbEntity
  8
big_parts_outside_cut_
 62
3
100
AcDbSpline
 70
8
 71
3
 72
8
 73
4
 74
0
 40
0
 40
0
 40
0
 40
0
 40
1
 40
1
 40
1
 40
1
 10
6346.850640
 20
1523.723579
 30
0.0
 10
6342.842400
 20
1519.863475
 30
0.0
 10
6342.815440
 20
1513.596859
 30
0.0
 10
6346.790640
 20
1509.704651
 30
0.0
  0
SPLINE
  5
1ca
100
AcDbEntity
  8
big_parts_outside_cut_
 62
3
100
AcDbSpline
 70
8
 71
3
 72
8
 73
4
 74
0
 40
0
 40
0
 40
0
 40
0
 40
1
 40
1
 40
1
 40
1
 10
6346.790320
 20
1509.704651
 30
0.0
 10
6350.765120
 20
1505.812443
 30
0.0
 10
6357.246320
 20
1505.759003
 30
0.0
 10
6361.289200
 20
1509.585139
 30
0.0
  0
LWPOLYLINE
  5
1cb
100
AcDbEntity
  8
big_parts_outside_cut_
 62
3
100
AcDbPolyline
 90
2
 70
0
 10
6346.850640
 20
1779.404403
 30
0.0
 10
6346.850640
 20
1523.723579
 30
0.0
  0
SPLINE
  5
1cc
100
AcDbEntity
  8
big_parts_outside_cut_
 62
3
100
AcDbSpline
 70
8
 71
3
 72
8
 73
4
 74
0
 40
0
 40
0
 40
0
 40
0
 40
1
 40
1
 40
1
 40
1
 10
6361.415120
 20
2361.120163
 30
0.0
 10
6357.233680
 20
2364.971923
 30
0.0
 10
6350.629040
 20
2364.866163
 30
0.0
 10
6346.581680
 20
2360.882723
 30
0.0
  0
SPLINE
  5
1cd
100
AcDbEntity
  8
big_parts_outside_cut_
 62
3
100
AcDbSpline
 70
8
 71
3
 72
8
 73
4
 74
0
 40
0
 40
0
 40
0
 40
0
 40
1
 40
1
 40
1
 40
1
 10
6346.581680
 20
2360.882723
 30
0.0
 10
6342.534480
 20
2356.899203
 30
0.0
 10
6342.542640
 20
2350.512563
 30
0.0
 10
6346.600080
 20
2346.538803
 30
0.0
  0
LWPOLYLINE
  5
1ce
100
AcDbEntity
  8
big_parts_outside_cut_
 62
3
100
AcDbPolyline
 90
2
 70
0
 10
6361.289200
 20
1509.585139
 30
0.0
 10
6395.289920
 20
1509.585139
 30
0.0
  0
SPLINE
  5
1cf
100
AcDbEntity
  8
big_parts_outside_cut_
 62
3
100
AcDbSpline
 70
8
 71
3
 72
8
 73
4
 74
0
 40
0
 40
0
 40
0
 40
0
 40
1
 40
1
 40
1
 40
1
 10
6396.742960
 20
2361.120163
 30
0.0
 10
6398.509200
 20
2361.717123
 30
0.0
 10
6399.692480
 20
2363.328083
 30
0.0
 10
6399.693440
 20
2365.137203
 30
0.0
  0
LWPOLYLINE
  5
1d0
100
AcDbEntity
  8
big_parts_outside_cut_
 62
3
100
AcDbPolyline
 90
2
 70
0
 10
6346.600080
 20
2219.197683
 30
0.0
 10
6346.600080
 20
2346.538803
 30
0.0
  0
LWPOLYLINE
  5
1d1
100
AcDbEntity
  8
big_parts_outside_cut_
 62
3
100
AcDbPolyline
 90
2
 70
0
 10
6396.742960
 20
2361.120163
 30
0.0
 10
6361.415120
 20
2361.120163
 30
0.0
  0
SPLINE
  5
1d2
100
AcDbEntity
  8
big_parts_outside_cut_
 62
3
100
AcDbSpline
 70
8
 71
3
 72
8
 73
4
 74
0
 40
0
 40
0
 40
0
 40
0
 40
1
 40
1
 40
1
 40
1
 10
6399.693440
 20
2640.707523
 30
0.0
 10
6399.693440
 20
2641.836723
 30
0.0
 10
6399.229520
 20
2642.919683
 30
0.0
 10
6398.403680
 20
2643.718163
 30
0.0
  0
SPLINE
  5
1d3
100
AcDbEntity
  8
big_parts_outside_cut_
 62
3
100
AcDbSpline
 70
8
 71
3
 72
8
 73
4
 74
0
 40
0
 40
0
 40
0
 40
0
 40
1
 40
1
 40
1
 40
1
 10
6398.403680
 20
2643.718163
 30
0.0
 10
6397.577840
 20
2644.516643
 30
0.0
 10
6396.457760
 20
2644.965203
 30
0.0
 10
6395.289920
 20
2644.965203
 30
0.0
  0
SPLINE
  5
1d4
100
AcDbEntity
  8
big_parts_outside_cut_
 62
3
100
AcDbSpline
 70
8
 71
3
 72
8
 73
4
 74
0
 40
0
 40
0
 40
0
 40
0
 40
1
 40
1
 40
1
 40
1
 10
6346.850640
 20
2658.990963
 30
0.0
 10
6344.166320
 20
2656.496483
 30
0.0
 10
6343.087600
 20
2652.793283
 30
0.0
 10
6344.030960
 20
2649.311043
 30
0.0
  0
SPLINE
  5
1d5
100
AcDbEntity
  8
big_parts_outside_cut_
 62
3
100
AcDbSpline
 70
8
 71
3
 72
8
 73
4
 74
0
 40
0
 40
0
 40
0
 40
0
 40
1
 40
1
 40
1
 40
1
 10
6344.030960
 20
2649.311043
 30
0.0
 10
6344.974320
 20
2645.828723
 30
0.0
 10
6347.792160
 20
2643.112323
 30
0.0
 10
6351.396480
 20
2642.210483
 30
0.0
  0
SPLINE
  5
1d6
100
AcDbEntity
  8
big_parts_outside_cut_
 62
3
100
AcDbSpline
 70
8
 71
3
 72
8
 73
4
 74
0
 40
0
 40
0
 40
0
 40
0
 40
1
 40
1
 40
1
 40
1
 10
6351.396480
 20
2642.210483
 30
0.0
 10
6355.000800
 20
2641.308643
 30
0.0
 10
6358.827760
 20
2642.362483
 30
0.0
 10
6361.399760
 20
2644.965203
 30
0.0
  0
LWPOLYLINE
  5
1d7
100
AcDbEntity
  8
big_parts_outside_cut_
 62
3
100
AcDbPolyline
 90
2
 70
0
 10
6399.693440
 20
2640.707523
 30
0.0
 10
6399.693440
 20
2365.137203
 30
0.0
  0
SPLINE
  5
1d8
100
AcDbEntity
  8
big_parts_outside_cut_
 62
3
100
AcDbSpline
 70
8
 71
3
 72
8
 73
4
 74
0
 40
0
 40
0
 40
0
 40
0
 40
1
 40
1
 40
1
 40
1
 10
6361.289200
 20
2928.810243
 30
0.0
 10
6357.246320
 20
2932.636323
 30
0.0
 10
6350.765120
 20
2932.582883
 30
0.0
 10
6346.790320
 20
2928.690723
 30
0.0
  0
SPLINE
  5
1d9
100
AcDbEntity
  8
big_parts_outside_cut_
 62
3
100
AcDbSpline
 70
8
 71
3
 72
8
 73
4
 74
0
 40
0
 40
0
 40
0
 40
0
 40
1
 40
1
 40
1
 40
1
 10
6346.790320
 20
2928.690723
 30
0.0
 10
6342.815440
 20
2924.798483
 30
0.0
 10
6342.842400
 20
2918.531923
 30
0.0
 10
6346.850320
 20
2914.671763
 30
0.0
  0
LWPOLYLINE
  5
1da
100
AcDbEntity
  8
big_parts_outside_cut_
 62
3
100
AcDbPolyline
 90
2
 70
0
 10
6361.399760
 20
2644.965203
 30
0.0
 10
6395.289920
 20
2644.965203
 30
0.0
  0
SPLINE
  5
1db
100
AcDbEntity
  8
big_parts_outside_cut_
 62
3
100
AcDbSpline
 70
8
 71
3
 72
8
 73
4
 74
0
 40
0
 40
0
 40
0
 40
0
 40
1
 40
1
 40
1
 40
1
 10
6395.289920
 20
2928.810243
 30
0.0
 10
6396.457840
 20
2928.810243
 30
0.0
 10
6397.577920
 20
2929.258803
 30
0.0
 10
6398.403760
 20
2930.057363
 30
0.0
  0
SPLINE
  5
1dc
100
AcDbEntity
  8
big_parts_outside_cut_
 62
3
100
AcDbSpline
 70
8
 71
3
 72
8
 73
4
 74
0
 40
0
 40
0
 40
0
 40
0
 40
1
 40
1
 40
1
 40
1
 10
6398.403760
 20
2930.057363
 30
0.0
 10
6399.229600
 20
2930.855843
 30
0.0
 10
6399.693520
 20
2931.938883
 30
0.0
 10
6399.693440
 20
2933.068083
 30
0.0
  0
LWPOLYLINE
  5
1dd
100
AcDbEntity
  8
big_parts_outside_cut_
 62
3
100
AcDbPolyline
 90
2
 70
0
 10
6346.850640
 20
2658.990963
 30
0.0
 10
6346.850640
 20
2914.671763
 30
0.0
  0
LWPOLYLINE
  5
1de
100
AcDbEntity
  8
big_parts_outside_cut_
 62
3
100
AcDbPolyline
 90
2
 70
0
 10
6361.289200
 20
2928.810243
 30
0.0
 10
6395.289920
 20
2928.810243
 30
0.0
  0
SPLINE
  5
1df
100
AcDbEntity
  8
big_parts_outside_cut_
 62
3
100
AcDbSpline
 70
8
 71
3
 72
8
 73
4
 74
0
 40
0
 40
0
 40
0
 40
0
 40
1
 40
1
 40
1
 40
1
 10
6399.922880
 20
3212.093043
 30
0.0
 10
6384.217040
 20
3211.333523
 30
0.0
 10
6335.475040
 20
3207.944883
 30
0.0
 10
6324.769360
 20
3207.468803
 30
0.0
  0
LWPOLYLINE
  5
1e0
100
AcDbEntity
  8
big_parts_outside_cut_
 62
3
100
AcDbPolyline
 90
2
 70
0
 10
6399.693440
 20
2933.068083
 30
0.0
 10
6399.922880
 20
3212.093043
 30
0.0
  0
SPLINE
  5
1e1
100
AcDbEntity
  8
smal_parts_outside_cut
 62
3
100
AcDbSpline
 70
8
 71
3
 72
8
 73
4
 74
0
 40
0
 40
0
 40
0
 40
0
 40
1
 40
1
 40
1
 40
1
 10
3866.318560
 20
2592.117283
 30
0.0
 10
3914.333920
 20
2816.692083
 30
0.0
 10
4153.484240
 20
3042.981123
 30
0.0
 10
4432.876720
 20
3099.939203
 30
0.0
  0
LWPOLYLINE
  5
1e2
100
AcDbEntity
  8
smal_parts_outside_cut
 62
3
100
AcDbPolyline
 90
2
 70
0
 10
3819.261200
 20
2592.048483
 30
0.0
 10
3866.318560
 20
2592.117283
 30
0.0
  0
LWPOLYLINE
  5
1e3
100
AcDbEntity
  8
smal_parts_outside_cut
 62
3
100
AcDbPolyline
 90
2
 70
0
 10
4432.876720
 20
3099.939203
 30
0.0
 10
4432.962000
 20
3147.100403
 30
0.0
  0
LWPOLYLINE
  5
1e4
100
AcDbEntity
  8
smal_parts_outside_cut
 62
3
100
AcDbPolyline
 90
2
 70
0
 10
3815.009280
 20
2596.300483
 30
0.0
 10
3815.009280
 20
2814.568163
 30
0.0
  0
LWPOLYLINE
  5
1e5
100
AcDbEntity
  8
smal_parts_outside_cut
 62
3
100
AcDbPolyline
 90
2
 70
0
 10
3815.009280
 20
3151.351923
 30
0.0
 10
3814.303360
 20
3151.351923
 30
0.0
  0
LWPOLYLINE
  5
1e6
100
AcDbEntity
  8
smal_parts_outside_cut
 62
3
100
AcDbPolyline
 90
2
 70
0
 10
4153.749440
 20
3151.351923
 30
0.0
 10
4428.710080
 20
3151.351923
 30
0.0
  0
LWPOLYLINE
  5
1e7
100
AcDbEntity
  8
smal_parts_outside_cut
 62
3
100
AcDbPolyline
 90
2
 70
0
 10
4149.497440
 20
3147.100003
 30
0.0
 10
4149.497440
 20
3114.359843
 30
0.0
  0
LWPOLYLINE
  5
1e8
100
AcDbEntity
  8
smal_parts_outside_cut
 62
3
100
AcDbPolyline
 90
2
 70
0
 10
3819.261200
 20
2818.820163
 30
0.0
 10
3852.001360
 20
2818.820163
 30
0.0
  0
LWPOLYLINE
  5
1e9
100
AcDbEntity
  8
smal_parts_outside_cut
 62
3
100
AcDbPolyline
 90
2
 70
0
 10
3866.017200
 20
2832.836003
 30
0.0
 10
3865.722560
 20
3096.272723
 30
0.0
  0
SPLINE
  5
1ea
100
AcDbEntity
  8
smal_parts_outside_cut
 62
3
100
AcDbSpline
 70
8
 71
3
 72
8
 73
4
 74
0
 40
0
 40
0
 40
0
 40
0
 40
1
 40
1
 40
1
 40
1
 10
3819.261200
 20
2592.048483
 30
0.0
 10
3816.912909
 20
2592.048510
 30
0.0
 10
3815.009263
 20
2593.952192
 30
0.0
 10
3815.009280
 20
2596.300483
 30
0.0
  0
SPLINE
  5
1eb
100
AcDbEntity
  8
smal_parts_outside_cut
 62
3
100
AcDbSpline
 70
8
 71
3
 72
8
 73
4
 74
0
 40
0
 40
0
 40
0
 40
0
 40
1
 40
1
 40
1
 40
1
 10
3815.009280
 20
2814.568163
 30
0.0
 10
3815.009263
 20
2816.916454
 30
0.0
 10
3816.912909
 20
2818.820136
 30
0.0
 10
3819.261200
 20
2818.820163
 30
0.0
  0
LWPOLYLINE
  5
1ec
100
AcDbEntity
  8
smal_parts_outside_cut
 62
3
100
AcDbPolyline
 90
2
 70
0
 10
4135.465920
 20
3100.328323
 30
0.0
 10
3869.969920
 20
3100.328323
 30
0.0
  0
SPLINE
  5
1ed
100
AcDbEntity
  8
smal_parts_outside_cut
 62
3
100
AcDbSpline
 70
8
 71
3
 72
8
 73
4
 74
0
 40
0
 40
0
 40
0
 40
0
 40
1
 40
1
 40
1
 40
1
 10
3865.718000
 20
3096.076323
 30
0.0
 10
3865.717983
 20
3098.424614
 30
0.0
 10
3867.621629
 20
3100.328296
 30
0.0
 10
3869.969920
 20
3100.328323
 30
0.0
  0
SPLINE
  5
1ee
100
AcDbEntity
  8
smal_parts_outside_cut
 62
3
100
AcDbSpline
 70
8
 71
3
 72
8
 73
4
 74
0
 40
0
 40
0
 40
0
 40
0
 40
1
 40
1
 40
1
 40
1
 10
4149.497440
 20
3147.100003
 30
0.0
 10
4149.497467
 20
3149.448294
 30
0.0
 10
4151.401149
 20
3151.351940
 30
0.0
 10
4153.749440
 20
3151.351923
 30
0.0
  0
SPLINE
  5
1ef
100
AcDbEntity
  8
smal_parts_outside_cut
 62
3
100
AcDbSpline
 70
8
 71
3
 72
8
 73
4
 74
0
 40
0
 40
0
 40
0
 40
0
 40
1
 40
1
 40
1
 40
1
 10
4428.710080
 20
3151.351923
 30
0.0
 10
4431.058339
 20
3151.351896
 30
0.0
 10
4432.961973
 20
3149.448263
 30
0.0
 10
4432.962000
 20
3147.100003
 30
0.0
  0
SPLINE
  5
1f0
100
AcDbEntity
  8
smal_parts_outside_cut
 62
3
100
AcDbSpline
 70
8
 71
3
 72
8
 73
4
 74
0
 40
0
 40
0
 40
0
 40
0
 40
1
 40
1
 40
1
 40
1
 10
4149.497440
 20
3114.359843
 30
0.0
 10
4153.370630
 20
3110.484887
 30
0.0
 10
4153.369914
 20
3104.203995
 30
0.0
 10
4149.495841
 20
3100.329922
 30
0.0
  0
SPLINE
  5
1f1
100
AcDbEntity
  8
smal_parts_outside_cut
 62
3
100
AcDbSpline
 70
8
 71
3
 72
8
 73
4
 74
0
 40
0
 40
0
 40
0
 40
0
 40
1
 40
1
 40
1
 40
1
 10
4149.495841
 20
3100.329922
 30
0.0
 10
4145.621768
 20
3096.455849
 30
0.0
 10
4139.340876
 20
3096.455133
 30
0.0
 10
4135.465920
 20
3100.328323
 30
0.0
  0
LWPOLYLINE
  5
1f2
100
AcDbEntity
  8
smal_parts_outside_cut
 62
3
100
AcDbPolyline
 90
2
 70
0
 10
3865.722720
 20
3096.076323
 30
0.0
 10
3865.714720
 20
3096.076323
 30
0.0
  0
LWPOLYLINE
  5
1f3
100
AcDbEntity
  8
smal_parts_outside_cut
 62
3
100
AcDbPolyline
 90
2
 70
0
 10
3866.017200
 20
2832.851603
 30
0.0
 10
3866.033200
 20
2832.851603
 30
0.0
  0
SPLINE
  5
1f4
100
AcDbEntity
  8
smal_parts_outside_cut
 62
3
100
AcDbSpline
 70
8
 71
3
 72
8
 73
4
 74
0
 40
0
 40
0
 40
0
 40
0
 40
1
 40
1
 40
1
 40
1
 10
3866.032880
 20
2832.851603
 30
0.0
 10
3868.545786
 20
2830.346403
 30
0.0
 10
3869.529543
 20
2826.689938
 30
0.0
 10
3868.612912
 20
2823.262035
 30
0.0
  0
SPLINE
  5
1f5
100
AcDbEntity
  8
smal_parts_outside_cut
 62
3
100
AcDbSpline
 70
8
 71
3
 72
8
 73
4
 74
0
 40
0
 40
0
 40
0
 40
0
 40
1
 40
1
 40
1
 40
1
 10
3868.612912
 20
2823.262035
 30
0.0
 10
3867.696282
 20
2819.834133
 30
0.0
 10
3865.018821
 20
2817.156687
 30
0.0
 10
3861.590913
 20
2816.240076
 30
0.0
  0
SPLINE
  5
1f6
100
AcDbEntity
  8
smal_parts_outside_cut
 62
3
100
AcDbSpline
 70
8
 71
3
 72
8
 73
4
 74
0
 40
0
 40
0
 40
0
 40
0
 40
1
 40
1
 40
1
 40
1
 10
3861.590913
 20
2816.240076
 30
0.0
 10
3858.163005
 20
2815.323465
 30
0.0
 10
3854.506546
 20
2816.307242
 30
0.0
 10
3852.001360
 20
2818.820163
 30
0.0
  0
LWPOLYLINE
  5
1f7
100
AcDbEntity
  8
smal_parts_outside_cut
 62
3
100
AcDbPolyline
 90
2
 70
0
 10
3866.017200
 20
2832.836003
 30
0.0
 10
3866.033200
 20
2832.852003
 30
0.0
  0
LWPOLYLINE
  5
1f8
100
AcDbEntity
  8
smal_parts_outside_cut
 62
3
100
AcDbPolyline
 90
2
 70
0
 10
2737.675840
 20
2589.165763
 30
0.0
 10
2737.675840
 20
2807.433443
 30
0.0
  0
LWPOLYLINE
  5
1f9
100
AcDbEntity
  8
smal_parts_outside_cut
 62
3
100
AcDbPolyline
 90
2
 70
0
 10
2737.675840
 20
3144.217203
 30
0.0
 10
2736.969920
 20
3144.217203
 30
0.0
  0
LWPOLYLINE
  5
1fa
100
AcDbEntity
  8
smal_parts_outside_cut
 62
3
100
AcDbPolyline
 90
2
 70
0
 10
3076.416000
 20
3144.217203
 30
0.0
 10
3351.376640
 20
3144.217203
 30
0.0
  0
SPLINE
  5
1fb
100
AcDbEntity
  8
smal_parts_outside_cut
 62
3
100
AcDbSpline
 70
8
 71
3
 72
8
 73
4
 74
0
 40
0
 40
0
 40
0
 40
0
 40
1
 40
1
 40
1
 40
1
 10
3355.469520
 20
3092.633763
 30
0.0
 10
3076.003280
 20
3035.505443
 30
0.0
 10
2837.101840
 20
2809.391603
 30
0.0
 10
2789.035840
 20
2584.899523
 30
0.0
  0
LWPOLYLINE
  5
1fc
100
AcDbEntity
  8
smal_parts_outside_cut
 62
3
100
AcDbPolyline
 90
2
 70
0
 10
3355.628560
 20
3139.965283
 30
0.0
 10
3355.469520
 20
3092.633763
 30
0.0
  0
LWPOLYLINE
  5
1fd
100
AcDbEntity
  8
smal_parts_outside_cut
 62
3
100
AcDbPolyline
 90
2
 70
0
 10
2789.035840
 20
2584.899523
 30
0.0
 10
2741.927760
 20
2584.913923
 30
0.0
  0
LWPOLYLINE
  5
1fe
100
AcDbEntity
  8
smal_parts_outside_cut
 62
3
100
AcDbPolyline
 90
2
 70
0
 10
3072.164000
 20
3139.965283
 30
0.0
 10
3072.164000
 20
3107.225123
 30
0.0
  0
LWPOLYLINE
  5
1ff
100
AcDbEntity
  8
smal_parts_outside_cut
 62
3
100
AcDbPolyline
 90
2
 70
0
 10
2741.927760
 20
2811.685443
 30
0.0
 10
2774.667920
 20
2811.685443
 30
0.0
  0
LWPOLYLINE
  5
200
100
AcDbEntity
  8
smal_parts_outside_cut
 62
3
100
AcDbPolyline
 90
2
 70
0
 10
2788.683760
 20
2825.701283
 30
0.0
 10
2788.389120
 20
3089.138003
 30
0.0
  0
SPLINE
  5
201
100
AcDbEntity
  8
smal_parts_outside_cut
 62
3
100
AcDbSpline
 70
8
 71
3
 72
8
 73
4
 74
0
 40
0
 40
0
 40
0
 40
0
 40
1
 40
1
 40
1
 40
1
 10
2741.927760
 20
2584.913763
 30
0.0
 10
2739.579469
 20
2584.913790
 30
0.0
 10
2737.675823
 20
2586.817472
 30
0.0
 10
2737.675840
 20
2589.165763
 30
0.0
  0
SPLINE
  5
202
100
AcDbEntity
  8
smal_parts_outside_cut
 62
3
100
AcDbSpline
 70
8
 71
3
 72
8
 73
4
 74
0
 40
0
 40
0
 40
0
 40
0
 40
1
 40
1
 40
1
 40
1
 10
2737.675840
 20
2807.433443
 30
0.0
 10
2737.675823
 20
2809.781734
 30
0.0
 10
2739.579469
 20
2811.685416
 30
0.0
 10
2741.927760
 20
2811.685443
 30
0.0
  0
LWPOLYLINE
  5
203
100
AcDbEntity
  8
smal_parts_outside_cut
 62
3
100
AcDbPolyline
 90
2
 70
0
 10
3058.132480
 20
3093.193603
 30
0.0
 10
2792.636480
 20
3093.193603
 30
0.0
  0
SPLINE
  5
204
100
AcDbEntity
  8
smal_parts_outside_cut
 62
3
100
AcDbSpline
 70
8
 71
3
 72
8
 73
4
 74
0
 40
0
 40
0
 40
0
 40
0
 40
1
 40
1
 40
1
 40
1
 10
2788.384560
 20
3088.941603
 30
0.0
 10
2788.384543
 20
3091.289894
 30
0.0
 10
2790.288189
 20
3093.193576
 30
0.0
 10
2792.636480
 20
3093.193603
 30
0.0
  0
SPLINE
  5
205
100
AcDbEntity
  8
smal_parts_outside_cut
 62
3
100
AcDbSpline
 70
8
 71
3
 72
8
 73
4
 74
0
 40
0
 40
0
 40
0
 40
0
 40
1
 40
1
 40
1
 40
1
 10
3072.164000
 20
3139.965283
 30
0.0
 10
3072.164027
 20
3142.313574
 30
0.0
 10
3074.067709
 20
3144.217220
 30
0.0
 10
3076.416000
 20
3144.217203
 30
0.0
  0
SPLINE
  5
206
100
AcDbEntity
  8
smal_parts_outside_cut
 62
3
100
AcDbSpline
 70
8
 71
3
 72
8
 73
4
 74
0
 40
0
 40
0
 40
0
 40
0
 40
1
 40
1
 40
1
 40
1
 10
3351.376640
 20
3144.217203
 30
0.0
 10
3353.724899
 20
3144.217176
 30
0.0
 10
3355.628533
 20
3142.313543
 30
0.0
 10
3355.628560
 20
3139.965283
 30
0.0
  0
SPLINE
  5
207
100
AcDbEntity
  8
smal_parts_outside_cut
 62
3
100
AcDbSpline
 70
8
 71
3
 72
8
 73
4
 74
0
 40
0
 40
0
 40
0
 40
0
 40
1
 40
1
 40
1
 40
1
 10
3072.164000
 20
3107.225123
 30
0.0
 10
3076.037190
 20
3103.350167
 30
0.0
 10
3076.036474
 20
3097.069275
 30
0.0
 10
3072.162401
 20
3093.195202
 30
0.0
  0
SPLINE
  5
208
100
AcDbEntity
  8
smal_parts_outside_cut
 62
3
100
AcDbSpline
 70
8
 71
3
 72
8
 73
4
 74
0
 40
0
 40
0
 40
0
 40
0
 40
1
 40
1
 40
1
 40
1
 10
3072.162401
 20
3093.195202
 30
0.0
 10
3068.288328
 20
3089.321129
 30
0.0
 10
3062.007436
 20
3089.320413
 30
0.0
 10
3058.132480
 20
3093.193603
 30
0.0
  0
LWPOLYLINE
  5
209
100
AcDbEntity
  8
smal_parts_outside_cut
 62
3
100
AcDbPolyline
 90
2
 70
0
 10
2788.389280
 20
3088.941603
 30
0.0
 10
2788.381280
 20
3088.941603
 30
0.0
  0
LWPOLYLINE
  5
20a
100
AcDbEntity
  8
smal_parts_outside_cut
 62
3
100
AcDbPolyline
 90
2
 70
0
 10
2788.683760
 20
2825.716883
 30
0.0
 10
2788.699760
 20
2825.716883
 30
0.0
  0
SPLINE
  5
20b
100
AcDbEntity
  8
smal_parts_outside_cut
 62
3
100
AcDbSpline
 70
8
 71
3
 72
8
 73
4
 74
0
 40
0
 40
0
 40
0
 40
0
 40
1
 40
1
 40
1
 40
1
 10
2788.699440
 20
2825.716883
 30
0.0
 10
2791.212346
 20
2823.211683
 30
0.0
 10
2792.196103
 20
2819.555218
 30
0.0
 10
2791.279472
 20
2816.127315
 30
0.0
  0
SPLINE
  5
20c
100
AcDbEntity
  8
smal_parts_outside_cut
 62
3
100
AcDbSpline
 70
8
 71
3
 72
8
 73
4
 74
0
 40
0
 40
0
 40
0
 40
0
 40
1
 40
1
 40
1
 40
1
 10
2791.279472
 20
2816.127315
 30
0.0
 10
2790.362842
 20
2812.699413
 30
0.0
 10
2787.685381
 20
2810.021967
 30
0.0
 10
2784.257473
 20
2809.105356
 30
0.0
  0
SPLINE
  5
20d
100
AcDbEntity
  8
smal_parts_outside_cut
 62
3
100
AcDbSpline
 70
8
 71
3
 72
8
 73
4
 74
0
 40
0
 40
0
 40
0
 40
0
 40
1
 40
1
 40
1
 40
1
 10
2784.257473
 20
2809.105356
 30
0.0
 10
2780.829565
 20
2808.188745
 30
0.0
 10
2777.173106
 20
2809.172522
 30
0.0
 10
2774.667920
 20
2811.685443
 30
0.0
  0
LWPOLYLINE
  5
20e
100
AcDbEntity
  8
smal_parts_outside_cut
 62
3
100
AcDbPolyline
 90
2
 70
0
 10
2788.683760
 20
2825.701283
 30
0.0
 10
2788.699760
 20
2825.717283
 30
0.0
  0
LWPOLYLINE
  5
20f
100
AcDbEntity
  8
smal_parts_outside_cut
 62
3
100
AcDbPolyline
 90
2
 70
0
 10
5784.175120
 20
263.266963
 30
0.0
 10
5784.175120
 20
481.534643
 30
0.0
  0
LWPOLYLINE
  5
210
100
AcDbEntity
  8
smal_parts_outside_cut
 62
3
100
AcDbPolyline
 90
2
 70
0
 10
5784.175120
 20
818.318403
 30
0.0
 10
5783.469200
 20
818.318403
 30
0.0
  0
LWPOLYLINE
  5
211
100
AcDbEntity
  8
smal_parts_outside_cut
 62
3
100
AcDbPolyline
 90
2
 70
0
 10
6122.915280
 20
818.318403
 30
0.0
 10
6397.875920
 20
818.318403
 30
0.0
  0
SPLINE
  5
212
100
AcDbEntity
  8
smal_parts_outside_cut
 62
3
100
AcDbSpline
 70
8
 71
3
 72
8
 73
4
 74
0
 40
0
 40
0
 40
0
 40
0
 40
1
 40
1
 40
1
 40
1
 10
6402.042560
 20
766.954003
 30
0.0
 10
6122.650080
 20
710.044563
 30
0.0
 10
5883.499760
 20
483.463443
 30
0.0
 10
5835.484400
 20
258.986003
 30
0.0
  0
LWPOLYLINE
  5
213
100
AcDbEntity
  8
smal_parts_outside_cut
 62
3
100
AcDbPolyline
 90
2
 70
0
 10
6402.127840
 20
814.066483
 30
0.0
 10
6402.042560
 20
766.954003
 30
0.0
  0
LWPOLYLINE
  5
214
100
AcDbEntity
  8
smal_parts_outside_cut
 62
3
100
AcDbPolyline
 90
2
 70
0
 10
5835.484400
 20
258.986003
 30
0.0
 10
5788.427040
 20
259.014803
 30
0.0
  0
LWPOLYLINE
  5
215
100
AcDbEntity
  8
smal_parts_outside_cut
 62
3
100
AcDbPolyline
 90
2
 70
0
 10
6118.663280
 20
814.066483
 30
0.0
 10
6118.663280
 20
781.326323
 30
0.0
  0
LWPOLYLINE
  5
216
100
AcDbEntity
  8
smal_parts_outside_cut
 62
3
100
AcDbPolyline
 90
2
 70
0
 10
5788.427040
 20
485.786643
 30
0.0
 10
5821.167200
 20
485.786643
 30
0.0
  0
LWPOLYLINE
  5
217
100
AcDbEntity
  8
smal_parts_outside_cut
 62
3
100
AcDbPolyline
 90
2
 70
0
 10
5835.183040
 20
499.802483
 30
0.0
 10
5834.888400
 20
763.239203
 30
0.0
  0
SPLINE
  5
218
100
AcDbEntity
  8
smal_parts_outside_cut
 62
3
100
AcDbSpline
 70
8
 71
3
 72
8
 73
4
 74
0
 40
0
 40
0
 40
0
 40
0
 40
1
 40
1
 40
1
 40
1
 10
5788.427040
 20
259.014963
 30
0.0
 10
5786.078749
 20
259.014990
 30
0.0
 10
5784.175103
 20
260.918672
 30
0.0
 10
5784.175120
 20
263.266963
 30
0.0
  0
SPLINE
  5
219
100
AcDbEntity
  8
smal_parts_outside_cut
 62
3
100
AcDbSpline
 70
8
 71
3
 72
8
 73
4
 74
0
 40
0
 40
0
 40
0
 40
0
 40
1
 40
1
 40
1
 40
1
 10
5784.175120
 20
481.534643
 30
0.0
 10
5784.175103
 20
483.882934
 30
0.0
 10
5786.078749
 20
485.786616
 30
0.0
 10
5788.427040
 20
485.786643
 30
0.0
  0
LWPOLYLINE
  5
21a
100
AcDbEntity
  8
smal_parts_outside_cut
 62
3
100
AcDbPolyline
 90
2
 70
0
 10
6104.631760
 20
767.294803
 30
0.0
 10
5839.135760
 20
767.294803
 30
0.0
  0
SPLINE
  5
21b
100
AcDbEntity
  8
smal_parts_outside_cut
 62
3
100
AcDbSpline
 70
8
 71
3
 72
8
 73
4
 74
0
 40
0
 40
0
 40
0
 40
0
 40
1
 40
1
 40
1
 40
1
 10
5834.883840
 20
763.042803
 30
0.0
 10
5834.883823
 20
765.391094
 30
0.0
 10
5836.787469
 20
767.294776
 30
0.0
 10
5839.135760
 20
767.294803
 30
0.0
  0
SPLINE
  5
21c
100
AcDbEntity
  8
smal_parts_outside_cut
 62
3
100
AcDbSpline
 70
8
 71
3
 72
8
 73
4
 74
0
 40
0
 40
0
 40
0
 40
0
 40
1
 40
1
 40
1
 40
1
 10
6118.663280
 20
814.066483
 30
0.0
 10
6118.663307
 20
816.414774
 30
0.0
 10
6120.566989
 20
818.318420
 30
0.0
 10
6122.915280
 20
818.318403
 30
0.0
  0
SPLINE
  5
21d
100
AcDbEntity
  8
smal_parts_outside_cut
 62
3
100
AcDbSpline
 70
8
 71
3
 72
8
 73
4
 74
0
 40
0
 40
0
 40
0
 40
0
 40
1
 40
1
 40
1
 40
1
 10
6397.875920
 20
818.318403
 30
0.0
 10
6400.224179
 20
818.318376
 30
0.0
 10
6402.127813
 20
816.414743
 30
0.0
 10
6402.127840
 20
814.066483
 30
0.0
  0
SPLINE
  5
21e
100
AcDbEntity
  8
smal_parts_outside_cut
 62
3
100
AcDbSpline
 70
8
 71
3
 72
8
 73
4
 74
0
 40
0
 40
0
 40
0
 40
0
 40
1
 40
1
 40
1
 40
1
 10
6118.663280
 20
781.326323
 30
0.0
 10
6122.536470
 20
777.451367
 30
0.0
 10
6122.535754
 20
771.170475
 30
0.0
 10
6118.661681
 20
767.296402
 30
0.0
  0
SPLINE
  5
21f
100
AcDbEntity
  8
smal_parts_outside_cut
 62
3
100
AcDbSpline
 70
8
 71
3
 72
8
 73
4
 74
0
 40
0
 40
0
 40
0
 40
0
 40
1
 40
1
 40
1
 40
1
 10
6118.661681
 20
767.296402
 30
0.0
 10
6114.787608
 20
763.422329
 30
0.0
 10
6108.506716
 20
763.421613
 30
0.0
 10
6104.631760
 20
767.294803
 30
0.0
  0
LWPOLYLINE
  5
220
100
AcDbEntity
  8
smal_parts_outside_cut
 62
3
100
AcDbPolyline
 90
2
 70
0
 10
5834.888560
 20
763.042803
 30
0.0
 10
5834.880560
 20
763.042803
 30
0.0
  0
LWPOLYLINE
  5
221
100
AcDbEntity
  8
smal_parts_outside_cut
 62
3
100
AcDbPolyline
 90
2
 70
0
 10
5835.183040
 20
499.818083
 30
0.0
 10
5835.199040
 20
499.818083
 30
0.0
  0
SPLINE
  5
222
100
AcDbEntity
  8
smal_parts_outside_cut
 62
3
100
AcDbSpline
 70
8
 71
3
 72
8
 73
4
 74
0
 40
0
 40
0
 40
0
 40
0
 40
1
 40
1
 40
1
 40
1
 10
5835.198720
 20
499.818083
 30
0.0
 10
5837.711626
 20
497.312883
 30
0.0
 10
5838.695383
 20
493.656418
 30
0.0
 10
5837.778752
 20
490.228515
 30
0.0
  0
SPLINE
  5
223
100
AcDbEntity
  8
smal_parts_outside_cut
 62
3
100
AcDbSpline
 70
8
 71
3
 72
8
 73
4
 74
0
 40
0
 40
0
 40
0
 40
0
 40
1
 40
1
 40
1
 40
1
 10
5837.778752
 20
490.228515
 30
0.0
 10
5836.862122
 20
486.800613
 30
0.0
 10
5834.184661
 20
484.123167
 30
0.0
 10
5830.756753
 20
483.206556
 30
0.0
  0
SPLINE
  5
224
100
AcDbEntity
  8
smal_parts_outside_cut
 62
3
100
AcDbSpline
 70
8
 71
3
 72
8
 73
4
 74
0
 40
0
 40
0
 40
0
 40
0
 40
1
 40
1
 40
1
 40
1
 10
5830.756753
 20
483.206556
 30
0.0
 10
5827.328845
 20
482.289945
 30
0.0
 10
5823.672386
 20
483.273722
 30
0.0
 10
5821.167200
 20
485.786643
 30
0.0
  0
LWPOLYLINE
  5
225
100
AcDbEntity
  8
smal_parts_outside_cut
 62
3
100
AcDbPolyline
 90
2
 70
0
 10
5835.183040
 20
499.802483
 30
0.0
 10
5835.199040
 20
499.818483
 30
0.0
  0
LWPOLYLINE
  5
226
100
AcDbEntity
  8
smal_parts_outside_cut
 62
3
100
AcDbPolyline
 90
2
 70
0
 10
4849.534880
 20
277.536323
 30
0.0
 10
4849.534880
 20
495.804003
 30
0.0
  0
LWPOLYLINE
  5
227
100
AcDbEntity
  8
smal_parts_outside_cut
 62
3
100
AcDbPolyline
 90
2
 70
0
 10
4849.534880
 20
832.587763
 30
0.0
 10
4848.828960
 20
832.587763
 30
0.0
  0
LWPOLYLINE
  5
228
100
AcDbEntity
  8
smal_parts_outside_cut
 62
3
100
AcDbPolyline
 90
2
 70
0
 10
5188.275040
 20
832.587763
 30
0.0
 10
5463.235680
 20
832.587763
 30
0.0
  0
SPLINE
  5
229
100
AcDbEntity
  8
smal_parts_outside_cut
 62
3
100
AcDbSpline
 70
8
 71
3
 72
8
 73
4
 74
0
 40
0
 40
0
 40
0
 40
0
 40
1
 40
1
 40
1
 40
1
 10
5467.466000
 20
781.210883
 30
0.0
 10
5188.137440
 20
724.289123
 30
0.0
 10
4948.960640
 20
497.762163
 30
0.0
 10
4900.894560
 20
273.270003
 30
0.0
  0
LWPOLYLINE
  5
22a
100
AcDbEntity
  8
smal_parts_outside_cut
 62
3
100
AcDbPolyline
 90
2
 70
0
 10
5467.487600
 20
828.335843
 30
0.0
 10
5467.466000
 20
781.210883
 30
0.0
  0
LWPOLYLINE
  5
22b
100
AcDbEntity
  8
smal_parts_outside_cut
 62
3
100
AcDbPolyline
 90
2
 70
0
 10
4900.894560
 20
273.270003
 30
0.0
 10
4853.786480
 20
273.284403
 30
0.0
  0
LWPOLYLINE
  5
22c
100
AcDbEntity
  8
smal_parts_outside_cut
 62
3
100
AcDbPolyline
 90
2
 70
0
 10
5184.023040
 20
828.335843
 30
0.0
 10
5184.023040
 20
795.595683
 30
0.0
  0
LWPOLYLINE
  5
22d
100
AcDbEntity
  8
smal_parts_outside_cut
 62
3
100
AcDbPolyline
 90
2
 70
0
 10
4853.786800
 20
500.056003
 30
0.0
 10
4886.526960
 20
500.056003
 30
0.0
  0
LWPOLYLINE
  5
22e
100
AcDbEntity
  8
smal_parts_outside_cut
 62
3
100
AcDbPolyline
 90
2
 70
0
 10
4900.542800
 20
514.071843
 30
0.0
 10
4900.248160
 20
777.508563
 30
0.0
  0
SPLINE
  5
22f
100
AcDbEntity
  8
smal_parts_outside_cut
 62
3
100
AcDbSpline
 70
8
 71
3
 72
8
 73
4
 74
0
 40
0
 40
0
 40
0
 40
0
 40
1
 40
1
 40
1
 40
1
 10
4853.786800
 20
273.284323
 30
0.0
 10
4851.438509
 20
273.284350
 30
0.0
 10
4849.534863
 20
275.188032
 30
0.0
 10
4849.534880
 20
277.536323
 30
0.0
  0
SPLINE
  5
230
100
AcDbEntity
  8
smal_parts_outside_cut
 62
3
100
AcDbSpline
 70
8
 71
3
 72
8
 73
4
 74
0
 40
0
 40
0
 40
0
 40
0
 40
1
 40
1
 40
1
 40
1
 10
4849.534880
 20
495.804003
 30
0.0
 10
4849.534863
 20
498.152294
 30
0.0
 10
4851.438509
 20
500.055976
 30
0.0
 10
4853.786800
 20
500.056003
 30
0.0
  0
LWPOLYLINE
  5
231
100
AcDbEntity
  8
smal_parts_outside_cut
 62
3
100
AcDbPolyline
 90
2
 70
0
 10
5169.991520
 20
781.564163
 30
0.0
 10
4904.495520
 20
781.564163
 30
0.0
  0
SPLINE
  5
232
100
AcDbEntity
  8
smal_parts_outside_cut
 62
3
100
AcDbSpline
 70
8
 71
3
 72
8
 73
4
 74
0
 40
0
 40
0
 40
0
 40
0
 40
1
 40
1
 40
1
 40
1
 10
4900.243600
 20
777.312163
 30
0.0
 10
4900.243583
 20
779.660454
 30
0.0
 10
4902.147229
 20
781.564136
 30
0.0
 10
4904.495520
 20
781.564163
 30
0.0
  0
SPLINE
  5
233
100
AcDbEntity
  8
smal_parts_outside_cut
 62
3
100
AcDbSpline
 70
8
 71
3
 72
8
 73
4
 74
0
 40
0
 40
0
 40
0
 40
0
 40
1
 40
1
 40
1
 40
1
 10
5184.023040
 20
828.335843
 30
0.0
 10
5184.023067
 20
830.684134
 30
0.0
 10
5185.926749
 20
832.587780
 30
0.0
 10
5188.275040
 20
832.587763
 30
0.0
  0
SPLINE
  5
234
100
AcDbEntity
  8
smal_parts_outside_cut
 62
3
100
AcDbSpline
 70
8
 71
3
 72
8
 73
4
 74
0
 40
0
 40
0
 40
0
 40
0
 40
1
 40
1
 40
1
 40
1
 10
5463.235680
 20
832.587763
 30
0.0
 10
5465.583939
 20
832.587736
 30
0.0
 10
5467.487573
 20
830.684103
 30
0.0
 10
5467.487600
 20
828.335843
 30
0.0
  0
SPLINE
  5
235
100
AcDbEntity
  8
smal_parts_outside_cut
 62
3
100
AcDbSpline
 70
8
 71
3
 72
8
 73
4
 74
0
 40
0
 40
0
 40
0
 40
0
 40
1
 40
1
 40
1
 40
1
 10
5184.023040
 20
795.595683
 30
0.0
 10
5187.896230
 20
791.720727
 30
0.0
 10
5187.895514
 20
785.439835
 30
0.0
 10
5184.021441
 20
781.565762
 30
0.0
  0
SPLINE
  5
236
100
AcDbEntity
  8
smal_parts_outside_cut
 62
3
100
AcDbSpline
 70
8
 71
3
 72
8
 73
4
 74
0
 40
0
 40
0
 40
0
 40
0
 40
1
 40
1
 40
1
 40
1
 10
5184.021441
 20
781.565762
 30
0.0
 10
5180.147368
 20
777.691689
 30
0.0
 10
5173.866476
 20
777.690973
 30
0.0
 10
5169.991520
 20
781.564163
 30
0.0
  0
LWPOLYLINE
  5
237
100
AcDbEntity
  8
smal_parts_outside_cut
 62
3
100
AcDbPolyline
 90
2
 70
0
 10
4900.248320
 20
777.312163
 30
0.0
 10
4900.240320
 20
777.312163
 30
0.0
  0
LWPOLYLINE
  5
238
100
AcDbEntity
  8
smal_parts_outside_cut
 62
3
100
AcDbPolyline
 90
2
 70
0
 10
4900.542800
 20
514.087443
 30
0.0
 10
4900.558800
 20
514.087443
 30
0.0
  0
SPLINE
  5
239
100
AcDbEntity
  8
smal_parts_outside_cut
 62
3
100
AcDbSpline
 70
8
 71
3
 72
8
 73
4
 74
0
 40
0
 40
0
 40
0
 40
0
 40
1
 40
1
 40
1
 40
1
 10
4900.558480
 20
514.087443
 30
0.0
 10
4903.071386
 20
511.582243
 30
0.0
 10
4904.055143
 20
507.925778
 30
0.0
 10
4903.138512
 20
504.497875
 30
0.0
  0
SPLINE
  5
23a
100
AcDbEntity
  8
smal_parts_outside_cut
 62
3
100
AcDbSpline
 70
8
 71
3
 72
8
 73
4
 74
0
 40
0
 40
0
 40
0
 40
0
 40
1
 40
1
 40
1
 40
1
 10
4903.138512
 20
504.497875
 30
0.0
 10
4902.221882
 20
501.069973
 30
0.0
 10
4899.544421
 20
498.392527
 30
0.0
 10
4896.116513
 20
497.475916
 30
0.0
  0
SPLINE
  5
23b
100
AcDbEntity
  8
smal_parts_outside_cut
 62
3
100
AcDbSpline
 70
8
 71
3
 72
8
 73
4
 74
0
 40
0
 40
0
 40
0
 40
0
 40
1
 40
1
 40
1
 40
1
 10
4896.116513
 20
497.475916
 30
0.0
 10
4892.688605
 20
496.559305
 30
0.0
 10
4889.032146
 20
497.543082
 30
0.0
 10
4886.526960
 20
500.056003
 30
0.0
  0
SPLINE
  5
23c
100
AcDbEntity
  8
large_holes_inside_cut
 62
5
100
AcDbSpline
 70
8
 71
3
 72
8
 73
4
 74
0
 40
0
 40
0
 40
0
 40
0
 40
1
 40
1
 40
1
 40
1
 10
3666.766240
 20
1891.292723
 30
0.0
 10
3827.182400
 20
1829.295123
 30
0.0
 10
3967.085280
 20
1752.547123
 30
0.0
 10
4081.321600
 20
1663.876003
 30
0.0
  0
SPLINE
  5
23d
100
AcDbEntity
  8
large_holes_inside_cut
 62
5
100
AcDbSpline
 70
8
 71
3
 72
8
 73
4
 74
0
 40
0
 40
0
 40
0
 40
0
 40
1
 40
1
 40
1
 40
1
 10
4081.321600
 20
1663.876003
 30
0.0
 10
4148.230960
 20
1611.940243
 30
0.0
 10
4205.556400
 20
1553.437523
 30
0.0
 10
4234.859680
 20
1507.184483
 30
0.0
  0
SPLINE
  5
23e
100
AcDbEntity
  8
large_holes_inside_cut
 62
5
100
AcDbSpline
 70
8
 71
3
 72
8
 73
4
 74
0
 40
0
 40
0
 40
0
 40
0
 40
1
 40
1
 40
1
 40
1
 10
4234.859680
 20
1507.184483
 30
0.0
 10
4262.725840
 20
1463.200003
 30
0.0
 10
4269.702400
 20
1430.696403
 30
0.0
 10
4257.175280
 20
1403.218163
 30
0.0
  0
SPLINE
  5
23f
100
AcDbEntity
  8
large_holes_inside_cut
 62
5
100
AcDbSpline
 70
8
 71
3
 72
8
 73
4
 74
0
 40
0
 40
0
 40
0
 40
0
 40
1
 40
1
 40
1
 40
1
 10
4257.175280
 20
1403.218163
 30
0.0
 10
4251.368400
 20
1390.480243
 30
0.0
 10
4239.525200
 20
1377.650323
 30
0.0
 10
4206.392160
 20
1348.203283
 30
0.0
  0
SPLINE
  5
240
100
AcDbEntity
  8
large_holes_inside_cut
 62
5
100
AcDbSpline
 70
8
 71
3
 72
8
 73
4
 74
0
 40
0
 40
0
 40
0
 40
0
 40
1
 40
1
 40
1
 40
1
 10
4261.517040
 20
1023.091123
 30
0.0
 10
4252.728880
 20
981.977203
 30
0.0
 10
4217.977840
 20
931.424643
 30
0.0
 10
4159.180000
 20
874.220483
 30
0.0
  0
SPLINE
  5
241
100
AcDbEntity
  8
large_holes_inside_cut
 62
5
100
AcDbSpline
 70
8
 71
3
 72
8
 73
4
 74
0
 40
0
 40
0
 40
0
 40
0
 40
1
 40
1
 40
1
 40
1
 10
3187.190640
 20
461.105923
 30
0.0
 10
3158.425360
 20
458.365123
 30
0.0
 10
3139.409280
 20
457.375843
 30
0.0
 10
3106.847120
 20
456.926323
 30
0.0
  0
SPLINE
  5
242
100
AcDbEntity
  8
large_holes_inside_cut
 62
5
100
AcDbSpline
 70
8
 71
3
 72
8
 73
4
 74
0
 40
0
 40
0
 40
0
 40
0
 40
1
 40
1
 40
1
 40
1
 10
3106.847120
 20
456.926323
 30
0.0
 10
3062.284080
 20
456.311123
 30
0.0
 10
3035.847040
 20
457.890403
 30
0.0
 10
3004.052160
 20
463.067123
 30
0.0
  0
SPLINE
  5
243
100
AcDbEntity
  8
large_holes_inside_cut
 62
5
100
AcDbSpline
 70
8
 71
3
 72
8
 73
4
 74
0
 40
0
 40
0
 40
0
 40
0
 40
1
 40
1
 40
1
 40
1
 10
3004.052160
 20
463.067123
 30
0.0
 10
2959.776640
 20
470.275923
 30
0.0
 10
2927.804160
 20
483.193203
 30
0.0
 10
2907.543680
 20
502.058163
 30
0.0
  0
SPLINE
  5
244
100
AcDbEntity
  8
large_holes_inside_cut
 62
5
100
AcDbSpline
 70
8
 71
3
 72
8
 73
4
 74
0
 40
0
 40
0
 40
0
 40
0
 40
1
 40
1
 40
1
 40
1
 10
2884.431200
 20
540.498643
 30
0.0
 10
2882.860960
 20
547.360483
 30
0.0
 10
2882.833760
 20
559.010643
 30
0.0
 10
2882.812720
 20
1234.917683
 30
0.0
  0
SPLINE
  5
245
100
AcDbEntity
  8
large_holes_inside_cut
 62
5
100
AcDbSpline
 70
8
 71
3
 72
8
 73
4
 74
0
 40
0
 40
0
 40
0
 40
0
 40
1
 40
1
 40
1
 40
1
 10
2882.812720
 20
1234.917683
 30
0.0
 10
2882.791920
 20
1847.677363
 30
0.0
 10
2882.928160
 20
1922.999283
 30
0.0
 10
2884.053120
 20
1928.259763
 30
0.0
  0
SPLINE
  5
246
100
AcDbEntity
  8
large_holes_inside_cut
 62
5
100
AcDbSpline
 70
8
 71
3
 72
8
 73
4
 74
0
 40
0
 40
0
 40
0
 40
0
 40
1
 40
1
 40
1
 40
1
 10
2909.142560
 20
1970.370003
 30
0.0
 10
2916.887040
 20
1977.228163
 30
0.0
 10
2926.144160
 20
1982.980003
 30
0.0
 10
2939.153520
 20
1989.016083
 30
0.0
  0
SPLINE
  5
247
100
AcDbEntity
  8
large_holes_inside_cut
 62
5
100
AcDbSpline
 70
8
 71
3
 72
8
 73
4
 74
0
 40
0
 40
0
 40
0
 40
0
 40
1
 40
1
 40
1
 40
1
 10
2939.153520
 20
1989.016083
 30
0.0
 10
2966.506000
 20
2001.707683
 30
0.0
 10
3000.596640
 20
2009.081283
 30
0.0
 10
3048.867440
 20
2012.747123
 30
0.0
  0
SPLINE
  5
248
100
AcDbEntity
  8
large_holes_inside_cut
 62
5
100
AcDbSpline
 70
8
 71
3
 72
8
 73
4
 74
0
 40
0
 40
0
 40
0
 40
0
 40
1
 40
1
 40
1
 40
1
 10
3048.867440
 20
2012.747123
 30
0.0
 10
3059.836320
 20
2013.580003
 30
0.0
 10
3111.226640
 20
2014.353923
 30
0.0
 10
3121.756320
 20
2013.844483
 30
0.0
  0
SPLINE
  5
249
100
AcDbEntity
  8
large_holes_inside_cut
 62
5
100
AcDbSpline
 70
8
 71
3
 72
8
 73
4
 74
0
 40
0
 40
0
 40
0
 40
0
 40
1
 40
1
 40
1
 40
1
 10
3143.705840
 20
2012.702003
 30
0.0
 10
3296.268480
 20
2004.560243
 30
0.0
 10
3490.108240
 20
1959.567363
 30
0.0
 10
3666.766240
 20
1891.292723
 30
0.0
  0
SPLINE
  5
24a
100
AcDbEntity
  8
large_holes_inside_cut
 62
5
100
AcDbSpline
 70
8
 71
3
 72
8
 73
4
 74
0
 40
0
 40
0
 40
0
 40
0
 40
1
 40
1
 40
1
 40
1
 10
4206.392160
 20
1348.203283
 30
0.0
 10
4175.236320
 20
1320.513123
 30
0.0
 10
4160.919440
 20
1300.622323
 30
0.0
 10
4152.890080
 20
1273.870563
 30
0.0
  0
SPLINE
  5
24b
100
AcDbEntity
  8
large_holes_inside_cut
 62
5
100
AcDbSpline
 70
8
 71
3
 72
8
 73
4
 74
0
 40
0
 40
0
 40
0
 40
0
 40
1
 40
1
 40
1
 40
1
 10
4148.062640
 20
1235.497443
 30
0.0
 10
4148.071440
 20
1212.654243
 30
0.0
 10
4150.598320
 20
1199.469843
 30
0.0
 10
4158.287840
 20
1182.242483
 30
0.0
  0
SPLINE
  5
24c
100
AcDbEntity
  8
large_holes_inside_cut
 62
5
100
AcDbSpline
 70
8
 71
3
 72
8
 73
4
 74
0
 40
0
 40
0
 40
0
 40
0
 40
1
 40
1
 40
1
 40
1
 10
4158.287840
 20
1182.242483
 30
0.0
 10
4168.350960
 20
1159.697123
 30
0.0
 10
4182.642720
 20
1142.840323
 30
0.0
 10
4217.470560
 20
1112.438483
 30
0.0
  0
SPLINE
  5
24d
100
AcDbEntity
  8
large_holes_inside_cut
 62
5
100
AcDbSpline
 70
8
 71
3
 72
8
 73
4
 74
0
 40
0
 40
0
 40
0
 40
0
 40
1
 40
1
 40
1
 40
1
 10
4217.470560
 20
1112.438483
 30
0.0
 10
4245.877920
 20
1087.641443
 30
0.0
 10
4256.189680
 20
1074.377443
 30
0.0
 10
4261.121120
 20
1056.292083
 30
0.0
  0
SPLINE
  5
24e
100
AcDbEntity
  8
large_holes_inside_cut
 62
5
100
AcDbSpline
 70
8
 71
3
 72
8
 73
4
 74
0
 40
0
 40
0
 40
0
 40
0
 40
1
 40
1
 40
1
 40
1
 10
4261.121120
 20
1056.292083
 30
0.0
 10
4263.417200
 20
1047.871523
 30
0.0
 10
4263.596960
 20
1032.820963
 30
0.0
 10
4261.517040
 20
1023.091123
 30
0.0
  0
SPLINE
  5
24f
100
AcDbEntity
  8
large_holes_inside_cut
 62
5
100
AcDbSpline
 70
8
 71
3
 72
8
 73
4
 74
0
 40
0
 40
0
 40
0
 40
0
 40
1
 40
1
 40
1
 40
1
 10
4159.180000
 20
874.220483
 30
0.0
 10
4051.994400
 20
769.940243
 30
0.0
 10
3886.305840
 20
668.140723
 30
0.0
 10
3701.968160
 20
593.308323
 30
0.0
  0
SPLINE
  5
250
100
AcDbEntity
  8
large_holes_inside_cut
 62
5
100
AcDbSpline
 70
8
 71
3
 72
8
 73
4
 74
0
 40
0
 40
0
 40
0
 40
0
 40
1
 40
1
 40
1
 40
1
 10
3701.968160
 20
593.308323
 30
0.0
 10
3529.474800
 20
523.284163
 30
0.0
 10
3346.450880
 20
476.280963
 30
0.0
 10
3187.190640
 20
461.105923
 30
0.0
  0
SPLINE
  5
251
100
AcDbEntity
  8
large_holes_inside_cut
 62
5
100
AcDbSpline
 70
8
 71
3
 72
8
 73
4
 74
0
 40
0
 40
0
 40
0
 40
0
 40
1
 40
1
 40
1
 40
1
 10
3121.756320
 20
2013.844483
 30
0.0
 10
3124.945120
 20
2013.690403
 30
0.0
 10
3134.822320
 20
2013.176163
 30
0.0
 10
3143.705840
 20
2012.702003
 30
0.0
  0
SPLINE
  5
252
100
AcDbEntity
  8
large_holes_inside_cut
 62
5
100
AcDbSpline
 70
8
 71
3
 72
8
 73
4
 74
0
 40
0
 40
0
 40
0
 40
0
 40
1
 40
1
 40
1
 40
1
 10
2907.543680
 20
502.058163
 30
0.0
 10
2895.197040
 20
513.554243
 30
0.0
 10
2887.770480
 20
525.906083
 30
0.0
 10
2884.431200
 20
540.498643
 30
0.0
  0
SPLINE
  5
253
100
AcDbEntity
  8
large_holes_inside_cut
 62
5
100
AcDbSpline
 70
8
 71
3
 72
8
 73
4
 74
0
 40
0
 40
0
 40
0
 40
0
 40
1
 40
1
 40
1
 40
1
 10
2884.053120
 20
1928.259763
 30
0.0
 10
2887.596080
 20
1944.827043
 30
0.0
 10
2895.746960
 20
1958.507283
 30
0.0
 10
2909.142560
 20
1970.370003
 30
0.0
  0
LWPOLYLINE
  5
254
100
AcDbEntity
  8
smal_parts_outside_cut
 62
3
100
AcDbPolyline
 90
2
 70
0
 10
4900.542800
 20
514.071843
 30
0.0
 10
4900.558800
 20
514.087843
 30
0.0
  0
SPLINE
  5
255
100
AcDbEntity
  8
large_holes_inside_cut
 62
5
100
AcDbSpline
 70
8
 71
3
 72
8
 73
4
 74
0
 40
0
 40
0
 40
0
 40
0
 40
1
 40
1
 40
1
 40
1
 10
4152.890080
 20
1273.870563
 30
0.0
 10
4149.008480
 20
1260.938803
 30
0.0
 10
4148.059440
 20
1253.395603
 30
0.0
 10
4148.062640
 20
1235.497443
 30
0.0
  0
SPLINE
  5
256
100
AcDbEntity
  8
large_holes_inside_cut
 62
5
100
AcDbSpline
 70
8
 71
3
 72
8
 73
4
 74
0
 40
0
 40
0
 40
0
 40
0
 40
1
 40
1
 40
1
 40
1
 10
5992.628080
 20
1440.100083
 30
0.0
 10
5840.065440
 20
1448.241843
 30
0.0
 10
5646.225680
 20
1493.234723
 30
0.0
 10
5469.567680
 20
1561.509363
 30
0.0
  0
SPLINE
  5
257
100
AcDbEntity
  8
large_holes_inside_cut
 62
5
100
AcDbSpline
 70
8
 71
3
 72
8
 73
4
 74
0
 40
0
 40
0
 40
0
 40
0
 40
1
 40
1
 40
1
 40
1
 10
5469.567680
 20
1561.509363
 30
0.0
 10
5309.151520
 20
1623.506963
 30
0.0
 10
5169.248640
 20
1700.254963
 30
0.0
 10
5055.012320
 20
1788.926083
 30
0.0
  0
SPLINE
  5
258
100
AcDbEntity
  8
large_holes_inside_cut
 62
5
100
AcDbSpline
 70
8
 71
3
 72
8
 73
4
 74
0
 40
0
 40
0
 40
0
 40
0
 40
1
 40
1
 40
1
 40
1
 10
5055.012320
 20
1788.926083
 30
0.0
 10
4988.102960
 20
1840.861843
 30
0.0
 10
4930.777520
 20
1899.364563
 30
0.0
 10
4901.474240
 20
1945.617603
 30
0.0
  0
SPLINE
  5
259
100
AcDbEntity
  8
large_holes_inside_cut
 62
5
100
AcDbSpline
 70
8
 71
3
 72
8
 73
4
 74
0
 40
0
 40
0
 40
0
 40
0
 40
1
 40
1
 40
1
 40
1
 10
4901.474240
 20
1945.617603
 30
0.0
 10
4873.608080
 20
1989.602083
 30
0.0
 10
4866.631520
 20
2022.105683
 30
0.0
 10
4879.158640
 20
2049.583923
 30
0.0
  0
SPLINE
  5
25a
100
AcDbEntity
  8
large_holes_inside_cut
 62
5
100
AcDbSpline
 70
8
 71
3
 72
8
 73
4
 74
0
 40
0
 40
0
 40
0
 40
0
 40
1
 40
1
 40
1
 40
1
 10
4879.158640
 20
2049.583923
 30
0.0
 10
4884.965520
 20
2062.321843
 30
0.0
 10
4896.808720
 20
2075.151763
 30
0.0
 10
4929.941760
 20
2104.598803
 30
0.0
  0
SPLINE
  5
25b
100
AcDbEntity
  8
large_holes_inside_cut
 62
5
100
AcDbSpline
 70
8
 71
3
 72
8
 73
4
 74
0
 40
0
 40
0
 40
0
 40
0
 40
1
 40
1
 40
1
 40
1
 10
4929.941760
 20
2104.598803
 30
0.0
 10
4961.097600
 20
2132.288963
 30
0.0
 10
4975.414480
 20
2152.179763
 30
0.0
 10
4983.443840
 20
2178.931523
 30
0.0
  0
SPLINE
  5
25c
100
AcDbEntity
  8
large_holes_inside_cut
 62
5
100
AcDbSpline
 70
8
 71
3
 72
8
 73
4
 74
0
 40
0
 40
0
 40
0
 40
0
 40
1
 40
1
 40
1
 40
1
 10
4983.443840
 20
2178.931523
 30
0.0
 10
4987.325440
 20
2191.863283
 30
0.0
 10
4988.274480
 20
2199.406483
 30
0.0
 10
4988.271280
 20
2217.304643
 30
0.0
  0
SPLINE
  5
25d
100
AcDbEntity
  8
large_holes_inside_cut
 62
5
100
AcDbSpline
 70
8
 71
3
 72
8
 73
4
 74
0
 40
0
 40
0
 40
0
 40
0
 40
1
 40
1
 40
1
 40
1
 10
4988.271280
 20
2217.304643
 30
0.0
 10
4988.262480
 20
2240.147843
 30
0.0
 10
4985.735600
 20
2253.332243
 30
0.0
 10
4978.046080
 20
2270.559603
 30
0.0
  0
SPLINE
  5
25e
100
AcDbEntity
  8
large_holes_inside_cut
 62
5
100
AcDbSpline
 70
8
 71
3
 72
8
 73
4
 74
0
 40
0
 40
0
 40
0
 40
0
 40
1
 40
1
 40
1
 40
1
 10
4978.046080
 20
2270.559603
 30
0.0
 10
4967.982960
 20
2293.104963
 30
0.0
 10
4953.691200
 20
2309.961763
 30
0.0
 10
4918.863360
 20
2340.363603
 30
0.0
  0
SPLINE
  5
25f
100
AcDbEntity
  8
large_holes_inside_cut
 62
5
100
AcDbSpline
 70
8
 71
3
 72
8
 73
4
 74
0
 40
0
 40
0
 40
0
 40
0
 40
1
 40
1
 40
1
 40
1
 10
4918.863360
 20
2340.363603
 30
0.0
 10
4890.456000
 20
2365.160643
 30
0.0
 10
4880.144240
 20
2378.424643
 30
0.0
 10
4875.212800
 20
2396.510003
 30
0.0
  0
SPLINE
  5
260
100
AcDbEntity
  8
large_holes_inside_cut
 62
5
100
AcDbSpline
 70
8
 71
3
 72
8
 73
4
 74
0
 40
0
 40
0
 40
0
 40
0
 40
1
 40
1
 40
1
 40
1
 10
4875.212800
 20
2396.510003
 30
0.0
 10
4872.916720
 20
2404.930563
 30
0.0
 10
4872.736960
 20
2419.981123
 30
0.0
 10
4874.816880
 20
2429.710963
 30
0.0
  0
SPLINE
  5
261
100
AcDbEntity
  8
large_holes_inside_cut
 62
5
100
AcDbSpline
 70
8
 71
3
 72
8
 73
4
 74
0
 40
0
 40
0
 40
0
 40
0
 40
1
 40
1
 40
1
 40
1
 10
4874.816880
 20
2429.710963
 30
0.0
 10
4883.605040
 20
2470.824883
 30
0.0
 10
4918.356080
 20
2521.377443
 30
0.0
 10
4977.153920
 20
2578.581603
 30
0.0
  0
SPLINE
  5
262
100
AcDbEntity
  8
large_holes_inside_cut
 62
5
100
AcDbSpline
 70
8
 71
3
 72
8
 73
4
 74
0
 40
0
 40
0
 40
0
 40
0
 40
1
 40
1
 40
1
 40
1
 10
4977.153920
 20
2578.581603
 30
0.0
 10
5084.339520
 20
2682.861843
 30
0.0
 10
5250.028080
 20
2784.661363
 30
0.0
 10
5434.365760
 20
2859.493763
 30
0.0
  0
SPLINE
  5
263
100
AcDbEntity
  8
large_holes_inside_cut
 62
5
100
AcDbSpline
 70
8
 71
3
 72
8
 73
4
 74
0
 40
0
 40
0
 40
0
 40
0
 40
1
 40
1
 40
1
 40
1
 10
5434.365760
 20
2859.493763
 30
0.0
 10
5606.859120
 20
2929.517923
 30
0.0
 10
5789.883040
 20
2976.521123
 30
0.0
 10
5949.143280
 20
2991.696163
 30
0.0
  0
SPLINE
  5
264
100
AcDbEntity
  8
large_holes_inside_cut
 62
5
100
AcDbSpline
 70
8
 71
3
 72
8
 73
4
 74
0
 40
0
 40
0
 40
0
 40
0
 40
1
 40
1
 40
1
 40
1
 10
5949.143280
 20
2991.696163
 30
0.0
 10
5977.908560
 20
2994.436963
 30
0.0
 10
5996.924640
 20
2995.426243
 30
0.0
 10
6029.486800
 20
2995.875763
 30
0.0
  0
SPLINE
  5
265
100
AcDbEntity
  8
large_holes_inside_cut
 62
5
100
AcDbSpline
 70
8
 71
3
 72
8
 73
4
 74
0
 40
0
 40
0
 40
0
 40
0
 40
1
 40
1
 40
1
 40
1
 10
6029.486800
 20
2995.875763
 30
0.0
 10
6074.049840
 20
2996.490963
 30
0.0
 10
6100.486880
 20
2994.911683
 30
0.0
 10
6132.281760
 20
2989.734963
 30
0.0
  0
SPLINE
  5
266
100
AcDbEntity
  8
large_holes_inside_cut
 62
5
100
AcDbSpline
 70
8
 71
3
 72
8
 73
4
 74
0
 40
0
 40
0
 40
0
 40
0
 40
1
 40
1
 40
1
 40
1
 10
6132.281760
 20
2989.734963
 30
0.0
 10
6176.557280
 20
2982.526163
 30
0.0
 10
6208.529760
 20
2969.608883
 30
0.0
 10
6228.790240
 20
2950.743923
 30
0.0
  0
SPLINE
  5
267
100
AcDbEntity
  8
large_holes_inside_cut
 62
5
100
AcDbSpline
 70
8
 71
3
 72
8
 73
4
 74
0
 40
0
 40
0
 40
0
 40
0
 40
1
 40
1
 40
1
 40
1
 10
6228.790240
 20
2950.743923
 30
0.0
 10
6241.136880
 20
2939.247843
 30
0.0
 10
6248.563440
 20
2926.896003
 30
0.0
 10
6251.902720
 20
2912.303443
 30
0.0
  0
SPLINE
  5
268
100
AcDbEntity
  8
large_holes_inside_cut
 62
5
100
AcDbSpline
 70
8
 71
3
 72
8
 73
4
 74
0
 40
0
 40
0
 40
0
 40
0
 40
1
 40
1
 40
1
 40
1
 10
6251.902720
 20
2912.303443
 30
0.0
 10
6253.472960
 20
2905.441603
 30
0.0
 10
6253.500160
 20
2893.791443
 30
0.0
 10
6253.521200
 20
2217.884403
 30
0.0
  0
SPLINE
  5
269
100
AcDbEntity
  8
large_holes_inside_cut
 62
5
100
AcDbSpline
 70
8
 71
3
 72
8
 73
4
 74
0
 40
0
 40
0
 40
0
 40
0
 40
1
 40
1
 40
1
 40
1
 10
6253.521200
 20
2217.884403
 30
0.0
 10
6253.542000
 20
1605.124723
 30
0.0
 10
6253.405760
 20
1529.802803
 30
0.0
 10
6252.280800
 20
1524.542323
 30
0.0
  0
SPLINE
  5
26a
100
AcDbEntity
  8
large_holes_inside_cut
 62
5
100
AcDbSpline
 70
8
 71
3
 72
8
 73
4
 74
0
 40
0
 40
0
 40
0
 40
0
 40
1
 40
1
 40
1
 40
1
 10
6252.280800
 20
1524.542323
 30
0.0
 10
6248.737840
 20
1507.975043
 30
0.0
 10
6240.586960
 20
1494.294803
 30
0.0
 10
6227.191360
 20
1482.432083
 30
0.0
  0
SPLINE
  5
26b
100
AcDbEntity
  8
large_holes_inside_cut
 62
5
100
AcDbSpline
 70
8
 71
3
 72
8
 73
4
 74
0
 40
0
 40
0
 40
0
 40
0
 40
1
 40
1
 40
1
 40
1
 10
6197.180400
 20
1463.786003
 30
0.0
 10
6169.827920
 20
1451.094403
 30
0.0
 10
6135.737280
 20
1443.720803
 30
0.0
 10
6087.466480
 20
1440.054963
 30
0.0
  0
SPLINE
  5
26c
100
AcDbEntity
  8
large_holes_inside_cut
 62
5
100
AcDbSpline
 70
8
 71
3
 72
8
 73
4
 74
0
 40
0
 40
0
 40
0
 40
0
 40
1
 40
1
 40
1
 40
1
 10
6087.466480
 20
1440.054963
 30
0.0
 10
6076.497600
 20
1439.222083
 30
0.0
 10
6025.107280
 20
1438.448163
 30
0.0
 10
6014.577600
 20
1438.957603
 30
0.0
  0
SPLINE
  5
26d
100
AcDbEntity
  8
large_holes_inside_cut
 62
5
100
AcDbSpline
 70
8
 71
3
 72
8
 73
4
 74
0
 40
0
 40
0
 40
0
 40
0
 40
1
 40
1
 40
1
 40
1
 10
6014.577600
 20
1438.957603
 30
0.0
 10
6011.388800
 20
1439.111683
 30
0.0
 10
6001.511600
 20
1439.625923
 30
0.0
 10
5992.628080
 20
1440.100083
 30
0.0
  0
SPLINE
  5
26e
100
AcDbEntity
  8
large_holes_inside_cut
 62
5
100
AcDbSpline
 70
8
 71
3
 72
8
 73
4
 74
0
 40
0
 40
0
 40
0
 40
0
 40
1
 40
1
 40
1
 40
1
 10
6227.191360
 20
1482.432083
 30
0.0
 10
6219.446880
 20
1475.573923
 30
0.0
 10
6210.189760
 20
1469.822083
 30
0.0
 10
6197.180400
 20
1463.786003
 30
0.0
  0
LWPOLYLINE
  5
26f
100
AcDbEntity
  8
large_holes_inside_cut
 62
5
100
AcDbPolyline
 90
4
 70
1
 10
3121.756320
 20
2013.844483
 30
0.0
 10
3121.756320
 20
2013.844483
 30
0.0
 10
3121.756320
 20
2013.844483
 30
0.0
 10
3121.756320
 20
2013.844483
 30
0.0
  0
LWPOLYLINE
  5
270
100
AcDbEntity
  8
large_holes_inside_cut
 62
5
100
AcDbPolyline
 90
4
 70
1
 10
6014.577600
 20
1438.957603
 30
0.0
 10
6014.577600
 20
1438.957603
 30
0.0
 10
6014.577600
 20
1438.957603
 30
0.0
 10
6014.577600
 20
1438.957603
 30
0.0
  0
SPLINE
  5
271
100
AcDbEntity
  8
small_holes_inside_cut
 62
6
100
AcDbSpline
 70
8
 71
3
 72
8
 73
4
 74
0
 40
0
 40
0
 40
0
 40
0
 40
1
 40
1
 40
1
 40
1
 10
2136.840400
 20
2822.168683
 30
0.0
 10
2132.984394
 20
2826.052454
 30
0.0
 10
2133.001644
 20
2832.325181
 30
0.0
 10
2136.878954
 20
2836.187685
 30
0.0
  0
SPLINE
  5
272
100
AcDbEntity
  8
small_holes_inside_cut
 62
6
100
AcDbSpline
 70
8
 71
3
 72
8
 73
4
 74
0
 40
0
 40
0
 40
0
 40
0
 40
1
 40
1
 40
1
 40
1
 10
2136.878954
 20
2836.187685
 30
0.0
 10
2140.756263
 20
2840.050188
 30
0.0
 10
2147.029010
 20
2840.043440
 30
0.0
 10
2150.898000
 20
2836.172603
 30
0.0
  0
LWPOLYLINE
  5
273
100
AcDbEntity
  8
small_holes_inside_cut
 62
6
100
AcDbPolyline
 90
2
 70
1
 10
2136.840400
 20
2566.738323
 30
0.0
 10
2136.840400
 20
2822.168683
 30
0.0
  0
SPLINE
  5
274
100
AcDbEntity
  8
small_holes_inside_cut
 62
6
100
AcDbSpline
 70
8
 71
3
 72
8
 73
4
 74
0
 40
0
 40
0
 40
0
 40
0
 40
1
 40
1
 40
1
 40
1
 10
2173.717600
 20
2836.172603
 30
0.0
 10
2177.564194
 20
2840.017982
 30
0.0
 10
2183.789702
 20
2840.049422
 30
0.0
 10
2187.674938
 20
2836.243090
 30
0.0
  0
SPLINE
  5
275
100
AcDbEntity
  8
small_holes_inside_cut
 62
6
100
AcDbSpline
 70
8
 71
3
 72
8
 73
4
 74
0
 40
0
 40
0
 40
0
 40
0
 40
1
 40
1
 40
1
 40
1
 10
2187.674938
 20
2836.243090
 30
0.0
 10
2191.560175
 20
2832.436758
 30
0.0
 10
2191.656457
 20
2826.211915
 30
0.0
 10
2187.890800
 20
2822.287243
 30
0.0
  0
LWPOLYLINE
  5
276
100
AcDbEntity
  8
small_holes_inside_cut
 62
6
100
AcDbPolyline
 90
2
 70
1
 10
2150.898000
 20
2836.172603
 30
0.0
 10
2173.717600
 20
2836.172603
 30
0.0
  0
SPLINE
  5
277
100
AcDbEntity
  8
small_holes_inside_cut
 62
6
100
AcDbSpline
 70
8
 71
3
 72
8
 73
4
 74
0
 40
0
 40
0
 40
0
 40
0
 40
1
 40
1
 40
1
 40
1
 10
2187.890800
 20
2566.738883
 30
0.0
 10
2191.753408
 20
2562.862373
 30
0.0
 10
2191.747783
 20
2556.590310
 30
0.0
 10
2187.878229
 20
2552.720734
 30
0.0
  0
SPLINE
  5
278
100
AcDbEntity
  8
small_holes_inside_cut
 62
6
100
AcDbSpline
 70
8
 71
3
 72
8
 73
4
 74
0
 40
0
 40
0
 40
0
 40
0
 40
1
 40
1
 40
1
 40
1
 10
2187.878229
 20
2552.720734
 30
0.0
 10
2184.008675
 20
2548.851158
 30
0.0
 10
2177.736612
 20
2548.845497
 30
0.0
 10
2173.860080
 20
2552.708083
 30
0.0
  0
SPLINE
  5
279
100
AcDbEntity
  8
small_holes_inside_cut
 62
6
100
AcDbSpline
 70
8
 71
3
 72
8
 73
4
 74
0
 40
0
 40
0
 40
0
 40
0
 40
1
 40
1
 40
1
 40
1
 10
2173.860080
 20
2552.708083
 30
0.0
 10
2173.860080
 20
2552.708083
 30
0.0
 10
2150.747920
 20
2552.708083
 30
0.0
 10
2150.747920
 20
2552.708083
 30
0.0
  0
SPLINE
  5
27a
100
AcDbEntity
  8
small_holes_inside_cut
 62
6
100
AcDbSpline
 70
8
 71
3
 72
8
 73
4
 74
0
 40
0
 40
0
 40
0
 40
0
 40
1
 40
1
 40
1
 40
1
 10
2150.747920
 20
2552.708083
 30
0.0
 10
2146.868179
 20
2548.900217
 30
0.0
 10
2140.640774
 20
2548.943005
 30
0.0
 10
2136.813725
 20
2552.803824
 30
0.0
  0
SPLINE
  5
27b
100
AcDbEntity
  8
small_holes_inside_cut
 62
6
100
AcDbSpline
 70
8
 71
3
 72
8
 73
4
 74
0
 40
0
 40
0
 40
0
 40
0
 40
1
 40
1
 40
1
 40
1
 10
2136.813725
 20
2552.803824
 30
0.0
 10
2132.986675
 20
2556.664644
 30
0.0
 10
2132.998597
 20
2562.892184
 30
0.0
 10
2136.840400
 20
2566.738323
 30
0.0
  0
LWPOLYLINE
  5
27c
100
AcDbEntity
  8
small_holes_inside_cut
 62
6
100
AcDbPolyline
 90
2
 70
1
 10
2187.890800
 20
2822.287243
 30
0.0
 10
2187.890800
 20
2566.738883
 30
0.0
  0
SPLINE
  5
27d
100
AcDbEntity
  8
small_holes_inside_cut
 62
6
100
AcDbSpline
 70
8
 71
3
 72
8
 73
4
 74
0
 40
0
 40
0
 40
0
 40
0
 40
1
 40
1
 40
1
 40
1
 10
2136.840400
 20
786.552003
 30
0.0
 10
2136.840400
 20
786.552003
 30
0.0
 10
2136.840400
 20
531.121523
 30
0.0
 10
2136.840400
 20
531.121523
 30
0.0
  0
SPLINE
  5
27e
100
AcDbEntity
  8
small_holes_inside_cut
 62
6
100
AcDbSpline
 70
8
 71
3
 72
8
 73
4
 74
0
 40
0
 40
0
 40
0
 40
0
 40
1
 40
1
 40
1
 40
1
 10
2136.840400
 20
531.121523
 30
0.0
 10
2132.984394
 20
527.237752
 30
0.0
 10
2133.001644
 20
520.965025
 30
0.0
 10
2136.878954
 20
517.102522
 30
0.0
  0
SPLINE
  5
27f
100
AcDbEntity
  8
small_holes_inside_cut
 62
6
100
AcDbSpline
 70
8
 71
3
 72
8
 73
4
 74
0
 40
0
 40
0
 40
0
 40
0
 40
1
 40
1
 40
1
 40
1
 10
2136.878954
 20
517.102522
 30
0.0
 10
2140.756263
 20
513.240018
 30
0.0
 10
2147.029010
 20
513.246766
 30
0.0
 10
2150.898000
 20
517.117603
 30
0.0
  0
LWPOLYLINE
  5
280
100
AcDbEntity
  8
small_holes_inside_cut
 62
6
100
AcDbPolyline
 90
2
 70
1
 10
2136.840400
 20
2566.738323
 30
0.0
 10
2136.840400
 20
2566.738323
 30
0.0
  0
SPLINE
  5
281
100
AcDbEntity
  8
small_holes_inside_cut
 62
6
100
AcDbSpline
 70
8
 71
3
 72
8
 73
4
 74
0
 40
0
 40
0
 40
0
 40
0
 40
1
 40
1
 40
1
 40
1
 10
2173.717600
 20
517.117603
 30
0.0
 10
2177.564185
 20
513.272173
 30
0.0
 10
2183.789734
 20
513.240709
 30
0.0
 10
2187.674991
 20
517.047062
 30
0.0
  0
SPLINE
  5
282
100
AcDbEntity
  8
small_holes_inside_cut
 62
6
100
AcDbSpline
 70
8
 71
3
 72
8
 73
4
 74
0
 40
0
 40
0
 40
0
 40
0
 40
1
 40
1
 40
1
 40
1
 10
2187.674991
 20
517.047062
 30
0.0
 10
2191.560249
 20
520.853415
 30
0.0
 10
2191.656508
 20
527.078299
 30
0.0
 10
2187.890800
 20
531.002963
 30
0.0
  0
SPLINE
  5
283
100
AcDbEntity
  8
small_holes_inside_cut
 62
6
100
AcDbSpline
 70
8
 71
3
 72
8
 73
4
 74
0
 40
0
 40
0
 40
0
 40
0
 40
1
 40
1
 40
1
 40
1
 10
2187.890800
 20
531.002963
 30
0.0
 10
2187.890800
 20
531.002963
 30
0.0
 10
2187.890800
 20
786.551363
 30
0.0
 10
2187.890800
 20
786.551363
 30
0.0
  0
SPLINE
  5
284
100
AcDbEntity
  8
small_holes_inside_cut
 62
6
100
AcDbSpline
 70
8
 71
3
 72
8
 73
4
 74
0
 40
0
 40
0
 40
0
 40
0
 40
1
 40
1
 40
1
 40
1
 10
2187.890800
 20
786.551363
 30
0.0
 10
2191.754015
 20
790.427770
 30
0.0
 10
2191.748679
 20
796.700329
 30
0.0
 10
2187.878873
 20
800.570156
 30
0.0
  0
SPLINE
  5
285
100
AcDbEntity
  8
small_holes_inside_cut
 62
6
100
AcDbSpline
 70
8
 71
3
 72
8
 73
4
 74
0
 40
0
 40
0
 40
0
 40
0
 40
1
 40
1
 40
1
 40
1
 10
2187.878873
 20
800.570156
 30
0.0
 10
2184.009068
 20
804.439984
 30
0.0
 10
2177.736509
 20
804.445356
 30
0.0
 10
2173.860080
 20
800.582163
 30
0.0
  0
LWPOLYLINE
  5
286
100
AcDbEntity
  8
small_holes_inside_cut
 62
6
100
AcDbPolyline
 90
2
 70
1
 10
2150.898000
 20
517.117603
 30
0.0
 10
2173.717600
 20
517.117603
 30
0.0
  0
SPLINE
  5
287
100
AcDbEntity
  8
small_holes_inside_cut
 62
6
100
AcDbSpline
 70
8
 71
3
 72
8
 73
4
 74
0
 40
0
 40
0
 40
0
 40
0
 40
1
 40
1
 40
1
 40
1
 10
2150.747920
 20
800.582163
 30
0.0
 10
2146.869269
 20
804.396521
 30
0.0
 10
2140.636573
 20
804.356796
 30
0.0
 10
2136.806857
 20
800.493309
 30
0.0
  0
SPLINE
  5
288
100
AcDbEntity
  8
small_holes_inside_cut
 62
6
100
AcDbSpline
 70
8
 71
3
 72
8
 73
4
 74
0
 40
0
 40
0
 40
0
 40
0
 40
1
 40
1
 40
1
 40
1
 10
2136.806857
 20
800.493309
 30
0.0
 10
2132.977141
 20
796.629821
 30
0.0
 10
2132.992137
 20
790.397017
 30
0.0
 10
2136.840400
 20
786.552003
 30
0.0
  0
LWPOLYLINE
  5
289
100
AcDbEntity
  8
small_holes_inside_cut
 62
6
100
AcDbPolyline
 90
2
 70
1
 10
2173.860080
 20
800.582163
 30
0.0
 10
2150.747920
 20
800.582163
 30
0.0
  0
SPLINE
  5
28a
100
AcDbEntity
  8
small_holes_inside_cut
 62
6
100
AcDbSpline
 70
8
 71
3
 72
8
 73
4
 74
0
 40
0
 40
0
 40
0
 40
0
 40
1
 40
1
 40
1
 40
1
 10
464.453008
 20
786.552003
 30
0.0
 10
464.453008
 20
786.552003
 30
0.0
 10
464.453008
 20
531.121523
 30
0.0
 10
464.453008
 20
531.121523
 30
0.0
  0
SPLINE
  5
28b
100
AcDbEntity
  8
small_holes_inside_cut
 62
6
100
AcDbSpline
 70
8
 71
3
 72
8
 73
4
 74
0
 40
0
 40
0
 40
0
 40
0
 40
1
 40
1
 40
1
 40
1
 10
464.453008
 20
531.121523
 30
0.0
 10
468.309014
 20
527.237752
 30
0.0
 10
468.291764
 20
520.965025
 30
0.0
 10
464.414454
 20
517.102522
 30
0.0
  0
SPLINE
  5
28c
100
AcDbEntity
  8
small_holes_inside_cut
 62
6
100
AcDbSpline
 70
8
 71
3
 72
8
 73
4
 74
0
 40
0
 40
0
 40
0
 40
0
 40
1
 40
1
 40
1
 40
1
 10
464.414454
 20
517.102522
 30
0.0
 10
460.537145
 20
513.240018
 30
0.0
 10
454.264398
 20
513.246766
 30
0.0
 10
450.395408
 20
517.117603
 30
0.0
  0
SPLINE
  5
28d
100
AcDbEntity
  8
small_holes_inside_cut
 62
6
100
AcDbSpline
 70
8
 71
3
 72
8
 73
4
 74
0
 40
0
 40
0
 40
0
 40
0
 40
1
 40
1
 40
1
 40
1
 10
450.395408
 20
517.117603
 30
0.0
 10
450.395408
 20
517.117603
 30
0.0
 10
427.575808
 20
517.117603
 30
0.0
 10
427.575808
 20
517.117603
 30
0.0
  0
SPLINE
  5
28e
100
AcDbEntity
  8
small_holes_inside_cut
 62
6
100
AcDbSpline
 70
8
 71
3
 72
8
 73
4
 74
0
 40
0
 40
0
 40
0
 40
0
 40
1
 40
1
 40
1
 40
1
 10
427.575808
 20
517.117603
 30
0.0
 10
423.729214
 20
513.272224
 30
0.0
 10
417.503706
 20
513.240784
 30
0.0
 10
413.618470
 20
517.047116
 30
0.0
  0
SPLINE
  5
28f
100
AcDbEntity
  8
small_holes_inside_cut
 62
6
100
AcDbSpline
 70
8
 71
3
 72
8
 73
4
 74
0
 40
0
 40
0
 40
0
 40
0
 40
1
 40
1
 40
1
 40
1
 10
413.618470
 20
517.047116
 30
0.0
 10
409.733233
 20
520.853448
 30
0.0
 10
409.636951
 20
527.078291
 30
0.0
 10
413.402608
 20
531.002963
 30
0.0
  0
SPLINE
  5
290
100
AcDbEntity
  8
small_holes_inside_cut
 62
6
100
AcDbSpline
 70
8
 71
3
 72
8
 73
4
 74
0
 40
0
 40
0
 40
0
 40
0
 40
1
 40
1
 40
1
 40
1
 10
413.402608
 20
531.002963
 30
0.0
 10
413.402608
 20
531.002963
 30
0.0
 10
413.402608
 20
786.551363
 30
0.0
 10
413.402608
 20
786.551363
 30
0.0
  0
SPLINE
  5
291
100
AcDbEntity
  8
small_holes_inside_cut
 62
6
100
AcDbSpline
 70
8
 71
3
 72
8
 73
4
 74
0
 40
0
 40
0
 40
0
 40
0
 40
1
 40
1
 40
1
 40
1
 10
413.402608
 20
786.551363
 30
0.0
 10
409.539393
 20
790.427770
 30
0.0
 10
409.544729
 20
796.700329
 30
0.0
 10
413.414535
 20
800.570156
 30
0.0
  0
SPLINE
  5
292
100
AcDbEntity
  8
small_holes_inside_cut
 62
6
100
AcDbSpline
 70
8
 71
3
 72
8
 73
4
 74
0
 40
0
 40
0
 40
0
 40
0
 40
1
 40
1
 40
1
 40
1
 10
413.414535
 20
800.570156
 30
0.0
 10
417.284340
 20
804.439984
 30
0.0
 10
423.556899
 20
804.445356
 30
0.0
 10
427.433328
 20
800.582163
 30
0.0
  0
SPLINE
  5
293
100
AcDbEntity
  8
small_holes_inside_cut
 62
6
100
AcDbSpline
 70
8
 71
3
 72
8
 73
4
 74
0
 40
0
 40
0
 40
0
 40
0
 40
1
 40
1
 40
1
 40
1
 10
427.433328
 20
800.582163
 30
0.0
 10
427.433328
 20
800.582163
 30
0.0
 10
450.545408
 20
800.582163
 30
0.0
 10
450.545408
 20
800.582163
 30
0.0
  0
SPLINE
  5
294
100
AcDbEntity
  8
small_holes_inside_cut
 62
6
100
AcDbSpline
 70
8
 71
3
 72
8
 73
4
 74
0
 40
0
 40
0
 40
0
 40
0
 40
1
 40
1
 40
1
 40
1
 10
450.545408
 20
800.582163
 30
0.0
 10
454.423138
 20
804.402130
 30
0.0
 10
460.660422
 20
804.365047
 30
0.0
 10
464.492457
 20
800.499242
 30
0.0
  0
SPLINE
  5
295
100
AcDbEntity
  8
small_holes_inside_cut
 62
6
100
AcDbSpline
 70
8
 71
3
 72
8
 73
4
 74
0
 40
0
 40
0
 40
0
 40
0
 40
1
 40
1
 40
1
 40
1
 10
464.492457
 20
800.499242
 30
0.0
 10
468.324491
 20
796.633438
 30
0.0
 10
468.306849
 20
790.396069
 30
0.0
 10
464.453008
 20
786.552003
 30
0.0
  0
LWPOLYLINE
  5
296
100
AcDbEntity
  8
small_holes_inside_cut
 62
6
100
AcDbPolyline
 90
2
 70
1
 10
2136.840400
 20
786.552003
 30
0.0
 10
2136.840400
 20
786.552003
 30
0.0
  0
LWPOLYLINE
  5
297
100
AcDbEntity
  8
small_holes_inside_cut
 62
6
100
AcDbPolyline
 90
2
 70
1
 10
464.453008
 20
786.552003
 30
0.0
 10
464.453008
 20
786.552003
 30
0.0
  0
SPLINE
  5
298
100
AcDbEntity
  8
small_holes_inside_cut
 62
6
100
AcDbSpline
 70
8
 71
3
 72
8
 73
4
 74
0
 40
0
 40
0
 40
0
 40
0
 40
1
 40
1
 40
1
 40
1
 10
464.453008
 20
2822.168683
 30
0.0
 10
468.309014
 20
2826.052454
 30
0.0
 10
468.291764
 20
2832.325181
 30
0.0
 10
464.414454
 20
2836.187685
 30
0.0
  0
SPLINE
  5
299
100
AcDbEntity
  8
small_holes_inside_cut
 62
6
100
AcDbSpline
 70
8
 71
3
 72
8
 73
4
 74
0
 40
0
 40
0
 40
0
 40
0
 40
1
 40
1
 40
1
 40
1
 10
464.414454
 20
2836.187685
 30
0.0
 10
460.537145
 20
2840.050188
 30
0.0
 10
454.264398
 20
2840.043440
 30
0.0
 10
450.395408
 20
2836.172603
 30
0.0
  0
LWPOLYLINE
  5
29a
100
AcDbEntity
  8
small_holes_inside_cut
 62
6
100
AcDbPolyline
 90
2
 70
0
 10
450.545408
 20
2552.708083
 30
0.0
 10
427.433328
 20
2552.708083
 30
0.0
  0
SPLINE
  5
29b
100
AcDbEntity
  8
small_holes_inside_cut
 62
6
100
AcDbSpline
 70
8
 71
3
 72
8
 73
4
 74
0
 40
0
 40
0
 40
0
 40
0
 40
1
 40
1
 40
1
 40
1
 10
450.483808
 20
2552.769203
 30
0.0
 10
454.360215
 20
2548.905988
 30
0.0
 10
460.632774
 20
2548.911324
 30
0.0
 10
464.502601
 20
2552.781130
 30
0.0
  0
SPLINE
  5
29c
100
AcDbEntity
  8
small_holes_inside_cut
 62
6
100
AcDbSpline
 70
8
 71
3
 72
8
 73
4
 74
0
 40
0
 40
0
 40
0
 40
0
 40
1
 40
1
 40
1
 40
1
 10
464.502601
 20
2552.781130
 30
0.0
 10
468.372429
 20
2556.650935
 30
0.0
 10
468.377801
 20
2562.923494
 30
0.0
 10
464.514608
 20
2566.799923
 30
0.0
  0
LWPOLYLINE
  5
29d
100
AcDbEntity
  8
small_holes_inside_cut
 62
6
100
AcDbPolyline
 90
2
 70
0
 10
464.453008
 20
2552.830723
 30
0.0
 10
464.514608
 20
2552.769123
 30
0.0
  0
LWPOLYLINE
  5
29e
100
AcDbEntity
  8
small_holes_inside_cut
 62
6
100
AcDbPolyline
 90
2
 70
0
 10
427.575808
 20
2836.172603
 30
0.0
 10
450.395408
 20
2836.172603
 30
0.0
  0
LWPOLYLINE
  5
29f
100
AcDbEntity
  8
small_holes_inside_cut
 62
6
100
AcDbPolyline
 90
2
 70
0
 10
413.402608
 20
2566.738883
 30
0.0
 10
413.402608
 20
2822.287243
 30
0.0
  0
LWPOLYLINE
  5
2a0
100
AcDbEntity
  8
small_holes_inside_cut
 62
6
100
AcDbPolyline
 90
2
 70
0
 10
464.514608
 20
2566.799923
 30
0.0
 10
464.453008
 20
2566.738323
 30
0.0
  0
SPLINE
  5
2a1
100
AcDbEntity
  8
small_holes_inside_cut
 62
6
100
AcDbSpline
 70
8
 71
3
 72
8
 73
4
 74
0
 40
0
 40
0
 40
0
 40
0
 40
1
 40
1
 40
1
 40
1
 10
413.402608
 20
2566.738883
 30
0.0
 10
409.539393
 20
2562.862477
 30
0.0
 10
409.544729
 20
2556.589917
 30
0.0
 10
413.414535
 20
2552.720090
 30
0.0
  0
SPLINE
  5
2a2
100
AcDbEntity
  8
small_holes_inside_cut
 62
6
100
AcDbSpline
 70
8
 71
3
 72
8
 73
4
 74
0
 40
0
 40
0
 40
0
 40
0
 40
1
 40
1
 40
1
 40
1
 10
413.414535
 20
2552.720090
 30
0.0
 10
417.284340
 20
2548.850262
 30
0.0
 10
423.556899
 20
2548.844890
 30
0.0
 10
427.433328
 20
2552.708083
 30
0.0
  0
SPLINE
  5
2a3
100
AcDbEntity
  8
small_holes_inside_cut
 62
6
100
AcDbSpline
 70
8
 71
3
 72
8
 73
4
 74
0
 40
0
 40
0
 40
0
 40
0
 40
1
 40
1
 40
1
 40
1
 10
427.575808
 20
2836.172603
 30
0.0
 10
423.739228
 20
2840.074070
 30
0.0
 10
417.468165
 20
2840.132528
 30
0.0
 10
413.559519
 20
2836.303263
 30
0.0
  0
SPLINE
  5
2a4
100
AcDbEntity
  8
small_holes_inside_cut
 62
6
100
AcDbSpline
 70
8
 71
3
 72
8
 73
4
 74
0
 40
0
 40
0
 40
0
 40
0
 40
1
 40
1
 40
1
 40
1
 10
413.559519
 20
2836.303263
 30
0.0
 10
409.650874
 20
2832.473997
 30
0.0
 10
409.580670
 20
2826.203054
 30
0.0
 10
413.402608
 20
2822.287243
 30
0.0
  0
LWPOLYLINE
  5
2a5
100
AcDbEntity
  8
small_holes_inside_cut
 62
6
100
AcDbPolyline
 90
2
 70
0
 10
464.453008
 20
2552.830723
 30
0.0
 10
464.453008
 20
2552.708083
 30
0.0
  0
LWPOLYLINE
  5
2a6
100
AcDbEntity
  8
small_holes_inside_cut
 62
6
100
AcDbPolyline
 90
2
 70
0
 10
464.453008
 20
2822.168683
 30
0.0
 10
464.453008
 20
2566.738323
 30
0.0
  0
LWPOLYLINE
  5
2a7
100
AcDbEntity
  8
small_holes_inside_cut
 62
6
100
AcDbPolyline
 90
4
 70
1
 10
3312.717280
 20
2125.059923
 30
0.0
 10
3312.717280
 20
2125.059923
 30
0.0
 10
3312.717280
 20
2125.059923
 30
0.0
 10
3312.717280
 20
2125.059923
 30
0.0
  0
SPLINE
  5
2a8
100
AcDbEntity
  8
small_holes_inside_cut
 62
6
100
AcDbSpline
 70
8
 71
3
 72
8
 73
4
 74
0
 40
0
 40
0
 40
0
 40
0
 40
1
 40
1
 40
1
 40
1
 10
4287.586800
 20
1275.834883
 30
0.0
 10
4280.096720
 20
1274.135923
 30
0.0
 10
4273.256000
 20
1270.065363
 30
0.0
 10
4267.710240
 20
1264.813763
 30
0.0
  0
SPLINE
  5
2a9
100
AcDbEntity
  8
small_holes_inside_cut
 62
6
100
AcDbSpline
 70
8
 71
3
 72
8
 73
4
 74
0
 40
0
 40
0
 40
0
 40
0
 40
1
 40
1
 40
1
 40
1
 10
4267.710240
 20
1264.813763
 30
0.0
 10
4256.853680
 20
1254.823443
 30
0.0
 10
4251.941040
 20
1238.704563
 30
0.0
 10
4256.164640
 20
1224.464083
 30
0.0
  0
SPLINE
  5
2aa
100
AcDbEntity
  8
small_holes_inside_cut
 62
6
100
AcDbSpline
 70
8
 71
3
 72
8
 73
4
 74
0
 40
0
 40
0
 40
0
 40
0
 40
1
 40
1
 40
1
 40
1
 10
4256.164640
 20
1224.464083
 30
0.0
 10
4258.160320
 20
1217.350643
 30
0.0
 10
4262.189520
 20
1210.871443
 30
0.0
 10
4267.503920
 20
1205.760483
 30
0.0
  0
SPLINE
  5
2ab
100
AcDbEntity
  8
small_holes_inside_cut
 62
6
100
AcDbSpline
 70
8
 71
3
 72
8
 73
4
 74
0
 40
0
 40
0
 40
0
 40
0
 40
1
 40
1
 40
1
 40
1
 10
4267.503920
 20
1205.760483
 30
0.0
 10
4279.681440
 20
1193.632643
 30
0.0
 10
4299.262560
 20
1190.220243
 30
0.0
 10
4314.953920
 20
1197.066883
 30
0.0
  0
SPLINE
  5
2ac
100
AcDbEntity
  8
small_holes_inside_cut
 62
6
100
AcDbSpline
 70
8
 71
3
 72
8
 73
4
 74
0
 40
0
 40
0
 40
0
 40
0
 40
1
 40
1
 40
1
 40
1
 10
4314.953920
 20
1197.066883
 30
0.0
 10
4324.202960
 20
1200.933603
 30
0.0
 10
4331.968480
 20
1208.143123
 30
0.0
 10
4336.484640
 20
1217.096803
 30
0.0
  0
SPLINE
  5
2ad
100
AcDbEntity
  8
small_holes_inside_cut
 62
6
100
AcDbSpline
 70
8
 71
3
 72
8
 73
4
 74
0
 40
0
 40
0
 40
0
 40
0
 40
1
 40
1
 40
1
 40
1
 10
4336.484640
 20
1217.096803
 30
0.0
 10
4343.690000
 20
1230.638723
 30
0.0
 10
4341.973600
 20
1248.137363
 30
0.0
 10
4332.510960
 20
1260.161683
 30
0.0
  0
SPLINE
  5
2ae
100
AcDbEntity
  8
small_holes_inside_cut
 62
6
100
AcDbSpline
 70
8
 71
3
 72
8
 73
4
 74
0
 40
0
 40
0
 40
0
 40
0
 40
1
 40
1
 40
1
 40
1
 10
4332.510960
 20
1260.161683
 30
0.0
 10
4326.770720
 20
1267.712963
 30
0.0
 10
4318.411360
 20
1273.123843
 30
0.0
 10
4309.254320
 20
1275.522723
 30
0.0
  0
SPLINE
  5
2af
100
AcDbEntity
  8
small_holes_inside_cut
 62
6
100
AcDbSpline
 70
8
 71
3
 72
8
 73
4
 74
0
 40
0
 40
0
 40
0
 40
0
 40
1
 40
1
 40
1
 40
1
 10
4309.254320
 20
1275.522723
 30
0.0
 10
4302.185280
 20
1276.893923
 30
0.0
 10
4294.693280
 20
1276.957203
 30
0.0
 10
4287.586800
 20
1275.834883
 30
0.0
  0
LWPOLYLINE
  5
2b0
100
AcDbEntity
  8
small_holes_inside_cut
 62
6
100
AcDbPolyline
 90
4
 70
1
 10
3302.972480
 20
399.378403
 30
0.0
 10
3302.972480
 20
399.378403
 30
0.0
 10
3302.972480
 20
399.378403
 30
0.0
 10
3302.972480
 20
399.378403
 30
0.0
  0
SPLINE
  5
2b1
100
AcDbEntity
  8
small_holes_inside_cut
 62
6
100
AcDbSpline
 70
8
 71
3
 72
8
 73
4
 74
0
 40
0
 40
0
 40
0
 40
0
 40
1
 40
1
 40
1
 40
1
 10
4848.747120
 20
2176.967203
 30
0.0
 10
4856.237200
 20
2178.666163
 30
0.0
 10
4863.077920
 20
2182.736723
 30
0.0
 10
4868.623680
 20
2187.988323
 30
0.0
  0
SPLINE
  5
2b2
100
AcDbEntity
  8
small_holes_inside_cut
 62
6
100
AcDbSpline
 70
8
 71
3
 72
8
 73
4
 74
0
 40
0
 40
0
 40
0
 40
0
 40
1
 40
1
 40
1
 40
1
 10
4868.623680
 20
2187.988323
 30
0.0
 10
4879.480240
 20
2197.978643
 30
0.0
 10
4884.392880
 20
2214.097523
 30
0.0
 10
4880.169280
 20
2228.338003
 30
0.0
  0
SPLINE
  5
2b3
100
AcDbEntity
  8
small_holes_inside_cut
 62
6
100
AcDbSpline
 70
8
 71
3
 72
8
 73
4
 74
0
 40
0
 40
0
 40
0
 40
0
 40
1
 40
1
 40
1
 40
1
 10
4880.169280
 20
2228.338003
 30
0.0
 10
4878.173600
 20
2235.451443
 30
0.0
 10
4874.144400
 20
2241.930643
 30
0.0
 10
4868.830000
 20
2247.041603
 30
0.0
  0
SPLINE
  5
2b4
100
AcDbEntity
  8
small_holes_inside_cut
 62
6
100
AcDbSpline
 70
8
 71
3
 72
8
 73
4
 74
0
 40
0
 40
0
 40
0
 40
0
 40
1
 40
1
 40
1
 40
1
 10
4868.830000
 20
2247.041603
 30
0.0
 10
4856.652480
 20
2259.169443
 30
0.0
 10
4837.071360
 20
2262.581843
 30
0.0
 10
4821.380000
 20
2255.735203
 30
0.0
  0
SPLINE
  5
2b5
100
AcDbEntity
  8
small_holes_inside_cut
 62
6
100
AcDbSpline
 70
8
 71
3
 72
8
 73
4
 74
0
 40
0
 40
0
 40
0
 40
0
 40
1
 40
1
 40
1
 40
1
 10
4821.380000
 20
2255.735203
 30
0.0
 10
4812.130960
 20
2251.868483
 30
0.0
 10
4804.365440
 20
2244.658963
 30
0.0
 10
4799.849280
 20
2235.705283
 30
0.0
  0
SPLINE
  5
2b6
100
AcDbEntity
  8
small_holes_inside_cut
 62
6
100
AcDbSpline
 70
8
 71
3
 72
8
 73
4
 74
0
 40
0
 40
0
 40
0
 40
0
 40
1
 40
1
 40
1
 40
1
 10
4799.849280
 20
2235.705283
 30
0.0
 10
4792.643920
 20
2222.163363
 30
0.0
 10
4794.360320
 20
2204.664723
 30
0.0
 10
4803.822960
 20
2192.640403
 30
0.0
  0
SPLINE
  5
2b7
100
AcDbEntity
  8
small_holes_inside_cut
 62
6
100
AcDbSpline
 70
8
 71
3
 72
8
 73
4
 74
0
 40
0
 40
0
 40
0
 40
0
 40
1
 40
1
 40
1
 40
1
 10
4803.822960
 20
2192.640403
 30
0.0
 10
4809.563200
 20
2185.089123
 30
0.0
 10
4817.922560
 20
2179.678243
 30
0.0
 10
4827.079600
 20
2177.279363
 30
0.0
  0
SPLINE
  5
2b8
100
AcDbEntity
  8
small_holes_inside_cut
 62
6
100
AcDbSpline
 70
8
 71
3
 72
8
 73
4
 74
0
 40
0
 40
0
 40
0
 40
0
 40
1
 40
1
 40
1
 40
1
 10
4827.079600
 20
2177.279363
 30
0.0
 10
4834.148640
 20
2175.908163
 30
0.0
 10
4841.640640
 20
2175.844883
 30
0.0
 10
4848.747120
 20
2176.967203
 30
0.0
  0
LWPOLYLINE
  5
2b9
100
AcDbEntity
  8
small_holes_inside_cut
 62
6
100
AcDbPolyline
 90
4
 70
1
 10
4287.586800
 20
1275.834883
 30
0.0
 10
4287.586800
 20
1275.834883
 30
0.0
 10
4287.586800
 20
1275.834883
 30
0.0
 10
4287.586800
 20
1275.834883
 30
0.0
  0
LWPOLYLINE
  5
2ba
100
AcDbEntity
  8
small_holes_inside_cut
 62
6
100
AcDbPolyline
 90
4
 70
1
 10
4848.747120
 20
2176.967203
 30
0.0
 10
4848.747120
 20
2176.967203
 30
0.0
 10
4848.747120
 20
2176.967203
 30
0.0
 10
4848.747120
 20
2176.967203
 30
0.0
  0
SPLINE
  5
2bb
100
AcDbEntity
  8
small_holes_inside_cut
 62
6
100
AcDbSpline
 70
8
 71
3
 72
8
 73
4
 74
0
 40
0
 40
0
 40
0
 40
0
 40
1
 40
1
 40
1
 40
1
 10
3316.443920
 20
2084.997523
 30
0.0
 10
3320.455600
 20
2081.117443
 30
0.0
 10
3320.455040
 20
2074.827843
 30
0.0
 10
3316.443920
 20
2070.948403
 30
0.0
  0
SPLINE
  5
2bc
100
AcDbEntity
  8
small_holes_inside_cut
 62
6
100
AcDbSpline
 70
8
 71
3
 72
8
 73
4
 74
0
 40
0
 40
0
 40
0
 40
0
 40
1
 40
1
 40
1
 40
1
 10
3316.442720
 20
2070.948403
 30
0.0
 10
3312.430320
 20
2067.069043
 30
0.0
 10
3305.925200
 20
2067.068483
 30
0.0
 10
3301.912160
 20
2070.948403
 30
0.0
  0
LWPOLYLINE
  5
2bd
100
AcDbEntity
  8
small_holes_inside_cut
 62
6
100
AcDbPolyline
 90
4
 70
1
 10
5833.361440
 20
3053.423683
 30
0.0
 10
5833.361440
 20
3053.423683
 30
0.0
 10
5833.361440
 20
3053.423683
 30
0.0
 10
5833.361440
 20
3053.423683
 30
0.0
  0
SPLINE
  5
2be
100
AcDbEntity
  8
small_holes_inside_cut
 62
6
100
AcDbSpline
 70
8
 71
3
 72
8
 73
4
 74
0
 40
0
 40
0
 40
0
 40
0
 40
1
 40
1
 40
1
 40
1
 10
3096.118640
 20
2070.947203
 30
0.0
 10
3092.105440
 20
2067.069283
 30
0.0
 10
3085.600960
 20
2067.070163
 30
0.0
 10
3081.588960
 20
2070.947203
 30
0.0
  0
SPLINE
  5
2bf
100
AcDbEntity
  8
small_holes_inside_cut
 62
6
100
AcDbSpline
 70
8
 71
3
 72
8
 73
4
 74
0
 40
0
 40
0
 40
0
 40
0
 40
1
 40
1
 40
1
 40
1
 10
3081.588960
 20
2070.949283
 30
0.0
 10
3077.576960
 20
2074.828323
 30
0.0
 10
3077.576000
 20
2081.117363
 30
0.0
 10
3081.588960
 20
2084.997523
 30
0.0
  0
LWPOLYLINE
  5
2c0
100
AcDbEntity
  8
small_holes_inside_cut
 62
6
100
AcDbPolyline
 90
4
 70
1
 10
3316.443920
 20
2107.988963
 30
0.0
 10
3316.443920
 20
2084.997523
 30
0.0
 10
3316.443920
 20
2107.988963
 30
0.0
 10
3316.443920
 20
2107.988963
 30
0.0
  0
SPLINE
  5
2c1
100
AcDbEntity
  8
small_holes_inside_cut
 62
6
100
AcDbSpline
 70
8
 71
3
 72
8
 73
4
 74
0
 40
0
 40
0
 40
0
 40
0
 40
1
 40
1
 40
1
 40
1
 10
3081.586800
 20
2107.988963
 30
0.0
 10
3077.576000
 20
2111.869203
 30
0.0
 10
3077.576960
 20
2118.158163
 30
0.0
 10
3081.586800
 20
2122.037283
 30
0.0
  0
SPLINE
  5
2c2
100
AcDbEntity
  8
small_holes_inside_cut
 62
6
100
AcDbSpline
 70
8
 71
3
 72
8
 73
4
 74
0
 40
0
 40
0
 40
0
 40
0
 40
1
 40
1
 40
1
 40
1
 10
3081.588960
 20
2122.037283
 30
0.0
 10
3085.600960
 20
2125.916323
 30
0.0
 10
3092.105440
 20
2125.917283
 30
0.0
 10
3096.118640
 20
2122.037283
 30
0.0
  0
LWPOLYLINE
  5
2c3
100
AcDbEntity
  8
small_holes_inside_cut
 62
6
100
AcDbPolyline
 90
2
 70
0
 10
3081.586800
 20
2084.997523
 30
0.0
 10
3081.586800
 20
2107.988963
 30
0.0
  0
SPLINE
  5
2c4
100
AcDbEntity
  8
small_holes_inside_cut
 62
6
100
AcDbSpline
 70
8
 71
3
 72
8
 73
4
 74
0
 40
0
 40
0
 40
0
 40
0
 40
1
 40
1
 40
1
 40
1
 10
3301.912160
 20
2122.039283
 30
0.0
 10
3305.925200
 20
2125.918083
 30
0.0
 10
3312.430320
 20
2125.917523
 30
0.0
 10
3316.442720
 20
2122.039283
 30
0.0
  0
SPLINE
  5
2c5
100
AcDbEntity
  8
small_holes_inside_cut
 62
6
100
AcDbSpline
 70
8
 71
3
 72
8
 73
4
 74
0
 40
0
 40
0
 40
0
 40
0
 40
1
 40
1
 40
1
 40
1
 10
3316.442720
 20
2122.038163
 30
0.0
 10
3320.455040
 20
2118.158723
 30
0.0
 10
3320.455600
 20
2111.869043
 30
0.0
 10
3316.442720
 20
2107.988963
 30
0.0
  0
LWPOLYLINE
  5
2c6
100
AcDbEntity
  8
small_holes_inside_cut
 62
6
100
AcDbPolyline
 90
4
 70
1
 10
3301.912160
 20
2070.947203
 30
0.0
 10
3096.118640
 20
2070.947203
 30
0.0
 10
3301.912160
 20
2070.947203
 30
0.0
 10
3301.912160
 20
2070.947203
 30
0.0
  0
LWPOLYLINE
  5
2c7
100
AcDbEntity
  8
small_holes_inside_cut
 62
6
100
AcDbPolyline
 90
4
 70
1
 10
3096.118640
 20
2122.039283
 30
0.0
 10
3301.912160
 20
2122.039283
 30
0.0
 10
3096.118640
 20
2122.039283
 30
0.0
 10
3096.118640
 20
2122.039283
 30
0.0
  0
LWPOLYLINE
  5
2c8
100
AcDbEntity
  8
small_holes_inside_cut
 62
6
100
AcDbPolyline
 90
4
 70
1
 10
3316.443920
 20
2107.988963
 30
0.0
 10
3316.443920
 20
2107.988963
 30
0.0
 10
3316.443920
 20
2107.988963
 30
0.0
 10
3316.443920
 20
2107.988963
 30
0.0
  0
SPLINE
  5
2c9
100
AcDbEntity
  8
small_holes_inside_cut
 62
6
100
AcDbSpline
 70
8
 71
3
 72
8
 73
4
 74
0
 40
0
 40
0
 40
0
 40
0
 40
1
 40
1
 40
1
 40
1
 10
3316.443920
 20
382.211243
 30
0.0
 10
3320.455600
 20
386.091331
 30
0.0
 10
3320.455040
 20
392.380955
 30
0.0
 10
3316.443920
 20
396.260387
 30
0.0
  0
SPLINE
  5
2ca
100
AcDbEntity
  8
small_holes_inside_cut
 62
6
100
AcDbSpline
 70
8
 71
3
 72
8
 73
4
 74
0
 40
0
 40
0
 40
0
 40
0
 40
1
 40
1
 40
1
 40
1
 10
3316.442720
 20
396.260387
 30
0.0
 10
3312.430320
 20
400.139795
 30
0.0
 10
3305.925200
 20
400.140331
 30
0.0
 10
3301.912160
 20
396.260387
 30
0.0
  0
LWPOLYLINE
  5
2cb
100
AcDbEntity
  8
small_holes_inside_cut
 62
6
100
AcDbPolyline
 90
2
 70
0
 10
3096.118640
 20
396.261571
 30
0.0
 10
3301.912160
 20
396.261571
 30
0.0
  0
SPLINE
  5
2cc
100
AcDbEntity
  8
small_holes_inside_cut
 62
6
100
AcDbSpline
 70
8
 71
3
 72
8
 73
4
 74
0
 40
0
 40
0
 40
0
 40
0
 40
1
 40
1
 40
1
 40
1
 10
3301.912160
 20
345.169483
 30
0.0
 10
3304.507840
 20
342.658915
 30
0.0
 10
3308.291760
 20
341.678147
 30
0.0
 10
3311.838240
 20
342.596747
 30
0.0
  0
SPLINE
  5
2cd
100
AcDbEntity
  8
small_holes_inside_cut
 62
6
100
AcDbSpline
 70
8
 71
3
 72
8
 73
4
 74
0
 40
0
 40
0
 40
0
 40
0
 40
1
 40
1
 40
1
 40
1
 10
3311.838240
 20
342.596747
 30
0.0
 10
3315.384640
 20
343.515307
 30
0.0
 10
3318.154800
 20
346.193635
 30
0.0
 10
3319.104800
 20
349.622603
 30
0.0
  0
SPLINE
  5
2ce
100
AcDbEntity
  8
small_holes_inside_cut
 62
6
100
AcDbSpline
 70
8
 71
3
 72
8
 73
4
 74
0
 40
0
 40
0
 40
0
 40
0
 40
1
 40
1
 40
1
 40
1
 10
3319.104800
 20
349.622603
 30
0.0
 10
3320.054880
 20
353.051571
 30
0.0
 10
3319.040800
 20
356.710091
 30
0.0
 10
3316.443920
 20
359.219819
 30
0.0
  0
SPLINE
  5
2cf
100
AcDbEntity
  8
small_holes_inside_cut
 62
6
100
AcDbSpline
 70
8
 71
3
 72
8
 73
4
 74
0
 40
0
 40
0
 40
0
 40
0
 40
1
 40
1
 40
1
 40
1
 10
3081.586800
 20
359.219819
 30
0.0
 10
3078.989680
 20
356.710203
 30
0.0
 10
3077.974960
 20
353.051395
 30
0.0
 10
3078.924960
 20
349.622123
 30
0.0
  0
SPLINE
  5
2d0
100
AcDbEntity
  8
small_holes_inside_cut
 62
6
100
AcDbSpline
 70
8
 71
3
 72
8
 73
4
 74
0
 40
0
 40
0
 40
0
 40
0
 40
1
 40
1
 40
1
 40
1
 10
3078.924960
 20
349.622123
 30
0.0
 10
3079.874880
 20
346.192843
 30
0.0
 10
3082.645280
 20
343.514291
 30
0.0
 10
3086.192080
 20
342.595779
 30
0.0
  0
SPLINE
  5
2d1
100
AcDbEntity
  8
small_holes_inside_cut
 62
6
100
AcDbSpline
 70
8
 71
3
 72
8
 73
4
 74
0
 40
0
 40
0
 40
0
 40
0
 40
1
 40
1
 40
1
 40
1
 10
3086.192080
 20
342.595779
 30
0.0
 10
3089.738880
 20
341.677275
 30
0.0
 10
3093.522960
 20
342.658419
 30
0.0
 10
3096.118640
 20
345.169483
 30
0.0
  0
LWPOLYLINE
  5
2d2
100
AcDbEntity
  8
small_holes_inside_cut
 62
6
100
AcDbPolyline
 90
2
 70
0
 10
3301.912160
 20
345.169483
 30
0.0
 10
3096.118640
 20
345.169483
 30
0.0
  0
SPLINE
  5
2d3
100
AcDbEntity
  8
small_holes_inside_cut
 62
6
100
AcDbSpline
 70
8
 71
3
 72
8
 73
4
 74
0
 40
0
 40
0
 40
0
 40
0
 40
1
 40
1
 40
1
 40
1
 10
3096.118640
 20
396.261571
 30
0.0
 10
3092.105440
 20
400.139539
 30
0.0
 10
3085.600960
 20
400.138603
 30
0.0
 10
3081.588960
 20
396.258371
 30
0.0
  0
SPLINE
  5
2d4
100
AcDbEntity
  8
small_holes_inside_cut
 62
6
100
AcDbSpline
 70
8
 71
3
 72
8
 73
4
 74
0
 40
0
 40
0
 40
0
 40
0
 40
1
 40
1
 40
1
 40
1
 10
3081.588960
 20
396.259507
 30
0.0
 10
3077.576960
 20
392.380443
 30
0.0
 10
3077.576000
 20
386.091467
 30
0.0
 10
3081.588960
 20
382.211243
 30
0.0
  0
LWPOLYLINE
  5
2d5
100
AcDbEntity
  8
small_holes_inside_cut
 62
6
100
AcDbPolyline
 90
2
 70
0
 10
3316.443920
 20
382.211243
 30
0.0
 10
3316.443920
 20
359.219819
 30
0.0
  0
LWPOLYLINE
  5
2d6
100
AcDbEntity
  8
small_holes_inside_cut
 62
6
100
AcDbPolyline
 90
2
 70
0
 10
3081.586800
 20
359.219819
 30
0.0
 10
3081.586800
 20
382.211243
 30
0.0
  0
SPLINE
  5
2d7
100
AcDbEntity
  8
small_holes_inside_cut
 62
6
100
AcDbSpline
 70
8
 71
3
 72
8
 73
4
 74
0
 40
0
 40
0
 40
0
 40
0
 40
1
 40
1
 40
1
 40
1
 10
5819.890000
 20
3070.590803
 30
0.0
 10
5815.878320
 20
3066.710723
 30
0.0
 10
5815.878880
 20
3060.421123
 30
0.0
 10
5819.890000
 20
3056.541683
 30
0.0
  0
SPLINE
  5
2d8
100
AcDbEntity
  8
small_holes_inside_cut
 62
6
100
AcDbSpline
 70
8
 71
3
 72
8
 73
4
 74
0
 40
0
 40
0
 40
0
 40
0
 40
1
 40
1
 40
1
 40
1
 10
5819.891200
 20
3056.541683
 30
0.0
 10
5823.903600
 20
3052.662323
 30
0.0
 10
5830.408720
 20
3052.661763
 30
0.0
 10
5834.421760
 20
3056.541683
 30
0.0
  0
LWPOLYLINE
  5
2d9
100
AcDbEntity
  8
small_holes_inside_cut
 62
6
100
AcDbPolyline
 90
2
 70
0
 10
6040.215280
 20
3056.540483
 30
0.0
 10
5834.421760
 20
3056.540483
 30
0.0
  0
SPLINE
  5
2da
100
AcDbEntity
  8
small_holes_inside_cut
 62
6
100
AcDbSpline
 70
8
 71
3
 72
8
 73
4
 74
0
 40
0
 40
0
 40
0
 40
0
 40
1
 40
1
 40
1
 40
1
 10
5834.421760
 20
3107.632563
 30
0.0
 10
5831.826080
 20
3110.143203
 30
0.0
 10
5828.042160
 20
3111.123923
 30
0.0
 10
5824.495680
 20
3110.205363
 30
0.0
  0
SPLINE
  5
2db
100
AcDbEntity
  8
small_holes_inside_cut
 62
6
100
AcDbSpline
 70
8
 71
3
 72
8
 73
4
 74
0
 40
0
 40
0
 40
0
 40
0
 40
1
 40
1
 40
1
 40
1
 10
5824.495680
 20
3110.205363
 30
0.0
 10
5820.949280
 20
3109.286803
 30
0.0
 10
5818.179120
 20
3106.608483
 30
0.0
 10
5817.229120
 20
3103.179523
 30
0.0
  0
SPLINE
  5
2dc
100
AcDbEntity
  8
small_holes_inside_cut
 62
6
100
AcDbSpline
 70
8
 71
3
 72
8
 73
4
 74
0
 40
0
 40
0
 40
0
 40
0
 40
1
 40
1
 40
1
 40
1
 10
5817.229120
 20
3103.179523
 30
0.0
 10
5816.279040
 20
3099.750483
 30
0.0
 10
5817.293120
 20
3096.092003
 30
0.0
 10
5819.890000
 20
3093.582243
 30
0.0
  0
SPLINE
  5
2dd
100
AcDbEntity
  8
small_holes_inside_cut
 62
6
100
AcDbSpline
 70
8
 71
3
 72
8
 73
4
 74
0
 40
0
 40
0
 40
0
 40
0
 40
1
 40
1
 40
1
 40
1
 10
6054.747120
 20
3093.582243
 30
0.0
 10
6057.344240
 20
3096.091843
 30
0.0
 10
6058.358960
 20
3099.750723
 30
0.0
 10
6057.408960
 20
3103.180003
 30
0.0
  0
SPLINE
  5
2de
100
AcDbEntity
  8
small_holes_inside_cut
 62
6
100
AcDbSpline
 70
8
 71
3
 72
8
 73
4
 74
0
 40
0
 40
0
 40
0
 40
0
 40
1
 40
1
 40
1
 40
1
 10
6057.408960
 20
3103.180003
 30
0.0
 10
6056.459040
 20
3106.609283
 30
0.0
 10
6053.688640
 20
3109.287763
 30
0.0
 10
6050.141840
 20
3110.206323
 30
0.0
  0
SPLINE
  5
2df
100
AcDbEntity
  8
small_holes_inside_cut
 62
6
100
AcDbSpline
 70
8
 71
3
 72
8
 73
4
 74
0
 40
0
 40
0
 40
0
 40
0
 40
1
 40
1
 40
1
 40
1
 10
6050.141840
 20
3110.206323
 30
0.0
 10
6046.595040
 20
3111.124803
 30
0.0
 10
6042.810960
 20
3110.143923
 30
0.0
 10
6040.215280
 20
3107.632563
 30
0.0
  0
LWPOLYLINE
  5
2e0
100
AcDbEntity
  8
small_holes_inside_cut
 62
6
100
AcDbPolyline
 90
2
 70
0
 10
5834.421760
 20
3107.632563
 30
0.0
 10
6040.215280
 20
3107.632563
 30
0.0
  0
SPLINE
  5
2e1
100
AcDbEntity
  8
small_holes_inside_cut
 62
6
100
AcDbSpline
 70
8
 71
3
 72
8
 73
4
 74
0
 40
0
 40
0
 40
0
 40
0
 40
1
 40
1
 40
1
 40
1
 10
6040.215280
 20
3056.540483
 30
0.0
 10
6044.228480
 20
3052.662563
 30
0.0
 10
6050.732960
 20
3052.663443
 30
0.0
 10
6054.744960
 20
3056.540483
 30
0.0
  0
SPLINE
  5
2e2
100
AcDbEntity
  8
small_holes_inside_cut
 62
6
100
AcDbSpline
 70
8
 71
3
 72
8
 73
4
 74
0
 40
0
 40
0
 40
0
 40
0
 40
1
 40
1
 40
1
 40
1
 10
6054.744960
 20
3056.542563
 30
0.0
 10
6058.756960
 20
3060.421603
 30
0.0
 10
6058.757920
 20
3066.710643
 30
0.0
 10
6054.744960
 20
3070.590803
 30
0.0
  0
LWPOLYLINE
  5
2e3
100
AcDbEntity
  8
small_holes_inside_cut
 62
6
100
AcDbPolyline
 90
2
 70
0
 10
5819.890000
 20
3070.590803
 30
0.0
 10
5819.890000
 20
3093.582243
 30
0.0
  0
SPLINE
  5
2e4
100
AcDbEntity
  8
small_holes_inside_cut
 62
6
100
AcDbSpline
 70
8
 71
3
 72
8
 73
4
 74
0
 40
0
 40
0
 40
0
 40
0
 40
1
 40
1
 40
1
 40
1
 10
5819.890000
 20
1367.804523
 30
0.0
 10
5815.878320
 20
1371.684611
 30
0.0
 10
5815.878880
 20
1377.974235
 30
0.0
 10
5819.890000
 20
1381.853667
 30
0.0
  0
SPLINE
  5
2e5
100
AcDbEntity
  8
small_holes_inside_cut
 62
6
100
AcDbSpline
 70
8
 71
3
 72
8
 73
4
 74
0
 40
0
 40
0
 40
0
 40
0
 40
1
 40
1
 40
1
 40
1
 10
5819.891200
 20
1381.853667
 30
0.0
 10
5823.903600
 20
1385.733075
 30
0.0
 10
5830.408720
 20
1385.733611
 30
0.0
 10
5834.421760
 20
1381.853667
 30
0.0
  0
LWPOLYLINE
  5
2e6
100
AcDbEntity
  8
small_holes_inside_cut
 62
6
100
AcDbPolyline
 90
2
 70
0
 10
6054.747120
 20
3093.582243
 30
0.0
 10
6054.747120
 20
3070.590803
 30
0.0
  0
LWPOLYLINE
  5
2e7
100
AcDbEntity
  8
small_holes_inside_cut
 62
6
100
AcDbPolyline
 90
4
 70
1
 10
5819.890000
 20
1344.813099
 30
0.0
 10
5819.890000
 20
1367.804523
 30
0.0
 10
5819.890000
 20
1344.813099
 30
0.0
 10
5819.890000
 20
1344.813099
 30
0.0
  0
SPLINE
  5
2e8
100
AcDbEntity
  8
small_holes_inside_cut
 62
6
100
AcDbSpline
 70
8
 71
3
 72
8
 73
4
 74
0
 40
0
 40
0
 40
0
 40
0
 40
1
 40
1
 40
1
 40
1
 10
5834.421760
 20
1330.762763
 30
0.0
 10
5830.408720
 20
1326.884011
 30
0.0
 10
5823.903600
 20
1326.884547
 30
0.0
 10
5819.891200
 20
1330.762763
 30
0.0
  0
SPLINE
  5
2e9
100
AcDbEntity
  8
small_holes_inside_cut
 62
6
100
AcDbSpline
 70
8
 71
3
 72
8
 73
4
 74
0
 40
0
 40
0
 40
0
 40
0
 40
1
 40
1
 40
1
 40
1
 10
5819.891200
 20
1330.763955
 30
0.0
 10
5815.878880
 20
1334.643387
 30
0.0
 10
5815.878320
 20
1340.933011
 30
0.0
 10
5819.891200
 20
1344.813099
 30
0.0
  0
LWPOLYLINE
  5
2ea
100
AcDbEntity
  8
small_holes_inside_cut
 62
6
100
AcDbPolyline
 90
4
 70
1
 10
5834.421760
 20
1381.854851
 30
0.0
 10
6040.215280
 20
1381.854851
 30
0.0
 10
5834.421760
 20
1381.854851
 30
0.0
 10
5834.421760
 20
1381.854851
 30
0.0
  0
LWPOLYLINE
  5
2eb
100
AcDbEntity
  8
small_holes_inside_cut
 62
6
100
AcDbPolyline
 90
4
 70
1
 10
6040.215280
 20
1330.762763
 30
0.0
 10
5834.421760
 20
1330.762763
 30
0.0
 10
6040.215280
 20
1330.762763
 30
0.0
 10
6040.215280
 20
1330.762763
 30
0.0
  0
LWPOLYLINE
  5
2ec
100
AcDbEntity
  8
small_holes_inside_cut
 62
6
100
AcDbPolyline
 90
4
 70
1
 10
5819.890000
 20
1344.813099
 30
0.0
 10
5819.890000
 20
1344.813099
 30
0.0
 10
5819.890000
 20
1344.813099
 30
0.0
 10
5819.890000
 20
1344.813099
 30
0.0
  0
SPLINE
  5
2ed
100
AcDbEntity
  8
small_holes_inside_cut
 62
6
100
AcDbSpline
 70
8
 71
3
 72
8
 73
4
 74
0
 40
0
 40
0
 40
0
 40
0
 40
1
 40
1
 40
1
 40
1
 10
6040.215280
 20
1381.854851
 30
0.0
 10
6044.228480
 20
1385.732819
 30
0.0
 10
6050.732960
 20
1385.731883
 30
0.0
 10
6054.744960
 20
1381.851651
 30
0.0
  0
SPLINE
  5
2ee
100
AcDbEntity
  8
small_holes_inside_cut
 62
6
100
AcDbSpline
 70
8
 71
3
 72
8
 73
4
 74
0
 40
0
 40
0
 40
0
 40
0
 40
1
 40
1
 40
1
 40
1
 10
6054.744960
 20
1381.852787
 30
0.0
 10
6058.756960
 20
1377.973723
 30
0.0
 10
6058.757920
 20
1371.684747
 30
0.0
 10
6054.744960
 20
1367.804523
 30
0.0
  0
LWPOLYLINE
  5
2ef
100
AcDbEntity
  8
small_holes_inside_cut
 62
6
100
AcDbPolyline
 90
4
 70
1
 10
5823.616640
 20
1327.742163
 30
0.0
 10
5823.616640
 20
1327.742163
 30
0.0
 10
5823.616640
 20
1327.742163
 30
0.0
 10
5823.616640
 20
1327.742163
 30
0.0
  0
SPLINE
  5
2f0
100
AcDbEntity
  8
small_holes_inside_cut
 62
6
100
AcDbSpline
 70
8
 71
3
 72
8
 73
4
 74
0
 40
0
 40
0
 40
0
 40
0
 40
1
 40
1
 40
1
 40
1
 10
6054.747120
 20
1344.813099
 30
0.0
 10
6058.757920
 20
1340.932867
 30
0.0
 10
6058.756960
 20
1334.643899
 30
0.0
 10
6054.747120
 20
1330.764827
 30
0.0
  0
SPLINE
  5
2f1
100
AcDbEntity
  8
small_holes_inside_cut
 62
6
100
AcDbSpline
 70
8
 71
3
 72
8
 73
4
 74
0
 40
0
 40
0
 40
0
 40
0
 40
1
 40
1
 40
1
 40
1
 10
6054.744960
 20
1330.764827
 30
0.0
 10
6050.732960
 20
1326.885739
 30
0.0
 10
6044.228480
 20
1326.884803
 30
0.0
 10
6040.215280
 20
1330.761627
 30
0.0
  0
LWPOLYLINE
  5
2f2
100
AcDbEntity
  8
small_holes_inside_cut
 62
6
100
AcDbPolyline
 90
2
 70
0
 10
6054.747120
 20
1367.804523
 30
0.0
 10
6054.747120
 20
1344.813099
 30
0.0
  0
ENDSEC
  0
SECTION
  2
OBJECTS
  0
DICTIONARY
  5
C
330
0
100
AcDbDictionary
  3
ACAD_GROUP
350
D
  3
ACAD_MLINESTYLE
350
17
  0
DICTIONARY
  5
D
330
C
100
AcDbDictionary
  0
DICTIONARY
  5
1A
330
C
100
AcDbDictionary
  0
DICTIONARY
  5
17
330
C
100
AcDbDictionary
  3
STANDARD
350
18
  0
DICTIONARY
  5
19
330
C
100
AcDbDictionary
  0
ENDSEC
  0
EOF
